0
SECTION
2
HEADER
999
Generator: RTK PowerGPS [AND] 2.18
999
Project: krasnik_pom30_11
0
ENDSEC
0
SECTION
2
TABLES
0
TABLE
2
LAYER
0
LAYER
100
AcDbSymbolTableRecord
100
AcDbLayerTableRecord
2
skreslenia
70
0
62
7
6
CONTINUOUS
370
18
0
LAYER
100
AcDbSymbolTableRecord
100
AcDbLayerTableRecord
2
sygnalizacja_braki
70
0
62
7
6
CONTINUOUS
370
18
0
LAYER
100
AcDbSymbolTableRecord
100
AcDbLayerTableRecord
2
uwagi_energia
70
0
62
7
6
CONTINUOUS
370
18
0
LAYER
100
AcDbSymbolTableRecord
100
AcDbLayerTableRecord
2
Drogowka_BRAKI
70
0
62
7
6
CONTINUOUS
370
18
0
LAYER
100
AcDbSymbolTableRecord
100
AcDbLayerTableRecord
2
pomiar
70
0
62
7
6
CONTINUOUS
370
18
0
ENDTAB
0
ENDSEC
0
SECTION
2
BLOCKS
0
ENDSEC
0
SECTION
2
ENTITIES
0
POINT
8
pomiar
10
7583314.427
20
5647513.223
30
201.272
0
TEXT
8
pomiar
1
k6239
10
7583314.427
20
5647513.223
30
201.272
11
7583314.427
21
5647513.223
31
201.272
40
1.5
50
0.0
72
0
73
1
0
TEXT
8
pomiar
1
bariera_plot
10
7583314.427
20
5647511.223
30
201.272
11
7583314.427
21
5647513.223
31
5647511.223
40
1
50
0.0
72
0
73
1
0
POINT
8
pomiar
10
7583316.434
20
5647512.906
30
201.245
0
TEXT
8
pomiar
1
k6238
10
7583316.434
20
5647512.906
30
201.245
11
7583316.434
21
5647512.906
31
201.245
40
1.5
50
0.0
72
0
73
1
0
TEXT
8
pomiar
1
bariera_plot
10
7583316.434
20
5647510.906
30
201.245
11
7583316.434
21
5647512.906
31
5647510.906
40
1
50
0.0
72
0
73
1
0
POINT
8
pomiar
10
7583318.323
20
5647512.278
30
201.169
0
TEXT
8
pomiar
1
k6237
10
7583318.323
20
5647512.278
30
201.169
11
7583318.323
21
5647512.278
31
201.169
40
1.5
50
0.0
72
0
73
1
0
TEXT
8
pomiar
1
bariera_plot
10
7583318.323
20
5647510.278
30
201.169
11
7583318.323
21
5647512.278
31
5647510.278
40
1
50
0.0
72
0
73
1
0
POINT
8
pomiar
10
7583320.128
20
5647511.385
30
201.113
0
TEXT
8
pomiar
1
k6236
10
7583320.128
20
5647511.385
30
201.113
11
7583320.128
21
5647511.385
31
201.113
40
1.5
50
0.0
72
0
73
1
0
TEXT
8
pomiar
1
bariera_plot
10
7583320.128
20
5647509.385
30
201.113
11
7583320.128
21
5647511.385
31
5647509.385
40
1
50
0.0
72
0
73
1
0
POINT
8
pomiar
10
7583321.810
20
5647510.341
30
200.971
0
TEXT
8
pomiar
1
k6235
10
7583321.810
20
5647510.341
30
200.971
11
7583321.810
21
5647510.341
31
200.971
40
1.5
50
0.0
72
0
73
1
0
TEXT
8
pomiar
1
bariera_plot
10
7583321.810
20
5647508.341
30
200.971
11
7583321.810
21
5647510.341
31
5647508.341
40
1
50
0.0
72
0
73
1
0
POINT
8
pomiar
10
7583328.580
20
5647502.998
30
200.886
0
TEXT
8
pomiar
1
k6234
10
7583328.580
20
5647502.998
30
200.886
11
7583328.580
21
5647502.998
31
200.886
40
1.5
50
0.0
72
0
73
1
0
TEXT
8
pomiar
1
bariera_plot
10
7583328.580
20
5647500.998
30
200.886
11
7583328.580
21
5647502.998
31
5647500.998
40
1
50
0.0
72
0
73
1
0
POINT
8
pomiar
10
7583338.069
20
5647492.716
30
200.780
0
TEXT
8
pomiar
1
k6233
10
7583338.069
20
5647492.716
30
200.780
11
7583338.069
21
5647492.716
31
200.780
40
1.5
50
0.0
72
0
73
1
0
TEXT
8
pomiar
1
bariera_plot
10
7583338.069
20
5647490.716
30
200.780
11
7583338.069
21
5647492.716
31
5647490.716
40
1
50
0.0
72
0
73
1
0
POINT
8
pomiar
10
7583348.893
20
5647480.957
30
200.513
0
TEXT
8
pomiar
1
k6232
10
7583348.893
20
5647480.957
30
200.513
11
7583348.893
21
5647480.957
31
200.513
40
1.5
50
0.0
72
0
73
1
0
TEXT
8
pomiar
1
bariera_plot
10
7583348.893
20
5647478.957
30
200.513
11
7583348.893
21
5647480.957
31
5647478.957
40
1
50
0.0
72
0
73
1
0
POINT
8
pomiar
10
7583352.037
20
5647473.634
30
200.401
0
TEXT
8
pomiar
1
k6231
10
7583352.037
20
5647473.634
30
200.401
11
7583352.037
21
5647473.634
31
200.401
40
1.5
50
0.0
72
0
73
1
0
TEXT
8
pomiar
1
bariera_plot
10
7583352.037
20
5647471.634
30
200.401
11
7583352.037
21
5647473.634
31
5647471.634
40
1
50
0.0
72
0
73
1
0
POINT
8
pomiar
10
7583376.897
20
5647488.492
30
200.313
0
TEXT
8
pomiar
1
k6230
10
7583376.897
20
5647488.492
30
200.313
11
7583376.897
21
5647488.492
31
200.313
40
1.5
50
0.0
72
0
73
1
0
TEXT
8
pomiar
1
bariera_plot
10
7583376.897
20
5647486.492
30
200.313
11
7583376.897
21
5647488.492
31
5647486.492
40
1
50
0.0
72
0
73
1
0
POINT
8
pomiar
10
7583368.624
20
5647499.778
30
200.510
0
TEXT
8
pomiar
1
k6229
10
7583368.624
20
5647499.778
30
200.510
11
7583368.624
21
5647499.778
31
200.510
40
1.5
50
0.0
72
0
73
1
0
TEXT
8
pomiar
1
bariera_plot
10
7583368.624
20
5647497.778
30
200.510
11
7583368.624
21
5647499.778
31
5647497.778
40
1
50
0.0
72
0
73
1
0
POINT
8
pomiar
10
7583358.007
20
5647514.284
30
200.743
0
TEXT
8
pomiar
1
k6228
10
7583358.007
20
5647514.284
30
200.743
11
7583358.007
21
5647514.284
31
200.743
40
1.5
50
0.0
72
0
73
1
0
TEXT
8
pomiar
1
bariera_plot
10
7583358.007
20
5647512.284
30
200.743
11
7583358.007
21
5647514.284
31
5647512.284
40
1
50
0.0
72
0
73
1
0
POINT
8
pomiar
10
7583345.100
20
5647532.008
30
201.205
0
TEXT
8
pomiar
1
k6227
10
7583345.100
20
5647532.008
30
201.205
11
7583345.100
21
5647532.008
31
201.205
40
1.5
50
0.0
72
0
73
1
0
TEXT
8
pomiar
1
bariera_plot
10
7583345.100
20
5647530.008
30
201.205
11
7583345.100
21
5647532.008
31
5647530.008
40
1
50
0.0
72
0
73
1
0
POINT
8
pomiar
10
7583344.094
20
5647533.747
30
201.270
0
TEXT
8
pomiar
1
k6226
10
7583344.094
20
5647533.747
30
201.270
11
7583344.094
21
5647533.747
31
201.270
40
1.5
50
0.0
72
0
73
1
0
TEXT
8
pomiar
1
bariera_plot
10
7583344.094
20
5647531.747
30
201.270
11
7583344.094
21
5647533.747
31
5647531.747
40
1
50
0.0
72
0
73
1
0
POINT
8
pomiar
10
7583343.294
20
5647535.573
30
201.315
0
TEXT
8
pomiar
1
k6225
10
7583343.294
20
5647535.573
30
201.315
11
7583343.294
21
5647535.573
31
201.315
40
1.5
50
0.0
72
0
73
1
0
TEXT
8
pomiar
1
bariera_plot
10
7583343.294
20
5647533.573
30
201.315
11
7583343.294
21
5647535.573
31
5647533.573
40
1
50
0.0
72
0
73
1
0
POINT
8
pomiar
10
7583342.971
20
5647537.549
30
201.389
0
TEXT
8
pomiar
1
k6224
10
7583342.971
20
5647537.549
30
201.389
11
7583342.971
21
5647537.549
31
201.389
40
1.5
50
0.0
72
0
73
1
0
TEXT
8
pomiar
1
bariera_plot
10
7583342.971
20
5647535.549
30
201.389
11
7583342.971
21
5647537.549
31
5647535.549
40
1
50
0.0
72
0
73
1
0
POINT
8
pomiar
10
7583342.952
20
5647539.575
30
201.513
0
TEXT
8
pomiar
1
k6223
10
7583342.952
20
5647539.575
30
201.513
11
7583342.952
21
5647539.575
31
201.513
40
1.5
50
0.0
72
0
73
1
0
TEXT
8
pomiar
1
bariera_plot
10
7583342.952
20
5647537.575
30
201.513
11
7583342.952
21
5647539.575
31
5647537.575
40
1
50
0.0
72
0
73
1
0
POINT
8
pomiar
10
7583343.449
20
5647541.513
30
201.480
0
TEXT
8
pomiar
1
k6222
10
7583343.449
20
5647541.513
30
201.480
11
7583343.449
21
5647541.513
31
201.480
40
1.5
50
0.0
72
0
73
1
0
TEXT
8
pomiar
1
bariera_plot
10
7583343.449
20
5647539.513
30
201.480
11
7583343.449
21
5647541.513
31
5647539.513
40
1
50
0.0
72
0
73
1
0
POINT
8
pomiar
10
7583344.462
20
5647543.268
30
201.518
0
TEXT
8
pomiar
1
k6221
10
7583344.462
20
5647543.268
30
201.518
11
7583344.462
21
5647543.268
31
201.518
40
1.5
50
0.0
72
0
73
1
0
TEXT
8
pomiar
1
bariera_plot
10
7583344.462
20
5647541.268
30
201.518
11
7583344.462
21
5647543.268
31
5647541.268
40
1
50
0.0
72
0
73
1
0
POINT
8
pomiar
10
7583347.483
20
5647545.949
30
201.465
0
TEXT
8
pomiar
1
k6220
10
7583347.483
20
5647545.949
30
201.465
11
7583347.483
21
5647545.949
31
201.465
40
1.5
50
0.0
72
0
73
1
0
TEXT
8
pomiar
1
bariera_plot
10
7583347.483
20
5647543.949
30
201.465
11
7583347.483
21
5647545.949
31
5647543.949
40
1
50
0.0
72
0
73
1
0
POINT
8
pomiar
10
7583350.510
20
5647548.474
30
201.272
0
TEXT
8
pomiar
1
k6219
10
7583350.510
20
5647548.474
30
201.272
11
7583350.510
21
5647548.474
31
201.272
40
1.5
50
0.0
72
0
73
1
0
TEXT
8
pomiar
1
bariera_plot
10
7583350.510
20
5647546.474
30
201.272
11
7583350.510
21
5647548.474
31
5647546.474
40
1
50
0.0
72
0
73
1
0
POINT
8
pomiar
10
7583348.900
20
5647552.167
30
201.219
0
TEXT
8
pomiar
1
k6218
10
7583348.900
20
5647552.167
30
201.219
11
7583348.900
21
5647552.167
31
201.219
40
1.5
50
0.0
72
0
73
1
0
TEXT
8
pomiar
1
bariera_plot
10
7583348.900
20
5647550.167
30
201.219
11
7583348.900
21
5647552.167
31
5647550.167
40
1
50
0.0
72
0
73
1
0
POINT
8
pomiar
10
7583583.264
20
5647467.865
30
196.072
0
TEXT
8
pomiar
1
k6217
10
7583583.264
20
5647467.865
30
196.072
11
7583583.264
21
5647467.865
31
196.072
40
1.5
50
0.0
72
0
73
1
0
TEXT
8
pomiar
1
bar_bez_wyp
10
7583583.264
20
5647465.865
30
196.072
11
7583583.264
21
5647467.865
31
5647465.865
40
1
50
0.0
72
0
73
1
0
POINT
8
pomiar
10
7583580.038
20
5647462.804
30
196.160
0
TEXT
8
pomiar
1
k6216
10
7583580.038
20
5647462.804
30
196.160
11
7583580.038
21
5647462.804
31
196.160
40
1.5
50
0.0
72
0
73
1
0
TEXT
8
pomiar
1
bar_bez_wyp
10
7583580.038
20
5647460.804
30
196.160
11
7583580.038
21
5647462.804
31
5647460.804
40
1
50
0.0
72
0
73
1
0
POINT
8
pomiar
10
7583579.443
20
5647460.914
30
196.177
0
TEXT
8
pomiar
1
k6215
10
7583579.443
20
5647460.914
30
196.177
11
7583579.443
21
5647460.914
31
196.177
40
1.5
50
0.0
72
0
73
1
0
TEXT
8
pomiar
1
bar_bez_wyp
10
7583579.443
20
5647458.914
30
196.177
11
7583579.443
21
5647460.914
31
5647458.914
40
1
50
0.0
72
0
73
1
0
POINT
8
pomiar
10
7583578.928
20
5647458.855
30
196.177
0
TEXT
8
pomiar
1
k6214
10
7583578.928
20
5647458.855
30
196.177
11
7583578.928
21
5647458.855
31
196.177
40
1.5
50
0.0
72
0
73
1
0
TEXT
8
pomiar
1
bar_bez_wyp
10
7583578.928
20
5647456.855
30
196.177
11
7583578.928
21
5647458.855
31
5647456.855
40
1
50
0.0
72
0
73
1
0
POINT
8
pomiar
10
7583567.480
20
5647469.873
30
196.258
0
TEXT
8
pomiar
1
k6213
10
7583567.480
20
5647469.873
30
196.258
11
7583567.480
21
5647469.873
31
196.258
40
1.5
50
0.0
72
0
73
1
0
TEXT
8
pomiar
1
bar_bez_wyp
10
7583567.480
20
5647467.873
30
196.258
11
7583567.480
21
5647469.873
31
5647467.873
40
1
50
0.0
72
0
73
1
0
POINT
8
pomiar
10
7583569.183
20
5647470.881
30
196.228
0
TEXT
8
pomiar
1
k6212
10
7583569.183
20
5647470.881
30
196.228
11
7583569.183
21
5647470.881
31
196.228
40
1.5
50
0.0
72
0
73
1
0
TEXT
8
pomiar
1
bar_bez_wyp
10
7583569.183
20
5647468.881
30
196.228
11
7583569.183
21
5647470.881
31
5647468.881
40
1
50
0.0
72
0
73
1
0
POINT
8
pomiar
10
7583570.778
20
5647472.052
30
196.232
0
TEXT
8
pomiar
1
k6211
10
7583570.778
20
5647472.052
30
196.232
11
7583570.778
21
5647472.052
31
196.232
40
1.5
50
0.0
72
0
73
1
0
TEXT
8
pomiar
1
bar_bez_wyp
10
7583570.778
20
5647470.052
30
196.232
11
7583570.778
21
5647472.052
31
5647470.052
40
1
50
0.0
72
0
73
1
0
POINT
8
pomiar
10
7583572.254
20
5647473.406
30
196.178
0
TEXT
8
pomiar
1
k6210
10
7583572.254
20
5647473.406
30
196.178
11
7583572.254
21
5647473.406
31
196.178
40
1.5
50
0.0
72
0
73
1
0
TEXT
8
pomiar
1
bar_bez_wyp
10
7583572.254
20
5647471.406
30
196.178
11
7583572.254
21
5647473.406
31
5647471.406
40
1
50
0.0
72
0
73
1
0
POINT
8
pomiar
10
7583575.180
20
5647476.306
30
196.035
0
TEXT
8
pomiar
1
k6209
10
7583575.180
20
5647476.306
30
196.035
11
7583575.180
21
5647476.306
31
196.035
40
1.5
50
0.0
72
0
73
1
0
TEXT
8
pomiar
1
bar_bez_wyp
10
7583575.180
20
5647474.306
30
196.035
11
7583575.180
21
5647476.306
31
5647474.306
40
1
50
0.0
72
0
73
1
0
POINT
8
pomiar
10
7583579.291
20
5647480.659
30
195.847
0
TEXT
8
pomiar
1
k6208
10
7583579.291
20
5647480.659
30
195.847
11
7583579.291
21
5647480.659
31
195.847
40
1.5
50
0.0
72
0
73
1
0
TEXT
8
pomiar
1
bar_bez_wyp
10
7583579.291
20
5647478.659
30
195.847
11
7583579.291
21
5647480.659
31
5647478.659
40
1
50
0.0
72
0
73
1
0
POINT
8
pomiar
10
7583578.716
20
5647484.779
30
195.829
0
TEXT
8
pomiar
1
k6207
10
7583578.716
20
5647484.779
30
195.829
11
7583578.716
21
5647484.779
31
195.829
40
1.5
50
0.0
72
0
73
1
0
TEXT
8
pomiar
1
bariera_plot
10
7583578.716
20
5647482.779
30
195.829
11
7583578.716
21
5647484.779
31
5647482.779
40
1
50
0.0
72
0
73
1
0
POINT
8
pomiar
10
7583568.500
20
5647475.241
30
196.224
0
TEXT
8
pomiar
1
k6206
10
7583568.500
20
5647475.241
30
196.224
11
7583568.500
21
5647475.241
31
196.224
40
1.5
50
0.0
72
0
73
1
0
TEXT
8
pomiar
1
bariera_plot
10
7583568.500
20
5647473.241
30
196.224
11
7583568.500
21
5647475.241
31
5647473.241
40
1
50
0.0
72
0
73
1
0
POINT
8
pomiar
10
7583566.778
20
5647474.168
30
196.314
0
TEXT
8
pomiar
1
k6205
10
7583566.778
20
5647474.168
30
196.314
11
7583566.778
21
5647474.168
31
196.314
40
1.5
50
0.0
72
0
73
1
0
TEXT
8
pomiar
1
bariera_plot
10
7583566.778
20
5647472.168
30
196.314
11
7583566.778
21
5647474.168
31
5647472.168
40
1
50
0.0
72
0
73
1
0
POINT
8
pomiar
10
7583564.964
20
5647473.304
30
196.329
0
TEXT
8
pomiar
1
k6204
10
7583564.964
20
5647473.304
30
196.329
11
7583564.964
21
5647473.304
31
196.329
40
1.5
50
0.0
72
0
73
1
0
TEXT
8
pomiar
1
bariera_plot
10
7583564.964
20
5647471.304
30
196.329
11
7583564.964
21
5647473.304
31
5647471.304
40
1
50
0.0
72
0
73
1
0
POINT
8
pomiar
10
7583563.232
20
5647472.308
30
196.365
0
TEXT
8
pomiar
1
k6203
10
7583563.232
20
5647472.308
30
196.365
11
7583563.232
21
5647472.308
31
196.365
40
1.5
50
0.0
72
0
73
1
0
TEXT
8
pomiar
1
bariera_plot
10
7583563.232
20
5647470.308
30
196.365
11
7583563.232
21
5647472.308
31
5647470.308
40
1
50
0.0
72
0
73
1
0
POINT
8
pomiar
10
7583561.607
20
5647471.142
30
196.312
0
TEXT
8
pomiar
1
k6202
10
7583561.607
20
5647471.142
30
196.312
11
7583561.607
21
5647471.142
31
196.312
40
1.5
50
0.0
72
0
73
1
0
TEXT
8
pomiar
1
bariera_plot
10
7583561.607
20
5647469.142
30
196.312
11
7583561.607
21
5647471.142
31
5647469.142
40
1
50
0.0
72
0
73
1
0
POINT
8
pomiar
10
7583559.931
20
5647470.030
30
196.396
0
TEXT
8
pomiar
1
k6201
10
7583559.931
20
5647470.030
30
196.396
11
7583559.931
21
5647470.030
31
196.396
40
1.5
50
0.0
72
0
73
1
0
TEXT
8
pomiar
1
bariera_plot
10
7583559.931
20
5647468.030
30
196.396
11
7583559.931
21
5647470.030
31
5647468.030
40
1
50
0.0
72
0
73
1
0
POINT
8
pomiar
10
7583557.916
20
5647470.308
30
196.377
0
TEXT
8
pomiar
1
k6200
10
7583557.916
20
5647470.308
30
196.377
11
7583557.916
21
5647470.308
31
196.377
40
1.5
50
0.0
72
0
73
1
0
TEXT
8
pomiar
1
bariera_plot
10
7583557.916
20
5647468.308
30
196.377
11
7583557.916
21
5647470.308
31
5647468.308
40
1
50
0.0
72
0
73
1
0
POINT
8
pomiar
10
7583553.293
20
5647474.139
30
196.139
0
TEXT
8
pomiar
1
k6199
10
7583553.293
20
5647474.139
30
196.139
11
7583553.293
21
5647474.139
31
196.139
40
1.5
50
0.0
72
0
73
1
0
TEXT
8
pomiar
1
bariera_plot
10
7583553.293
20
5647472.139
30
196.139
11
7583553.293
21
5647474.139
31
5647472.139
40
1
50
0.0
72
0
73
1
0
POINT
8
pomiar
10
7583386.356
20
5647581.197
30
200.746
0
TEXT
8
pomiar
1
k6198
10
7583386.356
20
5647581.197
30
200.746
11
7583386.356
21
5647581.197
31
200.746
40
1.5
50
0.0
72
0
73
1
0
TEXT
8
pomiar
1
bariera_plot
10
7583386.356
20
5647579.197
30
200.746
11
7583386.356
21
5647581.197
31
5647579.197
40
1
50
0.0
72
0
73
1
0
POINT
8
pomiar
10
7583382.383
20
5647581.588
30
200.835
0
TEXT
8
pomiar
1
k6197
10
7583382.383
20
5647581.588
30
200.835
11
7583382.383
21
5647581.588
31
200.835
40
1.5
50
0.0
72
0
73
1
0
TEXT
8
pomiar
1
bariera_plot
10
7583382.383
20
5647579.588
30
200.835
11
7583382.383
21
5647581.588
31
5647579.588
40
1
50
0.0
72
0
73
1
0
POINT
8
pomiar
10
7583376.383
20
5647581.766
30
200.952
0
TEXT
8
pomiar
1
k6196
10
7583376.383
20
5647581.766
30
200.952
11
7583376.383
21
5647581.766
31
200.952
40
1.5
50
0.0
72
0
73
1
0
TEXT
8
pomiar
1
bariera_plot
10
7583376.383
20
5647579.766
30
200.952
11
7583376.383
21
5647581.766
31
5647579.766
40
1
50
0.0
72
0
73
1
0
POINT
8
pomiar
10
7583372.394
20
5647581.668
30
201.083
0
TEXT
8
pomiar
1
k6195
10
7583372.394
20
5647581.668
30
201.083
11
7583372.394
21
5647581.668
31
201.083
40
1.5
50
0.0
72
0
73
1
0
TEXT
8
pomiar
1
bariera_plot
10
7583372.394
20
5647579.668
30
201.083
11
7583372.394
21
5647581.668
31
5647579.668
40
1
50
0.0
72
0
73
1
0
POINT
8
pomiar
10
7583366.402
20
5647581.424
30
201.217
0
TEXT
8
pomiar
1
k6194
10
7583366.402
20
5647581.424
30
201.217
11
7583366.402
21
5647581.424
31
201.217
40
1.5
50
0.0
72
0
73
1
0
TEXT
8
pomiar
1
bariera_plot
10
7583366.402
20
5647579.424
30
201.217
11
7583366.402
21
5647581.424
31
5647579.424
40
1
50
0.0
72
0
73
1
0
POINT
8
pomiar
10
7583360.469
20
5647580.755
30
201.336
0
TEXT
8
pomiar
1
k6193
10
7583360.469
20
5647580.755
30
201.336
11
7583360.469
21
5647580.755
31
201.336
40
1.5
50
0.0
72
0
73
1
0
TEXT
8
pomiar
1
bariera_plot
10
7583360.469
20
5647578.755
30
201.336
11
7583360.469
21
5647580.755
31
5647578.755
40
1
50
0.0
72
0
73
1
0
POINT
8
pomiar
10
7583356.483
20
5647580.115
30
201.438
0
TEXT
8
pomiar
1
k6192
10
7583356.483
20
5647580.115
30
201.438
11
7583356.483
21
5647580.115
31
201.438
40
1.5
50
0.0
72
0
73
1
0
TEXT
8
pomiar
1
bariera_plot
10
7583356.483
20
5647578.115
30
201.438
11
7583356.483
21
5647580.115
31
5647578.115
40
1
50
0.0
72
0
73
1
0
POINT
8
pomiar
10
7583352.563
20
5647579.334
30
201.505
0
TEXT
8
pomiar
1
k6191
10
7583352.563
20
5647579.334
30
201.505
11
7583352.563
21
5647579.334
31
201.505
40
1.5
50
0.0
72
0
73
1
0
TEXT
8
pomiar
1
bariera_plot
10
7583352.563
20
5647577.334
30
201.505
11
7583352.563
21
5647579.334
31
5647577.334
40
1
50
0.0
72
0
73
1
0
POINT
8
pomiar
10
7583348.657
20
5647578.523
30
201.570
0
TEXT
8
pomiar
1
k6190
10
7583348.657
20
5647578.523
30
201.570
11
7583348.657
21
5647578.523
31
201.570
40
1.5
50
0.0
72
0
73
1
0
TEXT
8
pomiar
1
bariera_plot
10
7583348.657
20
5647576.523
30
201.570
11
7583348.657
21
5647578.523
31
5647576.523
40
1
50
0.0
72
0
73
1
0
POINT
8
pomiar
10
7583344.784
20
5647577.585
30
201.570
0
TEXT
8
pomiar
1
k6189
10
7583344.784
20
5647577.585
30
201.570
11
7583344.784
21
5647577.585
31
201.570
40
1.5
50
0.0
72
0
73
1
0
TEXT
8
pomiar
1
bariera_plot
10
7583344.784
20
5647575.585
30
201.570
11
7583344.784
21
5647577.585
31
5647575.585
40
1
50
0.0
72
0
73
1
0
POINT
8
pomiar
10
7583340.962
20
5647576.459
30
201.685
0
TEXT
8
pomiar
1
k6188
10
7583340.962
20
5647576.459
30
201.685
11
7583340.962
21
5647576.459
31
201.685
40
1.5
50
0.0
72
0
73
1
0
TEXT
8
pomiar
1
bariera_plot
10
7583340.962
20
5647574.459
30
201.685
11
7583340.962
21
5647576.459
31
5647574.459
40
1
50
0.0
72
0
73
1
0
POINT
8
pomiar
10
7583333.391
20
5647573.815
30
201.800
0
TEXT
8
pomiar
1
k6187
10
7583333.391
20
5647573.815
30
201.800
11
7583333.391
21
5647573.815
31
201.800
40
1.5
50
0.0
72
0
73
1
0
TEXT
8
pomiar
1
bariera_plot
10
7583333.391
20
5647571.815
30
201.800
11
7583333.391
21
5647573.815
31
5647571.815
40
1
50
0.0
72
0
73
1
0
POINT
8
pomiar
10
7583331.413
20
5647573.516
30
201.885
0
TEXT
8
pomiar
1
k6186
10
7583331.413
20
5647573.516
30
201.885
11
7583331.413
21
5647573.516
31
201.885
40
1.5
50
0.0
72
0
73
1
0
TEXT
8
pomiar
1
bariera_plot
10
7583331.413
20
5647571.516
30
201.885
11
7583331.413
21
5647573.516
31
5647571.516
40
1
50
0.0
72
0
73
1
0
POINT
8
pomiar
10
7583329.415
20
5647573.788
30
201.850
0
TEXT
8
pomiar
1
k6185
10
7583329.415
20
5647573.788
30
201.850
11
7583329.415
21
5647573.788
31
201.850
40
1.5
50
0.0
72
0
73
1
0
TEXT
8
pomiar
1
bariera_plot
10
7583329.415
20
5647571.788
30
201.850
11
7583329.415
21
5647573.788
31
5647571.788
40
1
50
0.0
72
0
73
1
0
POINT
8
pomiar
10
7583327.537
20
5647574.468
30
201.954
0
TEXT
8
pomiar
1
k6184
10
7583327.537
20
5647574.468
30
201.954
11
7583327.537
21
5647574.468
31
201.954
40
1.5
50
0.0
72
0
73
1
0
TEXT
8
pomiar
1
bariera_plot
10
7583327.537
20
5647572.468
30
201.954
11
7583327.537
21
5647574.468
31
5647572.468
40
1
50
0.0
72
0
73
1
0
POINT
8
pomiar
10
7583325.693
20
5647575.290
30
201.947
0
TEXT
8
pomiar
1
k6183
10
7583325.693
20
5647575.290
30
201.947
11
7583325.693
21
5647575.290
31
201.947
40
1.5
50
0.0
72
0
73
1
0
TEXT
8
pomiar
1
bariera_plot
10
7583325.693
20
5647573.290
30
201.947
11
7583325.693
21
5647575.290
31
5647573.290
40
1
50
0.0
72
0
73
1
0
POINT
8
pomiar
10
7583321.977
20
5647576.751
30
202.010
0
TEXT
8
pomiar
1
k6182
10
7583321.977
20
5647576.751
30
202.010
11
7583321.977
21
5647576.751
31
202.010
40
1.5
50
0.0
72
0
73
1
0
TEXT
8
pomiar
1
bariera_plot
10
7583321.977
20
5647574.751
30
202.010
11
7583321.977
21
5647576.751
31
5647574.751
40
1
50
0.0
72
0
73
1
0
POINT
8
pomiar
10
7583318.125
20
5647577.672
30
202.056
0
TEXT
8
pomiar
1
k6181
10
7583318.125
20
5647577.672
30
202.056
11
7583318.125
21
5647577.672
31
202.056
40
1.5
50
0.0
72
0
73
1
0
TEXT
8
pomiar
1
bariera_plot
10
7583318.125
20
5647575.672
30
202.056
11
7583318.125
21
5647577.672
31
5647575.672
40
1
50
0.0
72
0
73
1
0
POINT
8
pomiar
10
7583314.198
20
5647578.383
30
202.164
0
TEXT
8
pomiar
1
k6180
10
7583314.198
20
5647578.383
30
202.164
11
7583314.198
21
5647578.383
31
202.164
40
1.5
50
0.0
72
0
73
1
0
TEXT
8
pomiar
1
bariera_plot
10
7583314.198
20
5647576.383
30
202.164
11
7583314.198
21
5647578.383
31
5647576.383
40
1
50
0.0
72
0
73
1
0
POINT
8
pomiar
10
7583312.314
20
5647579.043
30
202.152
0
TEXT
8
pomiar
1
k6179
10
7583312.314
20
5647579.043
30
202.152
11
7583312.314
21
5647579.043
31
202.152
40
1.5
50
0.0
72
0
73
1
0
TEXT
8
pomiar
1
bariera_plot
10
7583312.314
20
5647577.043
30
202.152
11
7583312.314
21
5647579.043
31
5647577.043
40
1
50
0.0
72
0
73
1
0
POINT
8
pomiar
10
7583310.440
20
5647579.712
30
202.203
0
TEXT
8
pomiar
1
k6178
10
7583310.440
20
5647579.712
30
202.203
11
7583310.440
21
5647579.712
31
202.203
40
1.5
50
0.0
72
0
73
1
0
TEXT
8
pomiar
1
bariera_plot
10
7583310.440
20
5647577.712
30
202.203
11
7583310.440
21
5647579.712
31
5647577.712
40
1
50
0.0
72
0
73
1
0
POINT
8
pomiar
10
7583308.634
20
5647580.608
30
202.254
0
TEXT
8
pomiar
1
k6177
10
7583308.634
20
5647580.608
30
202.254
11
7583308.634
21
5647580.608
31
202.254
40
1.5
50
0.0
72
0
73
1
0
TEXT
8
pomiar
1
bariera_plot
10
7583308.634
20
5647578.608
30
202.254
11
7583308.634
21
5647580.608
31
5647578.608
40
1
50
0.0
72
0
73
1
0
POINT
8
pomiar
10
7583306.946
20
5647581.636
30
202.284
0
TEXT
8
pomiar
1
k6176
10
7583306.946
20
5647581.636
30
202.284
11
7583306.946
21
5647581.636
31
202.284
40
1.5
50
0.0
72
0
73
1
0
TEXT
8
pomiar
1
bariera_plot
10
7583306.946
20
5647579.636
30
202.284
11
7583306.946
21
5647581.636
31
5647579.636
40
1
50
0.0
72
0
73
1
0
POINT
8
pomiar
10
7583305.288
20
5647582.793
30
202.339
0
TEXT
8
pomiar
1
k6175
10
7583305.288
20
5647582.793
30
202.339
11
7583305.288
21
5647582.793
31
202.339
40
1.5
50
0.0
72
0
73
1
0
TEXT
8
pomiar
1
bariera_plot
10
7583305.288
20
5647580.793
30
202.339
11
7583305.288
21
5647582.793
31
5647580.793
40
1
50
0.0
72
0
73
1
0
POINT
8
pomiar
10
7583303.977
20
5647584.301
30
202.365
0
TEXT
8
pomiar
1
k6174
10
7583303.977
20
5647584.301
30
202.365
11
7583303.977
21
5647584.301
31
202.365
40
1.5
50
0.0
72
0
73
1
0
TEXT
8
pomiar
1
bariera_plot
10
7583303.977
20
5647582.301
30
202.365
11
7583303.977
21
5647584.301
31
5647582.301
40
1
50
0.0
72
0
73
1
0
POINT
8
pomiar
10
7583302.482
20
5647585.673
30
202.405
0
TEXT
8
pomiar
1
k6173
10
7583302.482
20
5647585.673
30
202.405
11
7583302.482
21
5647585.673
31
202.405
40
1.5
50
0.0
72
0
73
1
0
TEXT
8
pomiar
1
bariera_plot
10
7583302.482
20
5647583.673
30
202.405
11
7583302.482
21
5647585.673
31
5647583.673
40
1
50
0.0
72
0
73
1
0
POLYLINE
8
pomiar
66
1
70
0
10
0.0
20
0.0
30
0.0
0
VERTEX
8
pomiar
10
7581658.290
20
5649480.263
30
213.675
0
VERTEX
8
pomiar
10
7581658.993
20
5649480.823
30
213.669
0
VERTEX
8
pomiar
10
7581672.448
20
5649465.092
30
213.330
0
VERTEX
8
pomiar
10
7581671.769
20
5649464.587
30
213.218
0
VERTEX
8
pomiar
10
7581658.290
20
5649480.263
30
213.675
0
SEQEND
0
POLYLINE
8
pomiar
66
1
70
0
10
0.0
20
0.0
30
0.0
0
VERTEX
8
pomiar
10
7581640.302
20
5649503.573
30
214.553
0
VERTEX
8
pomiar
10
7581647.376
20
5649496.080
30
214.415
0
VERTEX
8
pomiar
10
7581652.473
20
5649489.553
30
214.121
0
VERTEX
8
pomiar
10
7581659.282
20
5649482.022
30
214.338
0
VERTEX
8
pomiar
10
7581660.195
20
5649482.632
30
214.901
0
VERTEX
8
pomiar
10
7581653.550
20
5649490.382
30
214.965
0
VERTEX
8
pomiar
10
7581648.312
20
5649496.811
30
215.214
0
VERTEX
8
pomiar
10
7581641.655
20
5649504.769
30
214.992
0
VERTEX
8
pomiar
10
7581640.302
20
5649503.573
30
214.553
0
SEQEND
0
POINT
8
pomiar
10
7581640.302
20
5649503.573
30
214.553
0
TEXT
8
pomiar
1
k6167
10
7581640.302
20
5649503.573
30
214.553
11
7581640.302
21
5649503.573
31
214.553
40
1.5
50
0.0
72
0
73
1
0
TEXT
8
pomiar
1
dsk
10
7581640.302
20
5649501.573
30
214.553
11
7581640.302
21
5649503.573
31
5649501.573
40
1
50
0.0
72
0
73
1
0
POINT
8
pomiar
10
7581641.655
20
5649504.769
30
214.992
0
TEXT
8
pomiar
1
k6166
10
7581641.655
20
5649504.769
30
214.992
11
7581641.655
21
5649504.769
31
214.992
40
1.5
50
0.0
72
0
73
1
0
TEXT
8
pomiar
1
gsk
10
7581641.655
20
5649502.769
30
214.992
11
7581641.655
21
5649504.769
31
5649502.769
40
1
50
0.0
72
0
73
1
0
POINT
8
pomiar
10
7581648.312
20
5649496.811
30
215.214
0
TEXT
8
pomiar
1
k6165
10
7581648.312
20
5649496.811
30
215.214
11
7581648.312
21
5649496.811
31
215.214
40
1.5
50
0.0
72
0
73
1
0
TEXT
8
pomiar
1
gsk
10
7581648.312
20
5649494.811
30
215.214
11
7581648.312
21
5649496.811
31
5649494.811
40
1
50
0.0
72
0
73
1
0
POINT
8
pomiar
10
7581647.376
20
5649496.080
30
214.415
0
TEXT
8
pomiar
1
k6164
10
7581647.376
20
5649496.080
30
214.415
11
7581647.376
21
5649496.080
31
214.415
40
1.5
50
0.0
72
0
73
1
0
TEXT
8
pomiar
1
dsk
10
7581647.376
20
5649494.080
30
214.415
11
7581647.376
21
5649496.080
31
5649494.080
40
1
50
0.0
72
0
73
1
0
POINT
8
pomiar
10
7581652.473
20
5649489.553
30
214.121
0
TEXT
8
pomiar
1
k6163
10
7581652.473
20
5649489.553
30
214.121
11
7581652.473
21
5649489.553
31
214.121
40
1.5
50
0.0
72
0
73
1
0
TEXT
8
pomiar
1
dsk
10
7581652.473
20
5649487.553
30
214.121
11
7581652.473
21
5649489.553
31
5649487.553
40
1
50
0.0
72
0
73
1
0
POINT
8
pomiar
10
7581653.550
20
5649490.382
30
214.965
0
TEXT
8
pomiar
1
k6162
10
7581653.550
20
5649490.382
30
214.965
11
7581653.550
21
5649490.382
31
214.965
40
1.5
50
0.0
72
0
73
1
0
TEXT
8
pomiar
1
gsk
10
7581653.550
20
5649488.382
30
214.965
11
7581653.550
21
5649490.382
31
5649488.382
40
1
50
0.0
72
0
73
1
0
POINT
8
pomiar
10
7581660.195
20
5649482.632
30
214.901
0
TEXT
8
pomiar
1
k6161
10
7581660.195
20
5649482.632
30
214.901
11
7581660.195
21
5649482.632
31
214.901
40
1.5
50
0.0
72
0
73
1
0
TEXT
8
pomiar
1
gsk
10
7581660.195
20
5649480.632
30
214.901
11
7581660.195
21
5649482.632
31
5649480.632
40
1
50
0.0
72
0
73
1
0
POINT
8
pomiar
10
7581659.282
20
5649482.022
30
214.338
0
TEXT
8
pomiar
1
k6160
10
7581659.282
20
5649482.022
30
214.338
11
7581659.282
21
5649482.022
31
214.338
40
1.5
50
0.0
72
0
73
1
0
TEXT
8
pomiar
1
dsk
10
7581659.282
20
5649480.022
30
214.338
11
7581659.282
21
5649482.022
31
5649480.022
40
1
50
0.0
72
0
73
1
0
POINT
8
pomiar
10
7581658.993
20
5649480.823
30
213.669
0
TEXT
8
pomiar
1
k6159
10
7581658.993
20
5649480.823
30
213.669
11
7581658.993
21
5649480.823
31
213.669
40
1.5
50
0.0
72
0
73
1
0
TEXT
8
pomiar
1
dsk
10
7581658.993
20
5649478.823
30
213.669
11
7581658.993
21
5649480.823
31
5649478.823
40
1
50
0.0
72
0
73
1
0
POINT
8
pomiar
10
7581658.290
20
5649480.263
30
213.675
0
TEXT
8
pomiar
1
k6158
10
7581658.290
20
5649480.263
30
213.675
11
7581658.290
21
5649480.263
31
213.675
40
1.5
50
0.0
72
0
73
1
0
TEXT
8
pomiar
1
dsk
10
7581658.290
20
5649478.263
30
213.675
11
7581658.290
21
5649480.263
31
5649478.263
40
1
50
0.0
72
0
73
1
0
POINT
8
pomiar
10
7581672.448
20
5649465.092
30
213.330
0
TEXT
8
pomiar
1
k6157
10
7581672.448
20
5649465.092
30
213.330
11
7581672.448
21
5649465.092
31
213.330
40
1.5
50
0.0
72
0
73
1
0
TEXT
8
pomiar
1
dsk
10
7581672.448
20
5649463.092
30
213.330
11
7581672.448
21
5649465.092
31
5649463.092
40
1
50
0.0
72
0
73
1
0
POINT
8
pomiar
10
7581671.769
20
5649464.587
30
213.218
0
TEXT
8
pomiar
1
k6156
10
7581671.769
20
5649464.587
30
213.218
11
7581671.769
21
5649464.587
31
213.218
40
1.5
50
0.0
72
0
73
1
0
TEXT
8
pomiar
1
dsk
10
7581671.769
20
5649462.587
30
213.218
11
7581671.769
21
5649464.587
31
5649462.587
40
1
50
0.0
72
0
73
1
0
POINT
8
pomiar
10
7581725.035
20
5649426.402
30
212.574
0
TEXT
8
pomiar
1
k6155
10
7581725.035
20
5649426.402
30
212.574
11
7581725.035
21
5649426.402
31
212.574
40
1.5
50
0.0
72
0
73
1
0
TEXT
8
pomiar
1
dsk
10
7581725.035
20
5649424.402
30
212.574
11
7581725.035
21
5649426.402
31
5649424.402
40
1
50
0.0
72
0
73
1
0
POINT
8
pomiar
10
7581724.684
20
5649426.050
30
212.565
0
TEXT
8
pomiar
1
k6154
10
7581724.684
20
5649426.050
30
212.565
11
7581724.684
21
5649426.050
31
212.565
40
1.5
50
0.0
72
0
73
1
0
TEXT
8
pomiar
1
dsk
10
7581724.684
20
5649424.050
30
212.565
11
7581724.684
21
5649426.050
31
5649424.050
40
1
50
0.0
72
0
73
1
0
POINT
8
pomiar
10
7581731.529
20
5649421.550
30
212.553
0
TEXT
8
pomiar
1
k6153
10
7581731.529
20
5649421.550
30
212.553
11
7581731.529
21
5649421.550
31
212.553
40
1.5
50
0.0
72
0
73
1
0
TEXT
8
pomiar
1
dsk
10
7581731.529
20
5649419.550
30
212.553
11
7581731.529
21
5649421.550
31
5649419.550
40
1
50
0.0
72
0
73
1
0
POINT
8
pomiar
10
7581731.314
20
5649421.275
30
212.558
0
TEXT
8
pomiar
1
k6152
10
7581731.314
20
5649421.275
30
212.558
11
7581731.314
21
5649421.275
31
212.558
40
1.5
50
0.0
72
0
73
1
0
TEXT
8
pomiar
1
dsk
10
7581731.314
20
5649419.275
30
212.558
11
7581731.314
21
5649421.275
31
5649419.275
40
1
50
0.0
72
0
73
1
0
POINT
8
pomiar
10
7581740.147
20
5649414.683
30
212.490
0
TEXT
8
pomiar
1
k6151
10
7581740.147
20
5649414.683
30
212.490
11
7581740.147
21
5649414.683
31
212.490
40
1.5
50
0.0
72
0
73
1
0
TEXT
8
pomiar
1
dsk
10
7581740.147
20
5649412.683
30
212.490
11
7581740.147
21
5649414.683
31
5649412.683
40
1
50
0.0
72
0
73
1
0
POINT
8
pomiar
10
7581740.397
20
5649414.997
30
212.527
0
TEXT
8
pomiar
1
k6150
10
7581740.397
20
5649414.997
30
212.527
11
7581740.397
21
5649414.997
31
212.527
40
1.5
50
0.0
72
0
73
1
0
TEXT
8
pomiar
1
dsk
10
7581740.397
20
5649412.997
30
212.527
11
7581740.397
21
5649414.997
31
5649412.997
40
1
50
0.0
72
0
73
1
0
POINT
8
pomiar
10
7581746.868
20
5649410.027
30
212.397
0
TEXT
8
pomiar
1
k6149
10
7581746.868
20
5649410.027
30
212.397
11
7581746.868
21
5649410.027
31
212.397
40
1.5
50
0.0
72
0
73
1
0
TEXT
8
pomiar
1
dsk
10
7581746.868
20
5649408.027
30
212.397
11
7581746.868
21
5649410.027
31
5649408.027
40
1
50
0.0
72
0
73
1
0
POINT
8
pomiar
10
7581746.482
20
5649409.608
30
212.416
0
TEXT
8
pomiar
1
k6148
10
7581746.482
20
5649409.608
30
212.416
11
7581746.482
21
5649409.608
31
212.416
40
1.5
50
0.0
72
0
73
1
0
TEXT
8
pomiar
1
dsk
10
7581746.482
20
5649407.608
30
212.416
11
7581746.482
21
5649409.608
31
5649407.608
40
1
50
0.0
72
0
73
1
0
POINT
8
pomiar
10
7581751.424
20
5649404.678
30
212.292
0
TEXT
8
pomiar
1
k6147
10
7581751.424
20
5649404.678
30
212.292
11
7581751.424
21
5649404.678
31
212.292
40
1.5
50
0.0
72
0
73
1
0
TEXT
8
pomiar
1
dsk
10
7581751.424
20
5649402.678
30
212.292
11
7581751.424
21
5649404.678
31
5649402.678
40
1
50
0.0
72
0
73
1
0
POINT
8
pomiar
10
7581750.974
20
5649404.455
30
212.294
0
TEXT
8
pomiar
1
k6146
10
7581750.974
20
5649404.455
30
212.294
11
7581750.974
21
5649404.455
31
212.294
40
1.5
50
0.0
72
0
73
1
0
TEXT
8
pomiar
1
dsk
10
7581750.974
20
5649402.455
30
212.294
11
7581750.974
21
5649404.455
31
5649402.455
40
1
50
0.0
72
0
73
1
0
POINT
8
pomiar
10
7581753.650
20
5649399.104
30
212.119
0
TEXT
8
pomiar
1
k6145
10
7581753.650
20
5649399.104
30
212.119
11
7581753.650
21
5649399.104
31
212.119
40
1.5
50
0.0
72
0
73
1
0
TEXT
8
pomiar
1
dsk
10
7581753.650
20
5649397.104
30
212.119
11
7581753.650
21
5649399.104
31
5649397.104
40
1
50
0.0
72
0
73
1
0
POINT
8
pomiar
10
7581754.009
20
5649399.275
30
212.121
0
TEXT
8
pomiar
1
k6144
10
7581754.009
20
5649399.275
30
212.121
11
7581754.009
21
5649399.275
31
212.121
40
1.5
50
0.0
72
0
73
1
0
TEXT
8
pomiar
1
dsk
10
7581754.009
20
5649397.275
30
212.121
11
7581754.009
21
5649399.275
31
5649397.275
40
1
50
0.0
72
0
73
1
0
POINT
8
pomiar
10
7581755.403
20
5649400.382
30
213.296
0
TEXT
8
pomiar
1
k6143
10
7581755.403
20
5649400.382
30
213.296
11
7581755.403
21
5649400.382
31
213.296
40
1.5
50
0.0
72
0
73
1
0
TEXT
8
pomiar
1
gsk
10
7581755.403
20
5649398.382
30
213.296
11
7581755.403
21
5649400.382
31
5649398.382
40
1
50
0.0
72
0
73
1
0
POINT
8
pomiar
10
7581752.384
20
5649405.953
30
213.447
0
TEXT
8
pomiar
1
k6142
10
7581752.384
20
5649405.953
30
213.447
11
7581752.384
21
5649405.953
31
213.447
40
1.5
50
0.0
72
0
73
1
0
TEXT
8
pomiar
1
gsk
10
7581752.384
20
5649403.953
30
213.447
11
7581752.384
21
5649405.953
31
5649403.953
40
1
50
0.0
72
0
73
1
0
POINT
8
pomiar
10
7581748.261
20
5649410.833
30
213.496
0
TEXT
8
pomiar
1
k6141
10
7581748.261
20
5649410.833
30
213.496
11
7581748.261
21
5649410.833
31
213.496
40
1.5
50
0.0
72
0
73
1
0
TEXT
8
pomiar
1
gsk
10
7581748.261
20
5649408.833
30
213.496
11
7581748.261
21
5649410.833
31
5649408.833
40
1
50
0.0
72
0
73
1
0
POINT
8
pomiar
10
7581741.634
20
5649416.604
30
213.619
0
TEXT
8
pomiar
1
k6140
10
7581741.634
20
5649416.604
30
213.619
11
7581741.634
21
5649416.604
31
213.619
40
1.5
50
0.0
72
0
73
1
0
TEXT
8
pomiar
1
gsk
10
7581741.634
20
5649414.604
30
213.619
11
7581741.634
21
5649416.604
31
5649414.604
40
1
50
0.0
72
0
73
1
0
POINT
8
pomiar
10
7581732.717
20
5649422.983
30
213.555
0
TEXT
8
pomiar
1
k6139
10
7581732.717
20
5649422.983
30
213.555
11
7581732.717
21
5649422.983
31
213.555
40
1.5
50
0.0
72
0
73
1
0
TEXT
8
pomiar
1
gsk
10
7581732.717
20
5649420.983
30
213.555
11
7581732.717
21
5649422.983
31
5649420.983
40
1
50
0.0
72
0
73
1
0
POINT
8
pomiar
10
7581726.763
20
5649427.487
30
213.747
0
TEXT
8
pomiar
1
k6138
10
7581726.763
20
5649427.487
30
213.747
11
7581726.763
21
5649427.487
31
213.747
40
1.5
50
0.0
72
0
73
1
0
TEXT
8
pomiar
1
gsk
10
7581726.763
20
5649425.487
30
213.747
11
7581726.763
21
5649427.487
31
5649425.487
40
1
50
0.0
72
0
73
1
0
POINT
8
pomiar
10
7581723.741
20
5649424.527
30
213.722
0
TEXT
8
pomiar
1
k6137
10
7581723.741
20
5649424.527
30
213.722
11
7581723.741
21
5649424.527
31
213.722
40
1.5
50
0.0
72
0
73
1
0
TEXT
8
pomiar
1
gsk
10
7581723.741
20
5649422.527
30
213.722
11
7581723.741
21
5649424.527
31
5649422.527
40
1
50
0.0
72
0
73
1
0
POINT
8
pomiar
10
7581729.671
20
5649419.835
30
213.745
0
TEXT
8
pomiar
1
k6136
10
7581729.671
20
5649419.835
30
213.745
11
7581729.671
21
5649419.835
31
213.745
40
1.5
50
0.0
72
0
73
1
0
TEXT
8
pomiar
1
gsk
10
7581729.671
20
5649417.835
30
213.745
11
7581729.671
21
5649419.835
31
5649417.835
40
1
50
0.0
72
0
73
1
0
POINT
8
pomiar
10
7581738.447
20
5649413.217
30
213.705
0
TEXT
8
pomiar
1
k6135
10
7581738.447
20
5649413.217
30
213.705
11
7581738.447
21
5649413.217
31
213.705
40
1.5
50
0.0
72
0
73
1
0
TEXT
8
pomiar
1
gsk
10
7581738.447
20
5649411.217
30
213.705
11
7581738.447
21
5649413.217
31
5649411.217
40
1
50
0.0
72
0
73
1
0
POINT
8
pomiar
10
7581744.752
20
5649408.991
30
213.526
0
TEXT
8
pomiar
1
k6134
10
7581744.752
20
5649408.991
30
213.526
11
7581744.752
21
5649408.991
31
213.526
40
1.5
50
0.0
72
0
73
1
0
TEXT
8
pomiar
1
gsk
10
7581744.752
20
5649406.991
30
213.526
11
7581744.752
21
5649408.991
31
5649406.991
40
1
50
0.0
72
0
73
1
0
POINT
8
pomiar
10
7581749.227
20
5649403.785
30
213.470
0
TEXT
8
pomiar
1
k6133
10
7581749.227
20
5649403.785
30
213.470
11
7581749.227
21
5649403.785
31
213.470
40
1.5
50
0.0
72
0
73
1
0
TEXT
8
pomiar
1
gsk
10
7581749.227
20
5649401.785
30
213.470
11
7581749.227
21
5649403.785
31
5649401.785
40
1
50
0.0
72
0
73
1
0
POINT
8
pomiar
10
7581751.980
20
5649398.504
30
213.325
0
TEXT
8
pomiar
1
k6132
10
7581751.980
20
5649398.504
30
213.325
11
7581751.980
21
5649398.504
31
213.325
40
1.5
50
0.0
72
0
73
1
0
TEXT
8
pomiar
1
gsk
10
7581751.980
20
5649396.504
30
213.325
11
7581751.980
21
5649398.504
31
5649396.504
40
1
50
0.0
72
0
73
1
0
POLYLINE
8
pomiar
66
1
70
0
10
0.0
20
0.0
30
0.0
0
VERTEX
8
pomiar
10
7581780.641
20
5649365.335
30
212.715
0
VERTEX
8
pomiar
10
7581780.573
20
5649365.623
30
212.715
0
VERTEX
8
pomiar
10
7581782.298
20
5649365.999
30
212.724
0
VERTEX
8
pomiar
10
7581782.876
20
5649366.122
30
212.750
0
VERTEX
8
pomiar
10
7581784.536
20
5649366.519
30
212.730
0
VERTEX
8
pomiar
10
7581784.596
20
5649366.207
30
212.732
0
VERTEX
8
pomiar
10
7581782.939
20
5649365.826
30
212.724
0
VERTEX
8
pomiar
10
7581782.339
20
5649365.698
30
212.720
0
VERTEX
8
pomiar
10
7581780.641
20
5649365.335
30
212.715
0
SEQEND
0
POINT
8
pomiar
10
7581780.573
20
5649365.623
30
212.715
0
TEXT
8
pomiar
1
k6131
10
7581780.573
20
5649365.623
30
212.715
11
7581780.573
21
5649365.623
31
212.715
40
1.5
50
0.0
72
0
73
1
0
TEXT
8
pomiar
1
babelki
10
7581780.573
20
5649363.623
30
212.715
11
7581780.573
21
5649365.623
31
5649363.623
40
1
50
0.0
72
0
73
1
0
POINT
8
pomiar
10
7581780.641
20
5649365.335
30
212.715
0
TEXT
8
pomiar
1
k6130
10
7581780.641
20
5649365.335
30
212.715
11
7581780.641
21
5649365.335
31
212.715
40
1.5
50
0.0
72
0
73
1
0
TEXT
8
pomiar
1
babelki
10
7581780.641
20
5649363.335
30
212.715
11
7581780.641
21
5649365.335
31
5649363.335
40
1
50
0.0
72
0
73
1
0
POINT
8
pomiar
10
7581782.339
20
5649365.698
30
212.720
0
TEXT
8
pomiar
1
k6129
10
7581782.339
20
5649365.698
30
212.720
11
7581782.339
21
5649365.698
31
212.720
40
1.5
50
0.0
72
0
73
1
0
TEXT
8
pomiar
1
babelki
10
7581782.339
20
5649363.698
30
212.720
11
7581782.339
21
5649365.698
31
5649363.698
40
1
50
0.0
72
0
73
1
0
POINT
8
pomiar
10
7581782.939
20
5649365.826
30
212.724
0
TEXT
8
pomiar
1
k6128
10
7581782.939
20
5649365.826
30
212.724
11
7581782.939
21
5649365.826
31
212.724
40
1.5
50
0.0
72
0
73
1
0
TEXT
8
pomiar
1
babelki
10
7581782.939
20
5649363.826
30
212.724
11
7581782.939
21
5649365.826
31
5649363.826
40
1
50
0.0
72
0
73
1
0
POINT
8
pomiar
10
7581784.596
20
5649366.207
30
212.732
0
TEXT
8
pomiar
1
k6127
10
7581784.596
20
5649366.207
30
212.732
11
7581784.596
21
5649366.207
31
212.732
40
1.5
50
0.0
72
0
73
1
0
TEXT
8
pomiar
1
babelki
10
7581784.596
20
5649364.207
30
212.732
11
7581784.596
21
5649366.207
31
5649364.207
40
1
50
0.0
72
0
73
1
0
POINT
8
pomiar
10
7581784.536
20
5649366.519
30
212.730
0
TEXT
8
pomiar
1
k6126
10
7581784.536
20
5649366.519
30
212.730
11
7581784.536
21
5649366.519
31
212.730
40
1.5
50
0.0
72
0
73
1
0
TEXT
8
pomiar
1
babelki
10
7581784.536
20
5649364.519
30
212.730
11
7581784.536
21
5649366.519
31
5649364.519
40
1
50
0.0
72
0
73
1
0
POLYLINE
8
pomiar
66
1
70
0
10
0.0
20
0.0
30
0.0
0
VERTEX
8
pomiar
10
7581782.102
20
5649366.876
30
212.736
0
VERTEX
8
pomiar
10
7581782.669
20
5649367.007
30
212.718
0
VERTEX
8
pomiar
10
7581782.876
20
5649366.122
30
212.750
0
VERTEX
8
pomiar
10
7581782.298
20
5649365.999
30
212.724
0
VERTEX
8
pomiar
10
7581782.102
20
5649366.876
30
212.736
0
SEQEND
0
POINT
8
pomiar
10
7581782.876
20
5649366.122
30
212.750
0
TEXT
8
pomiar
1
k6125
10
7581782.876
20
5649366.122
30
212.750
11
7581782.876
21
5649366.122
31
212.750
40
1.5
50
0.0
72
0
73
1
0
TEXT
8
pomiar
1
paski
10
7581782.876
20
5649364.122
30
212.750
11
7581782.876
21
5649366.122
31
5649364.122
40
1
50
0.0
72
0
73
1
0
POINT
8
pomiar
10
7581782.298
20
5649365.999
30
212.724
0
TEXT
8
pomiar
1
k6124
10
7581782.298
20
5649365.999
30
212.724
11
7581782.298
21
5649365.999
31
212.724
40
1.5
50
0.0
72
0
73
1
0
TEXT
8
pomiar
1
paski
10
7581782.298
20
5649363.999
30
212.724
11
7581782.298
21
5649365.999
31
5649363.999
40
1
50
0.0
72
0
73
1
0
POINT
8
pomiar
10
7581782.102
20
5649366.876
30
212.736
0
TEXT
8
pomiar
1
k6123
10
7581782.102
20
5649366.876
30
212.736
11
7581782.102
21
5649366.876
31
212.736
40
1.5
50
0.0
72
0
73
1
0
TEXT
8
pomiar
1
paski
10
7581782.102
20
5649364.876
30
212.736
11
7581782.102
21
5649366.876
31
5649364.876
40
1
50
0.0
72
0
73
1
0
POINT
8
pomiar
10
7581782.669
20
5649367.007
30
212.718
0
TEXT
8
pomiar
1
k6122
10
7581782.669
20
5649367.007
30
212.718
11
7581782.669
21
5649367.007
31
212.718
40
1.5
50
0.0
72
0
73
1
0
TEXT
8
pomiar
1
paski
10
7581782.669
20
5649365.007
30
212.718
11
7581782.669
21
5649367.007
31
5649365.007
40
1
50
0.0
72
0
73
1
0
POLYLINE
8
pomiar
66
1
70
0
10
0.0
20
0.0
30
0.0
0
VERTEX
8
pomiar
10
7581788.910
20
5649358.048
30
212.587
0
VERTEX
8
pomiar
10
7581789.605
20
5649357.502
30
212.602
0
VERTEX
8
pomiar
10
7581789.982
20
5649357.957
30
212.612
0
VERTEX
8
pomiar
10
7581789.279
20
5649358.530
30
212.592
0
SEQEND
0
POINT
8
pomiar
10
7581789.605
20
5649357.502
30
212.602
0
TEXT
8
pomiar
1
k6121
10
7581789.605
20
5649357.502
30
212.602
11
7581789.605
21
5649357.502
31
212.602
40
1.5
50
0.0
72
0
73
1
0
TEXT
8
pomiar
1
paski
10
7581789.605
20
5649355.502
30
212.602
11
7581789.605
21
5649357.502
31
5649355.502
40
1
50
0.0
72
0
73
1
0
POINT
8
pomiar
10
7581789.982
20
5649357.957
30
212.612
0
TEXT
8
pomiar
1
k6120
10
7581789.982
20
5649357.957
30
212.612
11
7581789.982
21
5649357.957
31
212.612
40
1.5
50
0.0
72
0
73
1
0
TEXT
8
pomiar
1
paski
10
7581789.982
20
5649355.957
30
212.612
11
7581789.982
21
5649357.957
31
5649355.957
40
1
50
0.0
72
0
73
1
0
POLYLINE
8
pomiar
66
1
70
0
10
0.0
20
0.0
30
0.0
0
VERTEX
8
pomiar
10
7581790.244
20
5649359.852
30
212.638
0
VERTEX
8
pomiar
10
7581790.418
20
5649359.637
30
212.642
0
VERTEX
8
pomiar
10
7581789.865
20
5649359.133
30
212.619
0
VERTEX
8
pomiar
10
7581789.279
20
5649358.530
30
212.592
0
VERTEX
8
pomiar
10
7581788.910
20
5649358.048
30
212.587
0
VERTEX
8
pomiar
10
7581788.517
20
5649357.491
30
212.558
0
VERTEX
8
pomiar
10
7581788.143
20
5649356.786
30
212.534
0
VERTEX
8
pomiar
10
7581787.880
20
5649356.915
30
212.535
0
VERTEX
8
pomiar
10
7581788.268
20
5649357.627
30
212.524
0
VERTEX
8
pomiar
10
7581788.663
20
5649358.218
30
212.577
0
VERTEX
8
pomiar
10
7581789.057
20
5649358.718
30
212.590
0
VERTEX
8
pomiar
10
7581789.661
20
5649359.355
30
212.611
0
VERTEX
8
pomiar
10
7581790.244
20
5649359.852
30
212.638
0
SEQEND
0
POINT
8
pomiar
10
7581790.244
20
5649359.852
30
212.638
0
TEXT
8
pomiar
1
k6119
10
7581790.244
20
5649359.852
30
212.638
11
7581790.244
21
5649359.852
31
212.638
40
1.5
50
0.0
72
0
73
1
0
TEXT
8
pomiar
1
babelki
10
7581790.244
20
5649357.852
30
212.638
11
7581790.244
21
5649359.852
31
5649357.852
40
1
50
0.0
72
0
73
1
0
POINT
8
pomiar
10
7581790.418
20
5649359.637
30
212.642
0
TEXT
8
pomiar
1
k6118
10
7581790.418
20
5649359.637
30
212.642
11
7581790.418
21
5649359.637
31
212.642
40
1.5
50
0.0
72
0
73
1
0
TEXT
8
pomiar
1
babelki
10
7581790.418
20
5649357.637
30
212.642
11
7581790.418
21
5649359.637
31
5649357.637
40
1
50
0.0
72
0
73
1
0
POINT
8
pomiar
10
7581789.865
20
5649359.133
30
212.619
0
TEXT
8
pomiar
1
k6117
10
7581789.865
20
5649359.133
30
212.619
11
7581789.865
21
5649359.133
31
212.619
40
1.5
50
0.0
72
0
73
1
0
TEXT
8
pomiar
1
babelki
10
7581789.865
20
5649357.133
30
212.619
11
7581789.865
21
5649359.133
31
5649357.133
40
1
50
0.0
72
0
73
1
0
POINT
8
pomiar
10
7581789.661
20
5649359.355
30
212.611
0
TEXT
8
pomiar
1
k6116
10
7581789.661
20
5649359.355
30
212.611
11
7581789.661
21
5649359.355
31
212.611
40
1.5
50
0.0
72
0
73
1
0
TEXT
8
pomiar
1
babelki
10
7581789.661
20
5649357.355
30
212.611
11
7581789.661
21
5649359.355
31
5649357.355
40
1
50
0.0
72
0
73
1
0
POINT
8
pomiar
10
7581789.057
20
5649358.718
30
212.590
0
TEXT
8
pomiar
1
k6115
10
7581789.057
20
5649358.718
30
212.590
11
7581789.057
21
5649358.718
31
212.590
40
1.5
50
0.0
72
0
73
1
0
TEXT
8
pomiar
1
babelki
10
7581789.057
20
5649356.718
30
212.590
11
7581789.057
21
5649358.718
31
5649356.718
40
1
50
0.0
72
0
73
1
0
POINT
8
pomiar
10
7581789.279
20
5649358.530
30
212.592
0
TEXT
8
pomiar
1
k6114
10
7581789.279
20
5649358.530
30
212.592
11
7581789.279
21
5649358.530
31
212.592
40
1.5
50
0.0
72
0
73
1
0
TEXT
8
pomiar
1
babelki
10
7581789.279
20
5649356.530
30
212.592
11
7581789.279
21
5649358.530
31
5649356.530
40
1
50
0.0
72
0
73
1
0
POINT
8
pomiar
10
7581788.663
20
5649358.218
30
212.577
0
TEXT
8
pomiar
1
k6113
10
7581788.663
20
5649358.218
30
212.577
11
7581788.663
21
5649358.218
31
212.577
40
1.5
50
0.0
72
0
73
1
0
TEXT
8
pomiar
1
babelki
10
7581788.663
20
5649356.218
30
212.577
11
7581788.663
21
5649358.218
31
5649356.218
40
1
50
0.0
72
0
73
1
0
POINT
8
pomiar
10
7581788.910
20
5649358.048
30
212.587
0
TEXT
8
pomiar
1
k6112
10
7581788.910
20
5649358.048
30
212.587
11
7581788.910
21
5649358.048
31
212.587
40
1.5
50
0.0
72
0
73
1
0
TEXT
8
pomiar
1
babelki
10
7581788.910
20
5649356.048
30
212.587
11
7581788.910
21
5649358.048
31
5649356.048
40
1
50
0.0
72
0
73
1
0
POINT
8
pomiar
10
7581788.517
20
5649357.491
30
212.558
0
TEXT
8
pomiar
1
k6111
10
7581788.517
20
5649357.491
30
212.558
11
7581788.517
21
5649357.491
31
212.558
40
1.5
50
0.0
72
0
73
1
0
TEXT
8
pomiar
1
babelki
10
7581788.517
20
5649355.491
30
212.558
11
7581788.517
21
5649357.491
31
5649355.491
40
1
50
0.0
72
0
73
1
0
POINT
8
pomiar
10
7581788.268
20
5649357.627
30
212.524
0
TEXT
8
pomiar
1
k6110
10
7581788.268
20
5649357.627
30
212.524
11
7581788.268
21
5649357.627
31
212.524
40
1.5
50
0.0
72
0
73
1
0
TEXT
8
pomiar
1
babelki
10
7581788.268
20
5649355.627
30
212.524
11
7581788.268
21
5649357.627
31
5649355.627
40
1
50
0.0
72
0
73
1
0
POINT
8
pomiar
10
7581787.880
20
5649356.915
30
212.535
0
TEXT
8
pomiar
1
k6109
10
7581787.880
20
5649356.915
30
212.535
11
7581787.880
21
5649356.915
31
212.535
40
1.5
50
0.0
72
0
73
1
0
TEXT
8
pomiar
1
babelki
10
7581787.880
20
5649354.915
30
212.535
11
7581787.880
21
5649356.915
31
5649354.915
40
1
50
0.0
72
0
73
1
0
POINT
8
pomiar
10
7581788.143
20
5649356.786
30
212.534
0
TEXT
8
pomiar
1
k6108
10
7581788.143
20
5649356.786
30
212.534
11
7581788.143
21
5649356.786
31
212.534
40
1.5
50
0.0
72
0
73
1
0
TEXT
8
pomiar
1
babelki
10
7581788.143
20
5649354.786
30
212.534
11
7581788.143
21
5649356.786
31
5649354.786
40
1
50
0.0
72
0
73
1
0
POLYLINE
8
pomiar
66
1
70
0
10
0.0
20
0.0
30
0.0
0
VERTEX
8
pomiar
10
7581788.540
20
5649347.527
30
212.256
0
VERTEX
8
pomiar
10
7581788.327
20
5649347.336
30
212.250
0
VERTEX
8
pomiar
10
7581789.577
20
5649345.799
30
212.190
0
VERTEX
8
pomiar
10
7581790.787
20
5649344.361
30
212.153
0
VERTEX
8
pomiar
10
7581790.996
20
5649344.551
30
212.174
0
VERTEX
8
pomiar
10
7581790.006
20
5649345.795
30
212.202
0
VERTEX
8
pomiar
10
7581789.618
20
5649346.236
30
212.230
0
VERTEX
8
pomiar
10
7581788.540
20
5649347.527
30
212.256
0
SEQEND
0
POINT
8
pomiar
10
7581788.540
20
5649347.527
30
212.256
0
TEXT
8
pomiar
1
k6107
10
7581788.540
20
5649347.527
30
212.256
11
7581788.540
21
5649347.527
31
212.256
40
1.5
50
0.0
72
0
73
1
0
TEXT
8
pomiar
1
babelki
10
7581788.540
20
5649345.527
30
212.256
11
7581788.540
21
5649347.527
31
5649345.527
40
1
50
0.0
72
0
73
1
0
POINT
8
pomiar
10
7581788.327
20
5649347.336
30
212.250
0
TEXT
8
pomiar
1
k6106
10
7581788.327
20
5649347.336
30
212.250
11
7581788.327
21
5649347.336
31
212.250
40
1.5
50
0.0
72
0
73
1
0
TEXT
8
pomiar
1
babelki
10
7581788.327
20
5649345.336
30
212.250
11
7581788.327
21
5649347.336
31
5649345.336
40
1
50
0.0
72
0
73
1
0
POINT
8
pomiar
10
7581789.577
20
5649345.799
30
212.190
0
TEXT
8
pomiar
1
k6105
10
7581789.577
20
5649345.799
30
212.190
11
7581789.577
21
5649345.799
31
212.190
40
1.5
50
0.0
72
0
73
1
0
TEXT
8
pomiar
1
babelki
10
7581789.577
20
5649343.799
30
212.190
11
7581789.577
21
5649345.799
31
5649343.799
40
1
50
0.0
72
0
73
1
0
POINT
8
pomiar
10
7581790.996
20
5649344.551
30
212.174
0
TEXT
8
pomiar
1
k6104
10
7581790.996
20
5649344.551
30
212.174
11
7581790.996
21
5649344.551
31
212.174
40
1.5
50
0.0
72
0
73
1
0
TEXT
8
pomiar
1
babelki
10
7581790.996
20
5649342.551
30
212.174
11
7581790.996
21
5649344.551
31
5649342.551
40
1
50
0.0
72
0
73
1
0
POINT
8
pomiar
10
7581790.787
20
5649344.361
30
212.153
0
TEXT
8
pomiar
1
k6103
10
7581790.787
20
5649344.361
30
212.153
11
7581790.787
21
5649344.361
31
212.153
40
1.5
50
0.0
72
0
73
1
0
TEXT
8
pomiar
1
babelki
10
7581790.787
20
5649342.361
30
212.153
11
7581790.787
21
5649344.361
31
5649342.361
40
1
50
0.0
72
0
73
1
0
POLYLINE
8
pomiar
66
1
70
0
10
0.0
20
0.0
30
0.0
0
VERTEX
8
pomiar
10
7581789.618
20
5649346.236
30
212.230
0
VERTEX
8
pomiar
10
7581790.290
20
5649346.825
30
212.225
0
VERTEX
8
pomiar
10
7581790.686
20
5649346.376
30
212.234
0
VERTEX
8
pomiar
10
7581790.006
20
5649345.795
30
212.202
0
VERTEX
8
pomiar
10
7581789.618
20
5649346.236
30
212.230
0
SEQEND
0
POINT
8
pomiar
10
7581790.006
20
5649345.795
30
212.202
0
TEXT
8
pomiar
1
k6102
10
7581790.006
20
5649345.795
30
212.202
11
7581790.006
21
5649345.795
31
212.202
40
1.5
50
0.0
72
0
73
1
0
TEXT
8
pomiar
1
paski
10
7581790.006
20
5649343.795
30
212.202
11
7581790.006
21
5649345.795
31
5649343.795
40
1
50
0.0
72
0
73
1
0
POINT
8
pomiar
10
7581789.618
20
5649346.236
30
212.230
0
TEXT
8
pomiar
1
k6101
10
7581789.618
20
5649346.236
30
212.230
11
7581789.618
21
5649346.236
31
212.230
40
1.5
50
0.0
72
0
73
1
0
TEXT
8
pomiar
1
paski
10
7581789.618
20
5649344.236
30
212.230
11
7581789.618
21
5649346.236
31
5649344.236
40
1
50
0.0
72
0
73
1
0
POINT
8
pomiar
10
7581790.290
20
5649346.825
30
212.225
0
TEXT
8
pomiar
1
k6100
10
7581790.290
20
5649346.825
30
212.225
11
7581790.290
21
5649346.825
31
212.225
40
1.5
50
0.0
72
0
73
1
0
TEXT
8
pomiar
1
paski
10
7581790.290
20
5649344.825
30
212.225
11
7581790.290
21
5649346.825
31
5649344.825
40
1
50
0.0
72
0
73
1
0
POINT
8
pomiar
10
7581790.686
20
5649346.376
30
212.234
0
TEXT
8
pomiar
1
k6099
10
7581790.686
20
5649346.376
30
212.234
11
7581790.686
21
5649346.376
31
212.234
40
1.5
50
0.0
72
0
73
1
0
TEXT
8
pomiar
1
paski
10
7581790.686
20
5649344.376
30
212.234
11
7581790.686
21
5649346.376
31
5649344.376
40
1
50
0.0
72
0
73
1
0
POLYLINE
8
pomiar
66
1
70
0
10
0.0
20
0.0
30
0.0
0
VERTEX
8
pomiar
10
7581805.302
20
5649307.428
30
211.222
0
VERTEX
8
pomiar
10
7581807.943
20
5649304.406
30
211.308
0
VERTEX
8
pomiar
10
7581810.693
20
5649301.508
30
211.273
0
VERTEX
8
pomiar
10
7581812.193
20
5649300.168
30
211.194
0
VERTEX
8
pomiar
10
7581815.281
20
5649297.625
30
211.075
0
VERTEX
8
pomiar
10
7581818.484
20
5649295.265
30
211.023
0
VERTEX
8
pomiar
10
7581820.081
20
5649294.045
30
210.843
0
VERTEX
8
pomiar
10
7581821.597
20
5649292.756
30
210.847
0
VERTEX
8
pomiar
10
7581822.993
20
5649291.353
30
210.758
0
SEQEND
0
POLYLINE
8
pomiar
66
1
70
0
10
0.0
20
0.0
30
0.0
0
VERTEX
8
pomiar
10
7581781.238
20
5649340.212
30
212.233
0
VERTEX
8
pomiar
10
7581783.822
20
5649337.133
30
212.071
0
VERTEX
8
pomiar
10
7581785.017
20
5649335.553
30
212.184
0
VERTEX
8
pomiar
10
7581786.169
20
5649333.944
30
212.068
0
VERTEX
8
pomiar
10
7581788.439
20
5649330.623
30
212.008
0
VERTEX
8
pomiar
10
7581793.864
20
5649322.236
30
211.763
0
VERTEX
8
pomiar
10
7581796.095
20
5649318.912
30
211.737
0
VERTEX
8
pomiar
10
7581798.441
20
5649315.673
30
211.678
0
VERTEX
8
pomiar
10
7581800.972
20
5649312.551
30
211.589
0
SEQEND
0
POINT
8
pomiar
10
7581781.238
20
5649340.212
30
212.233
0
TEXT
8
pomiar
1
k6098
10
7581781.238
20
5649340.212
30
212.233
11
7581781.238
21
5649340.212
31
212.233
40
1.5
50
0.0
72
0
73
1
0
TEXT
8
pomiar
1
bariera_plot
10
7581781.238
20
5649338.212
30
212.233
11
7581781.238
21
5649340.212
31
5649338.212
40
1
50
0.0
72
0
73
1
0
POINT
8
pomiar
10
7581783.822
20
5649337.133
30
212.071
0
TEXT
8
pomiar
1
k6097
10
7581783.822
20
5649337.133
30
212.071
11
7581783.822
21
5649337.133
31
212.071
40
1.5
50
0.0
72
0
73
1
0
TEXT
8
pomiar
1
bariera_plot
10
7581783.822
20
5649335.133
30
212.071
11
7581783.822
21
5649337.133
31
5649335.133
40
1
50
0.0
72
0
73
1
0
POINT
8
pomiar
10
7581785.017
20
5649335.553
30
212.184
0
TEXT
8
pomiar
1
k6096
10
7581785.017
20
5649335.553
30
212.184
11
7581785.017
21
5649335.553
31
212.184
40
1.5
50
0.0
72
0
73
1
0
TEXT
8
pomiar
1
bariera_plot
10
7581785.017
20
5649333.553
30
212.184
11
7581785.017
21
5649335.553
31
5649333.553
40
1
50
0.0
72
0
73
1
0
POINT
8
pomiar
10
7581786.169
20
5649333.944
30
212.068
0
TEXT
8
pomiar
1
k6095
10
7581786.169
20
5649333.944
30
212.068
11
7581786.169
21
5649333.944
31
212.068
40
1.5
50
0.0
72
0
73
1
0
TEXT
8
pomiar
1
bariera_plot
10
7581786.169
20
5649331.944
30
212.068
11
7581786.169
21
5649333.944
31
5649331.944
40
1
50
0.0
72
0
73
1
0
POINT
8
pomiar
10
7581788.439
20
5649330.623
30
212.008
0
TEXT
8
pomiar
1
k6094
10
7581788.439
20
5649330.623
30
212.008
11
7581788.439
21
5649330.623
31
212.008
40
1.5
50
0.0
72
0
73
1
0
TEXT
8
pomiar
1
bariera_plot
10
7581788.439
20
5649328.623
30
212.008
11
7581788.439
21
5649330.623
31
5649328.623
40
1
50
0.0
72
0
73
1
0
POINT
8
pomiar
10
7581793.864
20
5649322.236
30
211.763
0
TEXT
8
pomiar
1
k6093
10
7581793.864
20
5649322.236
30
211.763
11
7581793.864
21
5649322.236
31
211.763
40
1.5
50
0.0
72
0
73
1
0
TEXT
8
pomiar
1
bariera_plot
10
7581793.864
20
5649320.236
30
211.763
11
7581793.864
21
5649322.236
31
5649320.236
40
1
50
0.0
72
0
73
1
0
POINT
8
pomiar
10
7581796.095
20
5649318.912
30
211.737
0
TEXT
8
pomiar
1
k6092
10
7581796.095
20
5649318.912
30
211.737
11
7581796.095
21
5649318.912
31
211.737
40
1.5
50
0.0
72
0
73
1
0
TEXT
8
pomiar
1
bariera_plot
10
7581796.095
20
5649316.912
30
211.737
11
7581796.095
21
5649318.912
31
5649316.912
40
1
50
0.0
72
0
73
1
0
POINT
8
pomiar
10
7581798.441
20
5649315.673
30
211.678
0
TEXT
8
pomiar
1
k6091
10
7581798.441
20
5649315.673
30
211.678
11
7581798.441
21
5649315.673
31
211.678
40
1.5
50
0.0
72
0
73
1
0
TEXT
8
pomiar
1
bariera_plot
10
7581798.441
20
5649313.673
30
211.678
11
7581798.441
21
5649315.673
31
5649313.673
40
1
50
0.0
72
0
73
1
0
POINT
8
pomiar
10
7581800.972
20
5649312.551
30
211.589
0
TEXT
8
pomiar
1
k6090
10
7581800.972
20
5649312.551
30
211.589
11
7581800.972
21
5649312.551
31
211.589
40
1.5
50
0.0
72
0
73
1
0
TEXT
8
pomiar
1
bariera_plot_przerwa
10
7581800.972
20
5649310.551
30
211.589
11
7581800.972
21
5649312.551
31
5649310.551
40
1
50
0.0
72
0
73
1
0
POINT
8
pomiar
10
7581805.302
20
5649307.428
30
211.222
0
TEXT
8
pomiar
1
k6089
10
7581805.302
20
5649307.428
30
211.222
11
7581805.302
21
5649307.428
31
211.222
40
1.5
50
0.0
72
0
73
1
0
TEXT
8
pomiar
1
bariera_plot_przerwa
10
7581805.302
20
5649305.428
30
211.222
11
7581805.302
21
5649307.428
31
5649305.428
40
1
50
0.0
72
0
73
1
0
POINT
8
pomiar
10
7581807.943
20
5649304.406
30
211.308
0
TEXT
8
pomiar
1
k6088
10
7581807.943
20
5649304.406
30
211.308
11
7581807.943
21
5649304.406
31
211.308
40
1.5
50
0.0
72
0
73
1
0
TEXT
8
pomiar
1
bariera_plot
10
7581807.943
20
5649302.406
30
211.308
11
7581807.943
21
5649304.406
31
5649302.406
40
1
50
0.0
72
0
73
1
0
POINT
8
pomiar
10
7581810.693
20
5649301.508
30
211.273
0
TEXT
8
pomiar
1
k6087
10
7581810.693
20
5649301.508
30
211.273
11
7581810.693
21
5649301.508
31
211.273
40
1.5
50
0.0
72
0
73
1
0
TEXT
8
pomiar
1
bariera_plot
10
7581810.693
20
5649299.508
30
211.273
11
7581810.693
21
5649301.508
31
5649299.508
40
1
50
0.0
72
0
73
1
0
POINT
8
pomiar
10
7581812.193
20
5649300.168
30
211.194
0
TEXT
8
pomiar
1
k6086
10
7581812.193
20
5649300.168
30
211.194
11
7581812.193
21
5649300.168
31
211.194
40
1.5
50
0.0
72
0
73
1
0
TEXT
8
pomiar
1
bariera_plot
10
7581812.193
20
5649298.168
30
211.194
11
7581812.193
21
5649300.168
31
5649298.168
40
1
50
0.0
72
0
73
1
0
POINT
8
pomiar
10
7581815.281
20
5649297.625
30
211.075
0
TEXT
8
pomiar
1
k6085
10
7581815.281
20
5649297.625
30
211.075
11
7581815.281
21
5649297.625
31
211.075
40
1.5
50
0.0
72
0
73
1
0
TEXT
8
pomiar
1
bariera_plot
10
7581815.281
20
5649295.625
30
211.075
11
7581815.281
21
5649297.625
31
5649295.625
40
1
50
0.0
72
0
73
1
0
POINT
8
pomiar
10
7581818.484
20
5649295.265
30
211.023
0
TEXT
8
pomiar
1
k6084
10
7581818.484
20
5649295.265
30
211.023
11
7581818.484
21
5649295.265
31
211.023
40
1.5
50
0.0
72
0
73
1
0
TEXT
8
pomiar
1
bariera_plot
10
7581818.484
20
5649293.265
30
211.023
11
7581818.484
21
5649295.265
31
5649293.265
40
1
50
0.0
72
0
73
1
0
POINT
8
pomiar
10
7581820.081
20
5649294.045
30
210.843
0
TEXT
8
pomiar
1
k6083
10
7581820.081
20
5649294.045
30
210.843
11
7581820.081
21
5649294.045
31
210.843
40
1.5
50
0.0
72
0
73
1
0
TEXT
8
pomiar
1
bariera_plot
10
7581820.081
20
5649292.045
30
210.843
11
7581820.081
21
5649294.045
31
5649292.045
40
1
50
0.0
72
0
73
1
0
POINT
8
pomiar
10
7581821.597
20
5649292.756
30
210.847
0
TEXT
8
pomiar
1
k6082
10
7581821.597
20
5649292.756
30
210.847
11
7581821.597
21
5649292.756
31
210.847
40
1.5
50
0.0
72
0
73
1
0
TEXT
8
pomiar
1
bariera_plot
10
7581821.597
20
5649290.756
30
210.847
11
7581821.597
21
5649292.756
31
5649290.756
40
1
50
0.0
72
0
73
1
0
POINT
8
pomiar
10
7581822.993
20
5649291.353
30
210.758
0
TEXT
8
pomiar
1
k6081
10
7581822.993
20
5649291.353
30
210.758
11
7581822.993
21
5649291.353
31
210.758
40
1.5
50
0.0
72
0
73
1
0
TEXT
8
pomiar
1
bariera_plot
10
7581822.993
20
5649289.353
30
210.758
11
7581822.993
21
5649291.353
31
5649289.353
40
1
50
0.0
72
0
73
1
0
POLYLINE
8
pomiar
66
1
70
0
10
0.0
20
0.0
30
0.0
0
VERTEX
8
pomiar
10
7581807.046
20
5649307.457
30
211.415
0
VERTEX
8
pomiar
10
7581806.812
20
5649307.258
30
211.457
0
VERTEX
8
pomiar
10
7581807.394
20
5649306.560
30
211.389
0
VERTEX
8
pomiar
10
7581807.848
20
5649306.967
30
211.406
0
VERTEX
8
pomiar
10
7581801.654
20
5649314.269
30
211.646
0
VERTEX
8
pomiar
10
7581799.967
20
5649316.348
30
211.668
0
VERTEX
8
pomiar
10
7581798.359
20
5649318.551
30
211.772
0
VERTEX
8
pomiar
10
7581798.132
20
5649318.355
30
211.753
0
VERTEX
8
pomiar
10
7581799.733
20
5649316.169
30
211.703
0
VERTEX
8
pomiar
10
7581801.409
20
5649314.067
30
211.601
0
VERTEX
8
pomiar
10
7581807.046
20
5649307.457
30
211.415
0
SEQEND
0
POINT
8
pomiar
10
7581807.848
20
5649306.967
30
211.406
0
TEXT
8
pomiar
1
k6080
10
7581807.848
20
5649306.967
30
211.406
11
7581807.848
21
5649306.967
31
211.406
40
1.5
50
0.0
72
0
73
1
0
TEXT
8
pomiar
1
paski
10
7581807.848
20
5649304.967
30
211.406
11
7581807.848
21
5649306.967
31
5649304.967
40
1
50
0.0
72
0
73
1
0
POINT
8
pomiar
10
7581807.394
20
5649306.560
30
211.389
0
TEXT
8
pomiar
1
k6079
10
7581807.394
20
5649306.560
30
211.389
11
7581807.394
21
5649306.560
31
211.389
40
1.5
50
0.0
72
0
73
1
0
TEXT
8
pomiar
1
paski
10
7581807.394
20
5649304.560
30
211.389
11
7581807.394
21
5649306.560
31
5649304.560
40
1
50
0.0
72
0
73
1
0
POINT
8
pomiar
10
7581806.812
20
5649307.258
30
211.457
0
TEXT
8
pomiar
1
k6078
10
7581806.812
20
5649307.258
30
211.457
11
7581806.812
21
5649307.258
31
211.457
40
1.5
50
0.0
72
0
73
1
0
TEXT
8
pomiar
1
paski
10
7581806.812
20
5649305.258
30
211.457
11
7581806.812
21
5649307.258
31
5649305.258
40
1
50
0.0
72
0
73
1
0
POINT
8
pomiar
10
7581807.046
20
5649307.457
30
211.415
0
TEXT
8
pomiar
1
k6077
10
7581807.046
20
5649307.457
30
211.415
11
7581807.046
21
5649307.457
31
211.415
40
1.5
50
0.0
72
0
73
1
0
TEXT
8
pomiar
1
paski
10
7581807.046
20
5649305.457
30
211.415
11
7581807.046
21
5649307.457
31
5649305.457
40
1
50
0.0
72
0
73
1
0
POINT
8
pomiar
10
7581801.654
20
5649314.269
30
211.646
0
TEXT
8
pomiar
1
k6076
10
7581801.654
20
5649314.269
30
211.646
11
7581801.654
21
5649314.269
31
211.646
40
1.5
50
0.0
72
0
73
1
0
TEXT
8
pomiar
1
paski
10
7581801.654
20
5649312.269
30
211.646
11
7581801.654
21
5649314.269
31
5649312.269
40
1
50
0.0
72
0
73
1
0
POINT
8
pomiar
10
7581801.409
20
5649314.067
30
211.601
0
TEXT
8
pomiar
1
k6075
10
7581801.409
20
5649314.067
30
211.601
11
7581801.409
21
5649314.067
31
211.601
40
1.5
50
0.0
72
0
73
1
0
TEXT
8
pomiar
1
paski
10
7581801.409
20
5649312.067
30
211.601
11
7581801.409
21
5649314.067
31
5649312.067
40
1
50
0.0
72
0
73
1
0
POINT
8
pomiar
10
7581799.967
20
5649316.348
30
211.668
0
TEXT
8
pomiar
1
k6074
10
7581799.967
20
5649316.348
30
211.668
11
7581799.967
21
5649316.348
31
211.668
40
1.5
50
0.0
72
0
73
1
0
TEXT
8
pomiar
1
paski
10
7581799.967
20
5649314.348
30
211.668
11
7581799.967
21
5649316.348
31
5649314.348
40
1
50
0.0
72
0
73
1
0
POINT
8
pomiar
10
7581799.733
20
5649316.169
30
211.703
0
TEXT
8
pomiar
1
k6073
10
7581799.733
20
5649316.169
30
211.703
11
7581799.733
21
5649316.169
31
211.703
40
1.5
50
0.0
72
0
73
1
0
TEXT
8
pomiar
1
paski
10
7581799.733
20
5649314.169
30
211.703
11
7581799.733
21
5649316.169
31
5649314.169
40
1
50
0.0
72
0
73
1
0
POINT
8
pomiar
10
7581798.132
20
5649318.355
30
211.753
0
TEXT
8
pomiar
1
k6072
10
7581798.132
20
5649318.355
30
211.753
11
7581798.132
21
5649318.355
31
211.753
40
1.5
50
0.0
72
0
73
1
0
TEXT
8
pomiar
1
paski
10
7581798.132
20
5649316.355
30
211.753
11
7581798.132
21
5649318.355
31
5649316.355
40
1
50
0.0
72
0
73
1
0
POINT
8
pomiar
10
7581798.359
20
5649318.551
30
211.772
0
TEXT
8
pomiar
1
k6071
10
7581798.359
20
5649318.551
30
211.772
11
7581798.359
21
5649318.551
31
211.772
40
1.5
50
0.0
72
0
73
1
0
TEXT
8
pomiar
1
paski
10
7581798.359
20
5649316.551
30
211.772
11
7581798.359
21
5649318.551
31
5649316.551
40
1
50
0.0
72
0
73
1
0
POLYLINE
8
pomiar
66
1
70
0
10
0.0
20
0.0
30
0.0
0
VERTEX
8
pomiar
10
7581781.771
20
5649341.640
30
212.276
0
VERTEX
8
pomiar
10
7581781.977
20
5649341.821
30
212.281
0
VERTEX
8
pomiar
10
7581784.524
20
5649338.899
30
212.164
0
VERTEX
8
pomiar
10
7581784.293
20
5649338.701
30
212.161
0
VERTEX
8
pomiar
10
7581781.771
20
5649341.640
30
212.276
0
SEQEND
0
POINT
8
pomiar
10
7581784.293
20
5649338.701
30
212.161
0
TEXT
8
pomiar
1
k6070
10
7581784.293
20
5649338.701
30
212.161
11
7581784.293
21
5649338.701
31
212.161
40
1.5
50
0.0
72
0
73
1
0
TEXT
8
pomiar
1
babelki
10
7581784.293
20
5649336.701
30
212.161
11
7581784.293
21
5649338.701
31
5649336.701
40
1
50
0.0
72
0
73
1
0
POINT
8
pomiar
10
7581784.524
20
5649338.899
30
212.164
0
TEXT
8
pomiar
1
k6069
10
7581784.524
20
5649338.899
30
212.164
11
7581784.524
21
5649338.899
31
212.164
40
1.5
50
0.0
72
0
73
1
0
TEXT
8
pomiar
1
babelki
10
7581784.524
20
5649336.899
30
212.164
11
7581784.524
21
5649338.899
31
5649336.899
40
1
50
0.0
72
0
73
1
0
POINT
8
pomiar
10
7581781.977
20
5649341.821
30
212.281
0
TEXT
8
pomiar
1
k6068
10
7581781.977
20
5649341.821
30
212.281
11
7581781.977
21
5649341.821
31
212.281
40
1.5
50
0.0
72
0
73
1
0
TEXT
8
pomiar
1
babelki
10
7581781.977
20
5649339.821
30
212.281
11
7581781.977
21
5649341.821
31
5649339.821
40
1
50
0.0
72
0
73
1
0
POINT
8
pomiar
10
7581781.771
20
5649341.640
30
212.276
0
TEXT
8
pomiar
1
k6067
10
7581781.771
20
5649341.640
30
212.276
11
7581781.771
21
5649341.640
31
212.276
40
1.5
50
0.0
72
0
73
1
0
TEXT
8
pomiar
1
babelki
10
7581781.771
20
5649339.640
30
212.276
11
7581781.771
21
5649341.640
31
5649339.640
40
1
50
0.0
72
0
73
1
0
POLYLINE
8
pomiar
66
1
70
0
10
0.0
20
0.0
30
0.0
0
VERTEX
8
pomiar
10
7581782.134
20
5649339.846
30
212.270
0
VERTEX
8
pomiar
10
7581782.809
20
5649340.439
30
212.223
0
VERTEX
8
pomiar
10
7581783.202
20
5649339.974
30
212.185
0
VERTEX
8
pomiar
10
7581782.532
20
5649339.384
30
212.226
0
VERTEX
8
pomiar
10
7581782.134
20
5649339.846
30
212.270
0
SEQEND
0
POINT
8
pomiar
10
7581782.134
20
5649339.846
30
212.270
0
TEXT
8
pomiar
1
k6066
10
7581782.134
20
5649339.846
30
212.270
11
7581782.134
21
5649339.846
31
212.270
40
1.5
50
0.0
72
0
73
1
0
TEXT
8
pomiar
1
paski
10
7581782.134
20
5649337.846
30
212.270
11
7581782.134
21
5649339.846
31
5649337.846
40
1
50
0.0
72
0
73
1
0
POINT
8
pomiar
10
7581782.532
20
5649339.384
30
212.226
0
TEXT
8
pomiar
1
k6065
10
7581782.532
20
5649339.384
30
212.226
11
7581782.532
21
5649339.384
31
212.226
40
1.5
50
0.0
72
0
73
1
0
TEXT
8
pomiar
1
paski
10
7581782.532
20
5649337.384
30
212.226
11
7581782.532
21
5649339.384
31
5649337.384
40
1
50
0.0
72
0
73
1
0
POINT
8
pomiar
10
7581783.202
20
5649339.974
30
212.185
0
TEXT
8
pomiar
1
k6064
10
7581783.202
20
5649339.974
30
212.185
11
7581783.202
21
5649339.974
31
212.185
40
1.5
50
0.0
72
0
73
1
0
TEXT
8
pomiar
1
paski
10
7581783.202
20
5649337.974
30
212.185
11
7581783.202
21
5649339.974
31
5649337.974
40
1
50
0.0
72
0
73
1
0
POINT
8
pomiar
10
7581782.809
20
5649340.439
30
212.223
0
TEXT
8
pomiar
1
k6063
10
7581782.809
20
5649340.439
30
212.223
11
7581782.809
21
5649340.439
31
212.223
40
1.5
50
0.0
72
0
73
1
0
TEXT
8
pomiar
1
paski
10
7581782.809
20
5649338.439
30
212.223
11
7581782.809
21
5649340.439
31
5649338.439
40
1
50
0.0
72
0
73
1
0
POLYLINE
8
pomiar
66
1
70
0
10
0.0
20
0.0
30
0.0
0
VERTEX
8
pomiar
10
7581740.127
20
5649408.211
30
213.688
0
VERTEX
8
pomiar
10
7581740.554
20
5649408.582
30
213.680
0
VERTEX
8
pomiar
10
7581741.142
20
5649407.904
30
213.676
0
VERTEX
8
pomiar
10
7581740.926
20
5649407.703
30
213.664
0
VERTEX
8
pomiar
10
7581745.990
20
5649401.789
30
213.569
0
VERTEX
8
pomiar
10
7581748.337
20
5649399.024
30
213.499
0
VERTEX
8
pomiar
10
7581750.012
20
5649396.949
30
213.466
0
VERTEX
8
pomiar
10
7581749.784
20
5649396.768
30
213.445
0
VERTEX
8
pomiar
10
7581748.104
20
5649398.837
30
213.499
0
VERTEX
8
pomiar
10
7581745.771
20
5649401.599
30
213.569
0
VERTEX
8
pomiar
10
7581740.127
20
5649408.211
30
213.688
0
SEQEND
0
POINT
8
pomiar
10
7581749.784
20
5649396.768
30
213.445
0
TEXT
8
pomiar
1
k6062
10
7581749.784
20
5649396.768
30
213.445
11
7581749.784
21
5649396.768
31
213.445
40
1.5
50
0.0
72
0
73
1
0
TEXT
8
pomiar
1
paski
10
7581749.784
20
5649394.768
30
213.445
11
7581749.784
21
5649396.768
31
5649394.768
40
1
50
0.0
72
0
73
1
0
POINT
8
pomiar
10
7581750.012
20
5649396.949
30
213.466
0
TEXT
8
pomiar
1
k6061
10
7581750.012
20
5649396.949
30
213.466
11
7581750.012
21
5649396.949
31
213.466
40
1.5
50
0.0
72
0
73
1
0
TEXT
8
pomiar
1
paski
10
7581750.012
20
5649394.949
30
213.466
11
7581750.012
21
5649396.949
31
5649394.949
40
1
50
0.0
72
0
73
1
0
POINT
8
pomiar
10
7581748.337
20
5649399.024
30
213.499
0
TEXT
8
pomiar
1
k6060
10
7581748.337
20
5649399.024
30
213.499
11
7581748.337
21
5649399.024
31
213.499
40
1.5
50
0.0
72
0
73
1
0
TEXT
8
pomiar
1
paski
10
7581748.337
20
5649397.024
30
213.499
11
7581748.337
21
5649399.024
31
5649397.024
40
1
50
0.0
72
0
73
1
0
POINT
8
pomiar
10
7581748.104
20
5649398.837
30
213.499
0
TEXT
8
pomiar
1
k6059
10
7581748.104
20
5649398.837
30
213.499
11
7581748.104
21
5649398.837
31
213.499
40
1.5
50
0.0
72
0
73
1
0
TEXT
8
pomiar
1
paski
10
7581748.104
20
5649396.837
30
213.499
11
7581748.104
21
5649398.837
31
5649396.837
40
1
50
0.0
72
0
73
1
0
POINT
8
pomiar
10
7581745.771
20
5649401.599
30
213.569
0
TEXT
8
pomiar
1
k6058
10
7581745.771
20
5649401.599
30
213.569
11
7581745.771
21
5649401.599
31
213.569
40
1.5
50
0.0
72
0
73
1
0
TEXT
8
pomiar
1
paski
10
7581745.771
20
5649399.599
30
213.569
11
7581745.771
21
5649401.599
31
5649399.599
40
1
50
0.0
72
0
73
1
0
POINT
8
pomiar
10
7581745.990
20
5649401.789
30
213.569
0
TEXT
8
pomiar
1
k6057
10
7581745.990
20
5649401.789
30
213.569
11
7581745.990
21
5649401.789
31
213.569
40
1.5
50
0.0
72
0
73
1
0
TEXT
8
pomiar
1
paski
10
7581745.990
20
5649399.789
30
213.569
11
7581745.990
21
5649401.789
31
5649399.789
40
1
50
0.0
72
0
73
1
0
POINT
8
pomiar
10
7581740.926
20
5649407.703
30
213.664
0
TEXT
8
pomiar
1
k6056
10
7581740.926
20
5649407.703
30
213.664
11
7581740.926
21
5649407.703
31
213.664
40
1.5
50
0.0
72
0
73
1
0
TEXT
8
pomiar
1
paski
10
7581740.926
20
5649405.703
30
213.664
11
7581740.926
21
5649407.703
31
5649405.703
40
1
50
0.0
72
0
73
1
0
POINT
8
pomiar
10
7581741.142
20
5649407.904
30
213.676
0
TEXT
8
pomiar
1
k6055
10
7581741.142
20
5649407.904
30
213.676
11
7581741.142
21
5649407.904
31
213.676
40
1.5
50
0.0
72
0
73
1
0
TEXT
8
pomiar
1
paski
10
7581741.142
20
5649405.904
30
213.676
11
7581741.142
21
5649407.904
31
5649405.904
40
1
50
0.0
72
0
73
1
0
POINT
8
pomiar
10
7581740.127
20
5649408.211
30
213.688
0
TEXT
8
pomiar
1
k6054
10
7581740.127
20
5649408.211
30
213.688
11
7581740.127
21
5649408.211
31
213.688
40
1.5
50
0.0
72
0
73
1
0
TEXT
8
pomiar
1
paski
10
7581740.127
20
5649406.211
30
213.688
11
7581740.127
21
5649408.211
31
5649406.211
40
1
50
0.0
72
0
73
1
0
POINT
8
pomiar
10
7581740.554
20
5649408.582
30
213.680
0
TEXT
8
pomiar
1
k6053
10
7581740.554
20
5649408.582
30
213.680
11
7581740.554
21
5649408.582
31
213.680
40
1.5
50
0.0
72
0
73
1
0
TEXT
8
pomiar
1
paski
10
7581740.554
20
5649406.582
30
213.680
11
7581740.554
21
5649408.582
31
5649406.582
40
1
50
0.0
72
0
73
1
0
POINT
8
pomiar
10
7582821.094
20
5648152.674
30
206.586
0
TEXT
8
pomiar
1
k6052
10
7582821.094
20
5648152.674
30
206.586
11
7582821.094
21
5648152.674
31
206.586
40
1.5
50
0.0
72
0
73
1
0
TEXT
8
pomiar
1
do_dna0,85
10
7582821.094
20
5648150.674
30
206.586
11
7582821.094
21
5648152.674
31
5648150.674
40
1
50
0.0
72
0
73
1
0
POINT
8
pomiar
10
7582809.765
20
5648143.685
30
206.838
0
TEXT
8
pomiar
1
k6051
10
7582809.765
20
5648143.685
30
206.838
11
7582809.765
21
5648143.685
31
206.838
40
1.5
50
0.0
72
0
73
1
0
TEXT
8
pomiar
1
do_dna1,25
10
7582809.765
20
5648141.685
30
206.838
11
7582809.765
21
5648143.685
31
5648141.685
40
1
50
0.0
72
0
73
1
0
POINT
8
pomiar
10
7582800.905
20
5648135.912
30
206.785
0
TEXT
8
pomiar
1
k6050
10
7582800.905
20
5648135.912
30
206.785
11
7582800.905
21
5648135.912
31
206.785
40
1.5
50
0.0
72
0
73
1
0
TEXT
8
pomiar
1
do_dna1,21
10
7582800.905
20
5648133.912
30
206.785
11
7582800.905
21
5648135.912
31
5648133.912
40
1
50
0.0
72
0
73
1
0
POINT
8
pomiar
10
7582791.482
20
5648144.637
30
206.783
0
TEXT
8
pomiar
1
k6049
10
7582791.482
20
5648144.637
30
206.783
11
7582791.482
21
5648144.637
31
206.783
40
1.5
50
0.0
72
0
73
1
0
TEXT
8
pomiar
1
s_tele
10
7582791.482
20
5648142.637
30
206.783
11
7582791.482
21
5648144.637
31
5648142.637
40
1
50
0.0
72
0
73
1
0
POINT
8
pomiar
10
7582791.986
20
5648145.121
30
206.782
0
TEXT
8
pomiar
1
k6048
10
7582791.986
20
5648145.121
30
206.782
11
7582791.986
21
5648145.121
31
206.782
40
1.5
50
0.0
72
0
73
1
0
TEXT
8
pomiar
1
s_tele
10
7582791.986
20
5648143.121
30
206.782
11
7582791.986
21
5648145.121
31
5648143.121
40
1
50
0.0
72
0
73
1
0
POINT
8
pomiar
10
7582792.815
20
5648144.257
30
206.799
0
TEXT
8
pomiar
1
k6047
10
7582792.815
20
5648144.257
30
206.799
11
7582792.815
21
5648144.257
31
206.799
40
1.5
50
0.0
72
0
73
1
0
TEXT
8
pomiar
1
s_tele
10
7582792.815
20
5648142.257
30
206.799
11
7582792.815
21
5648144.257
31
5648142.257
40
1
50
0.0
72
0
73
1
0
POINT
8
pomiar
10
7582792.288
20
5648143.769
30
206.799
0
TEXT
8
pomiar
1
k6046
10
7582792.288
20
5648143.769
30
206.799
11
7582792.288
21
5648143.769
31
206.799
40
1.5
50
0.0
72
0
73
1
0
TEXT
8
pomiar
1
s_tele
10
7582792.288
20
5648141.769
30
206.799
11
7582792.288
21
5648143.769
31
5648141.769
40
1
50
0.0
72
0
73
1
0
POINT
8
pomiar
10
7582770.696
20
5648170.680
30
206.023
0
TEXT
8
pomiar
1
k6045
10
7582770.696
20
5648170.680
30
206.023
11
7582770.696
21
5648170.680
31
206.023
40
1.5
50
0.0
72
0
73
1
0
TEXT
8
pomiar
1
2ro110
10
7582770.696
20
5648168.680
30
206.023
11
7582770.696
21
5648170.680
31
5648168.680
40
1
50
0.0
72
0
73
1
0
POINT
8
pomiar
10
7582770.342
20
5648171.343
30
205.879
0
TEXT
8
pomiar
1
k6044
10
7582770.342
20
5648171.343
30
205.879
11
7582770.342
21
5648171.343
31
205.879
40
1.5
50
0.0
72
0
73
1
0
TEXT
8
pomiar
1
2ro110
10
7582770.342
20
5648169.343
30
205.879
11
7582770.342
21
5648171.343
31
5648169.343
40
1
50
0.0
72
0
73
1
0
POINT
8
pomiar
10
7582770.110
20
5648171.248
30
205.874
0
TEXT
8
pomiar
1
k6043
10
7582770.110
20
5648171.248
30
205.874
11
7582770.110
21
5648171.248
31
205.874
40
1.5
50
0.0
72
0
73
1
0
TEXT
8
pomiar
1
4ro110
10
7582770.110
20
5648169.248
30
205.874
11
7582770.110
21
5648171.248
31
5648169.248
40
1
50
0.0
72
0
73
1
0
POINT
8
pomiar
10
7582726.651
20
5648224.656
30
206.511
0
TEXT
8
pomiar
1
k6042
10
7582726.651
20
5648224.656
30
206.511
11
7582726.651
21
5648224.656
31
206.511
40
1.5
50
0.0
72
0
73
1
0
TEXT
8
pomiar
1
2ro110
10
7582726.651
20
5648222.656
30
206.511
11
7582726.651
21
5648224.656
31
5648222.656
40
1
50
0.0
72
0
73
1
0
POINT
8
pomiar
10
7582726.187
20
5648225.401
30
206.548
0
TEXT
8
pomiar
1
k6041
10
7582726.187
20
5648225.401
30
206.548
11
7582726.187
21
5648225.401
31
206.548
40
1.5
50
0.0
72
0
73
1
0
TEXT
8
pomiar
1
2ro110
10
7582726.187
20
5648223.401
30
206.548
11
7582726.187
21
5648225.401
31
5648223.401
40
1
50
0.0
72
0
73
1
0
POINT
8
pomiar
10
7582684.997
20
5648269.303
30
207.995
0
TEXT
8
pomiar
1
k6040
10
7582684.997
20
5648269.303
30
207.995
11
7582684.997
21
5648269.303
31
207.995
40
1.5
50
0.0
72
0
73
1
0
TEXT
8
pomiar
1
dodna1,31
10
7582684.997
20
5648267.303
30
207.995
11
7582684.997
21
5648269.303
31
5648267.303
40
1
50
0.0
72
0
73
1
0
POINT
8
pomiar
10
7582673.423
20
5648337.962
30
207.520
0
TEXT
8
pomiar
1
k6039
10
7582673.423
20
5648337.962
30
207.520
11
7582673.423
21
5648337.962
31
207.520
40
1.5
50
0.0
72
0
73
1
0
TEXT
8
pomiar
1
ro110
10
7582673.423
20
5648335.962
30
207.520
11
7582673.423
21
5648337.962
31
5648335.962
40
1
50
0.0
72
0
73
1
0
POINT
8
pomiar
10
7582673.221
20
5648337.992
30
206.855
0
TEXT
8
pomiar
1
k6038
10
7582673.221
20
5648337.992
30
206.855
11
7582673.221
21
5648337.992
31
206.855
40
1.5
50
0.0
72
0
73
1
0
TEXT
8
pomiar
1
ro110
10
7582673.221
20
5648335.992
30
206.855
11
7582673.221
21
5648337.992
31
5648335.992
40
1
50
0.0
72
0
73
1
0
POINT
8
pomiar
10
7582672.825
20
5648337.432
30
206.939
0
TEXT
8
pomiar
1
k6037
10
7582672.825
20
5648337.432
30
206.939
11
7582672.825
21
5648337.432
31
206.939
40
1.5
50
0.0
72
0
73
1
0
TEXT
8
pomiar
1
2ro110
10
7582672.825
20
5648335.432
30
206.939
11
7582672.825
21
5648337.432
31
5648335.432
40
1
50
0.0
72
0
73
1
0
POINT
8
pomiar
10
7582673.162
20
5648337.193
30
206.947
0
TEXT
8
pomiar
1
k6036
10
7582673.162
20
5648337.193
30
206.947
11
7582673.162
21
5648337.193
31
206.947
40
1.5
50
0.0
72
0
73
1
0
TEXT
8
pomiar
1
2ro110
10
7582673.162
20
5648335.193
30
206.947
11
7582673.162
21
5648337.193
31
5648335.193
40
1
50
0.0
72
0
73
1
0
POINT
8
pomiar
10
7582672.988
20
5648337.183
30
207.518
0
TEXT
8
pomiar
1
k6035
10
7582672.988
20
5648337.183
30
207.518
11
7582672.988
21
5648337.183
31
207.518
40
1.5
50
0.0
72
0
73
1
0
TEXT
8
pomiar
1
2ro110
10
7582672.988
20
5648335.183
30
207.518
11
7582672.988
21
5648337.183
31
5648335.183
40
1
50
0.0
72
0
73
1
0
POINT
8
pomiar
10
7582673.794
20
5648337.816
30
207.748
0
TEXT
8
pomiar
1
k6034
10
7582673.794
20
5648337.816
30
207.748
11
7582673.794
21
5648337.816
31
207.748
40
1.5
50
0.0
72
0
73
1
0
TEXT
8
pomiar
1
studnia_sygn
10
7582673.794
20
5648335.816
30
207.748
11
7582673.794
21
5648337.816
31
5648335.816
40
1
50
0.0
72
0
73
1
0
POINT
8
pomiar
10
7582673.131
20
5648336.937
30
207.901
0
TEXT
8
pomiar
1
k6033
10
7582673.131
20
5648336.937
30
207.901
11
7582673.131
21
5648336.937
31
207.901
40
1.5
50
0.0
72
0
73
1
0
TEXT
8
pomiar
1
studnia_sygn
10
7582673.131
20
5648334.937
30
207.901
11
7582673.131
21
5648336.937
31
5648334.937
40
1
50
0.0
72
0
73
1
0
POINT
8
pomiar
10
7582673.255
20
5648338.254
30
207.892
0
TEXT
8
pomiar
1
k6032
10
7582673.255
20
5648338.254
30
207.892
11
7582673.255
21
5648338.254
31
207.892
40
1.5
50
0.0
72
0
73
1
0
TEXT
8
pomiar
1
studnia_sygn
10
7582673.255
20
5648336.254
30
207.892
11
7582673.255
21
5648338.254
31
5648336.254
40
1
50
0.0
72
0
73
1
0
POINT
8
pomiar
10
7582672.532
20
5648337.356
30
207.924
0
TEXT
8
pomiar
1
k6031
10
7582672.532
20
5648337.356
30
207.924
11
7582672.532
21
5648337.356
31
207.924
40
1.5
50
0.0
72
0
73
1
0
TEXT
8
pomiar
1
studnia_sygn
10
7582672.532
20
5648335.356
30
207.924
11
7582672.532
21
5648337.356
31
5648335.356
40
1
50
0.0
72
0
73
1
0
POINT
8
pomiar
10
7582672.930
20
5648337.525
30
206.745
0
TEXT
8
pomiar
1
k6030
10
7582672.930
20
5648337.525
30
206.745
11
7582672.930
21
5648337.525
31
206.745
40
1.5
50
0.0
72
0
73
1
0
TEXT
8
pomiar
1
rzedna_dna
10
7582672.930
20
5648335.525
30
206.745
11
7582672.930
21
5648337.525
31
5648335.525
40
1
50
0.0
72
0
73
1
0
POINT
8
pomiar
10
7582676.847
20
5648332.983
30
207.251
0
TEXT
8
pomiar
1
k6029
10
7582676.847
20
5648332.983
30
207.251
11
7582676.847
21
5648332.983
31
207.251
40
1.5
50
0.0
72
0
73
1
0
TEXT
8
pomiar
1
rzedna_dna
10
7582676.847
20
5648330.983
30
207.251
11
7582676.847
21
5648332.983
31
5648330.983
40
1
50
0.0
72
0
73
1
0
POINT
8
pomiar
10
7582678.037
20
5648319.846
30
208.240
0
TEXT
8
pomiar
1
k6028
10
7582678.037
20
5648319.846
30
208.240
11
7582678.037
21
5648319.846
31
208.240
40
1.5
50
0.0
72
0
73
1
0
TEXT
8
pomiar
1
dno_-1,15
10
7582678.037
20
5648317.846
30
208.240
11
7582678.037
21
5648319.846
31
5648317.846
40
1
50
0.0
72
0
73
1
0
POINT
8
pomiar
10
7582668.550
20
5648307.186
30
208.280
0
TEXT
8
pomiar
1
k6027
10
7582668.550
20
5648307.186
30
208.280
11
7582668.550
21
5648307.186
31
208.280
40
1.5
50
0.0
72
0
73
1
0
TEXT
8
pomiar
1
dno_-1,60
10
7582668.550
20
5648305.186
30
208.280
11
7582668.550
21
5648307.186
31
5648305.186
40
1
50
0.0
72
0
73
1
0
POINT
8
pomiar
10
7582654.251
20
5648300.168
30
208.109
0
TEXT
8
pomiar
1
k6026
10
7582654.251
20
5648300.168
30
208.109
11
7582654.251
21
5648300.168
31
208.109
40
1.5
50
0.0
72
0
73
1
0
TEXT
8
pomiar
1
dno_-0,82
10
7582654.251
20
5648298.168
30
208.109
11
7582654.251
21
5648300.168
31
5648298.168
40
1
50
0.0
72
0
73
1
0
POINT
8
pomiar
10
7582646.280
20
5648308.833
30
206.994
0
TEXT
8
pomiar
1
k6025
10
7582646.280
20
5648308.833
30
206.994
11
7582646.280
21
5648308.833
31
206.994
40
1.5
50
0.0
72
0
73
1
0
TEXT
8
pomiar
1
ro110
10
7582646.280
20
5648306.833
30
206.994
11
7582646.280
21
5648308.833
31
5648306.833
40
1
50
0.0
72
0
73
1
0
POINT
8
pomiar
10
7582646.540
20
5648308.537
30
207.036
0
TEXT
8
pomiar
1
k6024
10
7582646.540
20
5648308.537
30
207.036
11
7582646.540
21
5648308.537
31
207.036
40
1.5
50
0.0
72
0
73
1
0
TEXT
8
pomiar
1
ro110
10
7582646.540
20
5648306.537
30
207.036
11
7582646.540
21
5648308.537
31
5648306.537
40
1
50
0.0
72
0
73
1
0
POINT
8
pomiar
10
7582646.192
20
5648308.669
30
207.658
0
TEXT
8
pomiar
1
k6023
10
7582646.192
20
5648308.669
30
207.658
11
7582646.192
21
5648308.669
31
207.658
40
1.5
50
0.0
72
0
73
1
0
TEXT
8
pomiar
1
ro110
10
7582646.192
20
5648306.669
30
207.658
11
7582646.192
21
5648308.669
31
5648306.669
40
1
50
0.0
72
0
73
1
0
POINT
8
pomiar
10
7582646.888
20
5648308.908
30
207.239
0
TEXT
8
pomiar
1
k6022
10
7582646.888
20
5648308.908
30
207.239
11
7582646.888
21
5648308.908
31
207.239
40
1.5
50
0.0
72
0
73
1
0
TEXT
8
pomiar
1
ro110
10
7582646.888
20
5648306.908
30
207.239
11
7582646.888
21
5648308.908
31
5648306.908
40
1
50
0.0
72
0
73
1
0
POINT
8
pomiar
10
7582646.631
20
5648309.167
30
207.216
0
TEXT
8
pomiar
1
k6021
10
7582646.631
20
5648309.167
30
207.216
11
7582646.631
21
5648309.167
31
207.216
40
1.5
50
0.0
72
0
73
1
0
TEXT
8
pomiar
1
ro110
10
7582646.631
20
5648307.167
30
207.216
11
7582646.631
21
5648309.167
31
5648307.167
40
1
50
0.0
72
0
73
1
0
POINT
8
pomiar
10
7582646.766
20
5648309.275
30
207.562
0
TEXT
8
pomiar
1
k6020
10
7582646.766
20
5648309.275
30
207.562
11
7582646.766
21
5648309.275
31
207.562
40
1.5
50
0.0
72
0
73
1
0
TEXT
8
pomiar
1
ro110
10
7582646.766
20
5648307.275
30
207.562
11
7582646.766
21
5648309.275
31
5648307.275
40
1
50
0.0
72
0
73
1
0
POINT
8
pomiar
10
7582646.236
20
5648308.500
30
208.157
0
TEXT
8
pomiar
1
k6019
10
7582646.236
20
5648308.500
30
208.157
11
7582646.236
21
5648308.500
31
208.157
40
1.5
50
0.0
72
0
73
1
0
TEXT
8
pomiar
1
wlaz_kier
10
7582646.236
20
5648306.500
30
208.157
11
7582646.236
21
5648308.500
31
5648306.500
40
1
50
0.0
72
0
73
1
0
POINT
8
pomiar
10
7582646.567
20
5648308.815
30
208.212
0
TEXT
8
pomiar
1
k6018
10
7582646.567
20
5648308.815
30
208.212
11
7582646.567
21
5648308.815
31
208.212
40
1.5
50
0.0
72
0
73
1
0
TEXT
8
pomiar
1
wlaz
10
7582646.567
20
5648306.815
30
208.212
11
7582646.567
21
5648308.815
31
5648306.815
40
1
50
0.0
72
0
73
1
0
POINT
8
pomiar
10
7582646.711
20
5648309.530
30
208.166
0
TEXT
8
pomiar
1
k6017
10
7582646.711
20
5648309.530
30
208.166
11
7582646.711
21
5648309.530
31
208.166
40
1.5
50
0.0
72
0
73
1
0
TEXT
8
pomiar
1
st_sygnal
10
7582646.711
20
5648307.530
30
208.166
11
7582646.711
21
5648309.530
31
5648307.530
40
1
50
0.0
72
0
73
1
0
POINT
8
pomiar
10
7582647.253
20
5648309.047
30
208.151
0
TEXT
8
pomiar
1
k6016
10
7582647.253
20
5648309.047
30
208.151
11
7582647.253
21
5648309.047
31
208.151
40
1.5
50
0.0
72
0
73
1
0
TEXT
8
pomiar
1
st_sygnal
10
7582647.253
20
5648307.047
30
208.151
11
7582647.253
21
5648309.047
31
5648307.047
40
1
50
0.0
72
0
73
1
0
POINT
8
pomiar
10
7582646.403
20
5648308.185
30
208.179
0
TEXT
8
pomiar
1
k6015
10
7582646.403
20
5648308.185
30
208.179
11
7582646.403
21
5648308.185
31
208.179
40
1.5
50
0.0
72
0
73
1
0
TEXT
8
pomiar
1
st_sygnal
10
7582646.403
20
5648306.185
30
208.179
11
7582646.403
21
5648308.185
31
5648306.185
40
1
50
0.0
72
0
73
1
0
POINT
8
pomiar
10
7582645.884
20
5648308.674
30
208.139
0
TEXT
8
pomiar
1
k6014
10
7582645.884
20
5648308.674
30
208.139
11
7582645.884
21
5648308.674
31
208.139
40
1.5
50
0.0
72
0
73
1
0
TEXT
8
pomiar
1
st_sygnal
10
7582645.884
20
5648306.674
30
208.139
11
7582645.884
21
5648308.674
31
5648306.674
40
1
50
0.0
72
0
73
1
0
POINT
8
pomiar
10
7582643.857
20
5648307.507
30
208.178
0
TEXT
8
pomiar
1
k6013
10
7582643.857
20
5648307.507
30
208.178
11
7582643.857
21
5648307.507
31
208.178
40
1.5
50
0.0
72
0
73
1
0
TEXT
8
pomiar
1
obrzeze
10
7582643.857
20
5648305.507
30
208.178
11
7582643.857
21
5648307.507
31
5648305.507
40
1
50
0.0
72
0
73
1
0
POINT
8
pomiar
10
7582645.114
20
5648305.964
30
208.177
0
TEXT
8
pomiar
1
k6012
10
7582645.114
20
5648305.964
30
208.177
11
7582645.114
21
5648305.964
31
208.177
40
1.5
50
0.0
72
0
73
1
0
TEXT
8
pomiar
1
obrzeze
10
7582645.114
20
5648303.964
30
208.177
11
7582645.114
21
5648305.964
31
5648303.964
40
1
50
0.0
72
0
73
1
0
POINT
8
pomiar
10
7582647.798
20
5648308.874
30
208.158
0
TEXT
8
pomiar
1
k6011
10
7582647.798
20
5648308.874
30
208.158
11
7582647.798
21
5648308.874
31
208.158
40
1.5
50
0.0
72
0
73
1
0
TEXT
8
pomiar
1
obrzeze
10
7582647.798
20
5648306.874
30
208.158
11
7582647.798
21
5648308.874
31
5648306.874
40
1
50
0.0
72
0
73
1
0
POINT
8
pomiar
10
7582646.637
20
5648310.398
30
208.181
0
TEXT
8
pomiar
1
k6010
10
7582646.637
20
5648310.398
30
208.181
11
7582646.637
21
5648310.398
31
208.181
40
1.5
50
0.0
72
0
73
1
0
TEXT
8
pomiar
1
obrzeze
10
7582646.637
20
5648308.398
30
208.181
11
7582646.637
21
5648310.398
31
5648308.398
40
1
50
0.0
72
0
73
1
0
POLYLINE
8
pomiar
66
1
70
0
10
0.0
20
0.0
30
0.0
0
VERTEX
8
0
10
7582631.906
20
5648311.437
30
0.000
0
VERTEX
8
0
10
7582631.905
20
5648311.494
30
0.000
0
SEQEND
0
POLYLINE
8
0
66
1
70
0
10
0.0
20
0.0
30
0.0
0
VERTEX
8
0
10
7582631.329
20
5648310.905
30
0.000
0
VERTEX
8
0
10
7582631.486
20
5648312.821
30
0.000
0
SEQEND
0
POLYLINE
8
pomiar
66
1
70
0
10
0.0
20
0.0
30
0.0
0
VERTEX
8
pomiar
10
7582631.114
20
5648311.718
30
207.418
0
SEQEND
0
POLYLINE
8
pomiar
66
1
70
0
10
0.0
20
0.0
30
0.0
0
VERTEX
8
pomiar
10
7582631.114
20
5648311.718
30
207.418
0
VERTEX
8
pomiar
10
7582631.114
20
5648311.718
30
207.418
0
SEQEND
0
POINT
8
pomiar
10
7582630.684
20
5648310.876
30
208.575
0
TEXT
8
pomiar
1
k6009
10
7582630.684
20
5648310.876
30
208.575
11
7582630.684
21
5648310.876
31
208.575
40
1.5
50
0.0
72
0
73
1
0
TEXT
8
pomiar
1
wlaz_kier
10
7582630.684
20
5648308.876
30
208.575
11
7582630.684
21
5648310.876
31
5648308.876
40
1
50
0.0
72
0
73
1
0
POINT
8
pomiar
10
7582631.028
20
5648311.256
30
208.571
0
TEXT
8
pomiar
1
k6008
10
7582631.028
20
5648311.256
30
208.571
11
7582631.028
21
5648311.256
31
208.571
40
1.5
50
0.0
72
0
73
1
0
TEXT
8
pomiar
1
wlaz
10
7582631.028
20
5648309.256
30
208.571
11
7582631.028
21
5648311.256
31
5648309.256
40
1
50
0.0
72
0
73
1
0
POINT
8
pomiar
10
7582630.587
20
5648311.030
30
207.659
0
TEXT
8
pomiar
1
k6007
10
7582630.587
20
5648311.030
30
207.659
11
7582630.587
21
5648311.030
31
207.659
40
1.5
50
0.0
72
0
73
1
0
TEXT
8
pomiar
1
2ro110
10
7582630.587
20
5648309.030
30
207.659
11
7582630.587
21
5648311.030
31
5648309.030
40
1
50
0.0
72
0
73
1
0
POINT
8
pomiar
10
7582631.114
20
5648311.718
30
207.418
0
TEXT
8
pomiar
1
k6006
10
7582631.114
20
5648311.718
30
207.418
11
7582631.114
21
5648311.718
31
207.418
40
1.5
50
0.0
72
0
73
1
0
TEXT
8
pomiar
1
9ro110
10
7582631.114
20
5648309.718
30
207.418
11
7582631.114
21
5648311.718
31
5648309.718
40
1
50
0.0
72
0
73
1
0
POLYLINE
8
pomiar
66
1
70
0
10
0.0
20
0.0
30
0.0
0
VERTEX
8
pomiar
10
7582628.515
20
5648377.493
30
208.964
0
VERTEX
8
pomiar
10
7582627.931
20
5648378.147
30
208.966
0
VERTEX
8
pomiar
10
7582627.488
20
5648377.754
30
208.946
0
VERTEX
8
pomiar
10
7582636.362
20
5648367.614
30
208.823
0
VERTEX
8
pomiar
10
7582636.576
20
5648367.814
30
208.831
0
VERTEX
8
pomiar
10
7582628.307
20
5648377.297
30
208.946
0
VERTEX
8
pomiar
10
7582628.515
20
5648377.493
30
208.964
0
SEQEND
0
POINT
8
pomiar
10
7582628.307
20
5648377.297
30
208.946
0
TEXT
8
pomiar
1
k6005
10
7582628.307
20
5648377.297
30
208.946
11
7582628.307
21
5648377.297
31
208.946
40
1.5
50
0.0
72
0
73
1
0
TEXT
8
pomiar
1
paski
10
7582628.307
20
5648375.297
30
208.946
11
7582628.307
21
5648377.297
31
5648375.297
40
1
50
0.0
72
0
73
1
0
POINT
8
pomiar
10
7582628.515
20
5648377.493
30
208.964
0
TEXT
8
pomiar
1
k6004
10
7582628.515
20
5648377.493
30
208.964
11
7582628.515
21
5648377.493
31
208.964
40
1.5
50
0.0
72
0
73
1
0
TEXT
8
pomiar
1
paski
10
7582628.515
20
5648375.493
30
208.964
11
7582628.515
21
5648377.493
31
5648375.493
40
1
50
0.0
72
0
73
1
0
POINT
8
pomiar
10
7582627.931
20
5648378.147
30
208.966
0
TEXT
8
pomiar
1
k6003
10
7582627.931
20
5648378.147
30
208.966
11
7582627.931
21
5648378.147
31
208.966
40
1.5
50
0.0
72
0
73
1
0
TEXT
8
pomiar
1
paski
10
7582627.931
20
5648376.147
30
208.966
11
7582627.931
21
5648378.147
31
5648376.147
40
1
50
0.0
72
0
73
1
0
POINT
8
pomiar
10
7582627.488
20
5648377.754
30
208.946
0
TEXT
8
pomiar
1
k6002
10
7582627.488
20
5648377.754
30
208.946
11
7582627.488
21
5648377.754
31
208.946
40
1.5
50
0.0
72
0
73
1
0
TEXT
8
pomiar
1
paski
10
7582627.488
20
5648375.754
30
208.946
11
7582627.488
21
5648377.754
31
5648375.754
40
1
50
0.0
72
0
73
1
0
POINT
8
pomiar
10
7582636.362
20
5648367.614
30
208.823
0
TEXT
8
pomiar
1
k6001
10
7582636.362
20
5648367.614
30
208.823
11
7582636.362
21
5648367.614
31
208.823
40
1.5
50
0.0
72
0
73
1
0
TEXT
8
pomiar
1
paski
10
7582636.362
20
5648365.614
30
208.823
11
7582636.362
21
5648367.614
31
5648365.614
40
1
50
0.0
72
0
73
1
0
POINT
8
pomiar
10
7582636.576
20
5648367.814
30
208.831
0
TEXT
8
pomiar
1
k6000
10
7582636.576
20
5648367.814
30
208.831
11
7582636.576
21
5648367.814
31
208.831
40
1.5
50
0.0
72
0
73
1
0
TEXT
8
pomiar
1
paski
10
7582636.576
20
5648365.814
30
208.831
11
7582636.576
21
5648367.814
31
5648365.814
40
1
50
0.0
72
0
73
1
0
POLYLINE
8
Drogowka_BRAKI
66
1
70
0
10
0.0
20
0.0
30
0.0
0
VERTEX
8
0
10
7582733.340
20
5648266.090
30
0.000
0
VERTEX
8
0
10
7582728.730
20
5648264.770
30
0.000
0
VERTEX
8
0
10
7582723.940
20
5648265.430
30
0.000
0
VERTEX
8
0
10
7582720.910
20
5648268.290
30
0.000
0
VERTEX
8
0
10
7582710.990
20
5648281.550
30
0.000
0
VERTEX
8
0
10
7582707.250
20
5648286.320
30
0.000
0
VERTEX
8
0
10
7582707.610
20
5648287.490
30
0.000
0
VERTEX
8
0
10
7582703.640
20
5648291.980
30
0.000
0
VERTEX
8
0
10
7582698.910
20
5648297.680
30
0.000
0
VERTEX
8
0
10
7582700.610
20
5648298.200
30
0.000
0
VERTEX
8
0
10
7582701.950
20
5648297.280
30
0.000
0
VERTEX
8
0
10
7582707.190
20
5648290.980
30
0.000
0
VERTEX
8
0
10
7582709.080
20
5648288.020
30
0.000
0
VERTEX
8
0
10
7582711.120
20
5648285.140
30
0.000
0
VERTEX
8
0
10
7582712.510
20
5648283.840
30
0.000
0
VERTEX
8
0
10
7582720.040
20
5648274.650
30
0.000
0
VERTEX
8
0
10
7582724.310
20
5648268.290
30
0.000
0
VERTEX
8
0
10
7582728.650
20
5648268.000
30
0.000
0
VERTEX
8
0
10
7582733.870
20
5648269.140
30
0.000
0
VERTEX
8
0
10
7582736.420
20
5648268.820
30
0.000
0
VERTEX
8
0
10
7582738.010
20
5648266.480
30
0.000
0
VERTEX
8
0
10
7582736.640
20
5648265.840
30
0.000
0
SEQEND
0
POLYLINE
8
Drogowka_BRAKI
66
1
70
0
10
0.0
20
0.0
30
0.0
0
VERTEX
8
0
10
7581765.670
20
5649347.920
30
0.000
0
VERTEX
8
0
10
7581759.590
20
5649342.940
30
0.000
0
VERTEX
8
0
10
7581763.490
20
5649338.400
30
0.000
0
VERTEX
8
0
10
7581769.310
20
5649344.090
30
0.000
0
VERTEX
8
0
10
7581765.670
20
5649347.920
30
0.000
0
SEQEND
0
POLYLINE
8
Drogowka_BRAKI
66
1
70
0
10
0.0
20
0.0
30
0.0
0
VERTEX
8
0
10
7581747.900
20
5649372.450
30
0.000
0
VERTEX
8
0
10
7581751.610
20
5649366.950
30
0.000
0
VERTEX
8
0
10
7581746.370
20
5649364.140
30
0.000
0
VERTEX
8
0
10
7581740.750
20
5649363.500
30
0.000
0
VERTEX
8
0
10
7581740.680
20
5649369.830
30
0.000
0
VERTEX
8
0
10
7581745.350
20
5649370.080
30
0.000
0
VERTEX
8
0
10
7581747.900
20
5649372.450
30
0.000
0
SEQEND
0
POLYLINE
8
Drogowka_BRAKI
66
1
70
0
10
0.0
20
0.0
30
0.0
0
VERTEX
8
0
10
7581715.140
20
5649441.840
30
0.000
0
VERTEX
8
0
10
7581717.950
20
5649437.820
30
0.000
0
VERTEX
8
0
10
7581719.550
20
5649439.030
30
0.000
0
VERTEX
8
0
10
7581716.740
20
5649443.180
30
0.000
0
VERTEX
8
0
10
7581715.140
20
5649441.840
30
0.000
0
SEQEND
0
POLYLINE
8
Drogowka_BRAKI
66
1
70
0
10
0.0
20
0.0
30
0.0
0
VERTEX
8
0
10
7581684.600
20
5649476.990
30
0.000
0
VERTEX
8
0
10
7581688.110
20
5649472.700
30
0.000
0
VERTEX
8
0
10
7581689.970
20
5649473.340
30
0.000
0
VERTEX
8
0
10
7581686.200
20
5649478.070
30
0.000
0
VERTEX
8
0
10
7581684.600
20
5649476.990
30
0.000
0
SEQEND
0
POLYLINE
8
Drogowka_BRAKI
66
1
70
0
10
0.0
20
0.0
30
0.0
0
VERTEX
8
0
10
7581659.560
20
5649508.740
30
0.000
0
VERTEX
8
0
10
7581658.280
20
5649507.910
30
0.000
0
VERTEX
8
0
10
7581661.350
20
5649503.890
30
0.000
0
VERTEX
8
0
10
7581662.880
20
5649504.780
30
0.000
0
VERTEX
8
0
10
7581659.560
20
5649508.740
30
0.000
0
SEQEND
0
POLYLINE
8
Drogowka_BRAKI
66
1
70
0
10
0.0
20
0.0
30
0.0
0
VERTEX
8
0
10
7581750.140
20
5649393.920
30
0.000
0
VERTEX
8
0
10
7581752.660
20
5649394.810
30
0.000
0
VERTEX
8
0
10
7581756.700
20
5649388.890
30
0.000
0
VERTEX
8
0
10
7581755.430
20
5649386.300
30
0.000
0
VERTEX
8
0
10
7581750.140
20
5649393.920
30
0.000
0
SEQEND
0
POLYLINE
8
Drogowka_BRAKI
66
1
70
0
10
0.0
20
0.0
30
0.0
0
VERTEX
8
0
10
7581724.424
20
5649424.158
30
0.000
0
VERTEX
8
0
10
7581727.170
20
5649427.520
30
0.000
0
VERTEX
8
0
10
7581745.020
20
5649415.140
30
0.000
0
VERTEX
8
0
10
7581756.580
20
5649403.380
30
0.000
0
VERTEX
8
0
10
7581758.440
20
5649398.400
30
0.000
0
VERTEX
8
0
10
7581752.390
20
5649394.780
30
0.000
0
VERTEX
8
0
10
7581745.830
20
5649401.890
30
0.000
0
VERTEX
8
0
10
7581740.740
20
5649408.300
30
0.000
0
VERTEX
8
0
10
7581732.230
20
5649415.690
30
0.000
0
VERTEX
8
0
10
7581724.150
20
5649421.580
30
0.000
0
VERTEX
8
0
10
7581724.424
20
5649424.158
30
0.000
0
SEQEND
0
POLYLINE
8
Drogowka_BRAKI
66
1
70
0
10
0.0
20
0.0
30
0.0
0
VERTEX
8
0
10
7582734.640
20
5648269.070
30
0.000
0
VERTEX
8
0
10
7582741.750
20
5648274.530
30
0.000
0
VERTEX
8
0
10
7582743.550
20
5648273.090
30
0.000
0
VERTEX
8
0
10
7582743.480
20
5648270.000
30
0.000
0
VERTEX
8
0
10
7582738.230
20
5648264.390
30
0.000
0
VERTEX
8
0
10
7582734.640
20
5648269.070
30
0.000
0
SEQEND
0
POLYLINE
8
Drogowka_BRAKI
66
1
70
0
10
0.0
20
0.0
30
0.0
0
VERTEX
8
0
10
7582634.755
20
5648286.646
30
0.000
0
VERTEX
8
0
10
7582625.470
20
5648280.370
30
0.000
0
VERTEX
8
0
10
7582629.820
20
5648279.670
30
0.000
0
VERTEX
8
0
10
7582635.950
20
5648273.470
30
0.000
0
VERTEX
8
0
10
7582641.640
20
5648280.240
30
0.000
0
VERTEX
8
0
10
7582634.755
20
5648286.646
30
0.000
0
SEQEND
0
POLYLINE
8
Drogowka_BRAKI
66
1
70
0
10
0.0
20
0.0
30
0.0
0
VERTEX
8
0
10
7581655.940
20
5649480.240
30
0.000
0
VERTEX
8
0
10
7581660.010
20
5649484.230
30
0.000
0
VERTEX
8
0
10
7581643.490
20
5649503.000
30
0.000
0
VERTEX
8
0
10
7581638.930
20
5649498.610
30
0.000
0
VERTEX
8
0
10
7581655.940
20
5649480.240
30
0.000
0
SEQEND
0
POLYLINE
8
Drogowka_BRAKI
66
1
70
0
10
0.0
20
0.0
30
0.0
0
VERTEX
8
0
10
7581672.160
20
5649464.500
30
0.000
0
VERTEX
8
0
10
7581672.800
20
5649466.170
30
0.000
0
VERTEX
8
0
10
7581658.260
20
5649483.190
30
0.000
0
VERTEX
8
0
10
7581657.220
20
5649481.910
30
0.000
0
VERTEX
8
0
10
7581672.160
20
5649464.500
30
0.000
0
SEQEND
0
POLYLINE
8
Drogowka_BRAKI
66
1
70
0
10
0.0
20
0.0
30
0.0
0
VERTEX
8
0
10
7581789.500
20
5649342.700
30
0.000
0
VERTEX
8
0
10
7581794.400
20
5649344.400
30
0.000
0
VERTEX
8
0
10
7581789.900
20
5649352.200
30
0.000
0
VERTEX
8
0
10
7581791.900
20
5649359.200
30
0.000
0
VERTEX
8
0
10
7581789.755
20
5649360.366
30
0.000
0
VERTEX
8
0
10
7581786.221
20
5649354.286
30
0.000
0
VERTEX
8
0
10
7581787.323
20
5649347.843
30
0.000
0
VERTEX
8
0
10
7581789.500
20
5649342.700
30
0.000
0
SEQEND
0
POLYLINE
8
Drogowka_BRAKI
66
1
70
0
10
0.0
20
0.0
30
0.0
0
VERTEX
8
0
10
7582626.370
20
5648333.520
30
0.000
0
VERTEX
8
0
10
7582627.420
20
5648334.960
30
0.000
0
VERTEX
8
0
10
7582595.880
20
5648371.480
30
0.000
0
VERTEX
8
0
10
7582580.060
20
5648390.460
30
0.000
0
VERTEX
8
0
10
7582571.150
20
5648401.380
30
0.000
0
VERTEX
8
0
10
7582568.950
20
5648400.330
30
0.000
0
VERTEX
8
0
10
7582588.500
20
5648377.230
30
0.000
0
VERTEX
8
0
10
7582610.160
20
5648351.730
30
0.000
0
VERTEX
8
0
10
7582626.370
20
5648333.520
30
0.000
0
SEQEND
0
POLYLINE
8
Drogowka_BRAKI
66
1
70
0
10
0.0
20
0.0
30
0.0
0
VERTEX
8
0
10
7582732.400
20
5648129.500
30
0.000
0
VERTEX
8
0
10
7582732.200
20
5648126.700
30
0.000
0
VERTEX
8
0
10
7582747.200
20
5648128.800
30
0.000
0
VERTEX
8
0
10
7582760.500
20
5648132.000
30
0.000
0
VERTEX
8
0
10
7582773.000
20
5648135.900
30
0.000
0
VERTEX
8
0
10
7582783.400
20
5648137.300
30
0.000
0
VERTEX
8
0
10
7582792.600
20
5648136.600
30
0.000
0
VERTEX
8
0
10
7582793.140
20
5648138.270
30
0.000
0
VERTEX
8
0
10
7582791.200
20
5648140.360
30
0.000
0
VERTEX
8
0
10
7582786.890
20
5648140.500
30
0.000
0
VERTEX
8
0
10
7582775.030
20
5648139.780
30
0.000
0
VERTEX
8
0
10
7582770.860
20
5648139.350
30
0.000
0
VERTEX
8
0
10
7582759.570
20
5648135.180
30
0.000
0
VERTEX
8
0
10
7582748.640
20
5648132.310
30
0.000
0
VERTEX
8
0
10
7582739.300
20
5648130.510
30
0.000
0
VERTEX
8
0
10
7582732.400
20
5648129.500
30
0.000
0
SEQEND
0
POLYLINE
8
Drogowka_BRAKI
66
1
70
0
10
0.0
20
0.0
30
0.0
0
VERTEX
8
0
10
7583343.400
20
5647576.200
30
0.000
0
VERTEX
8
0
10
7583342.300
20
5647579.900
30
0.000
0
VERTEX
8
0
10
7583331.980
20
5647577.090
30
0.000
0
VERTEX
8
0
10
7583318.180
20
5647580.350
30
0.000
0
VERTEX
8
0
10
7583306.740
20
5647584.890
30
0.000
0
VERTEX
8
0
10
7583299.080
20
5647591.280
30
0.000
0
VERTEX
8
0
10
7583285.530
20
5647604.640
30
0.000
0
VERTEX
8
0
10
7583277.480
20
5647611.930
30
0.000
0
VERTEX
8
0
10
7583271.730
20
5647620.940
30
0.000
0
VERTEX
8
0
10
7583264.830
20
5647629.180
30
0.000
0
VERTEX
8
0
10
7583253.190
20
5647640.940
30
0.000
0
VERTEX
8
0
10
7583253.070
20
5647637.870
30
0.000
0
VERTEX
8
0
10
7583265.080
20
5647623.630
30
0.000
0
VERTEX
8
0
10
7583272.050
20
5647615.930
30
0.000
0
VERTEX
8
0
10
7583277.453
20
5647609.269
30
0.000
0
VERTEX
8
0
10
7583283.800
20
5647603.110
30
0.000
0
VERTEX
8
0
10
7583294.620
20
5647591.700
30
0.000
0
VERTEX
8
0
10
7583298.434
20
5647587.569
30
0.000
0
VERTEX
8
0
10
7583303.017
20
5647584.697
30
0.000
0
VERTEX
8
0
10
7583309.149
20
5647579.947
30
0.000
0
VERTEX
8
0
10
7583317.720
20
5647576.950
30
0.000
0
VERTEX
8
0
10
7583327.277
20
5647574.277
30
0.000
0
VERTEX
8
0
10
7583333.120
20
5647572.410
30
0.000
0
VERTEX
8
0
10
7583343.400
20
5647576.200
30
0.000
0
SEQEND
0
POLYLINE
8
Drogowka_BRAKI
66
1
70
0
10
0.0
20
0.0
30
0.0
0
VERTEX
8
0
10
7583373.310
20
5647493.000
30
0.000
0
VERTEX
8
0
10
7583374.910
20
5647494.860
30
0.000
0
VERTEX
8
0
10
7583360.980
20
5647515.110
30
0.000
0
VERTEX
8
0
10
7583347.240
20
5647533.000
30
0.000
0
VERTEX
8
0
10
7583346.730
20
5647541.120
30
0.000
0
VERTEX
8
0
10
7583353.310
20
5647547.310
30
0.000
0
VERTEX
8
0
10
7583350.180
20
5647554.020
30
0.000
0
VERTEX
8
0
10
7583347.560
20
5647551.590
30
0.000
0
VERTEX
8
0
10
7583343.730
20
5647546.160
30
0.000
0
VERTEX
8
0
10
7583341.490
20
5647538.300
30
0.000
0
VERTEX
8
0
10
7583347.560
20
5647525.720
30
0.000
0
VERTEX
8
0
10
7583370.940
20
5647494.600
30
0.000
0
VERTEX
8
0
10
7583373.310
20
5647493.000
30
0.000
0
SEQEND
0
POLYLINE
8
Drogowka_BRAKI
66
1
70
0
10
0.0
20
0.0
30
0.0
0
VERTEX
8
0
10
7583432.550
20
5647416.260
30
0.000
0
VERTEX
8
0
10
7583434.430
20
5647414.130
30
0.000
0
VERTEX
8
0
10
7583436.870
20
5647416.840
30
0.000
0
VERTEX
8
0
10
7583434.830
20
5647418.810
30
0.000
0
VERTEX
8
0
10
7583432.550
20
5647416.260
30
0.000
0
SEQEND
0
POLYLINE
8
Drogowka_BRAKI
66
1
70
0
10
0.0
20
0.0
30
0.0
0
VERTEX
8
0
10
7583230.600
20
5647520.100
30
0.000
0
VERTEX
8
0
10
7583245.600
20
5647519.000
30
0.000
0
VERTEX
8
0
10
7583239.800
20
5647508.900
30
0.000
0
VERTEX
8
0
10
7583229.400
20
5647511.400
30
0.000
0
VERTEX
8
0
10
7583230.600
20
5647520.100
30
0.000
0
SEQEND
0
POLYLINE
8
Drogowka_BRAKI
66
1
70
0
10
0.0
20
0.0
30
0.0
0
VERTEX
8
0
10
7583329.260
20
5647525.230
30
0.000
0
VERTEX
8
0
10
7583327.680
20
5647523.220
30
0.000
0
VERTEX
8
0
10
7583349.100
20
5647499.700
30
0.000
0
VERTEX
8
0
10
7583351.600
20
5647500.590
30
0.000
0
VERTEX
8
0
10
7583352.420
20
5647502.150
30
0.000
0
VERTEX
8
0
10
7583351.230
20
5647502.330
30
0.000
0
VERTEX
8
0
10
7583342.400
20
5647512.900
30
0.000
0
VERTEX
8
0
10
7583331.700
20
5647527.400
30
0.000
0
VERTEX
8
0
10
7583329.250
20
5647525.210
30
0.000
0
SEQEND
0
POLYLINE
8
Drogowka_BRAKI
66
1
70
0
10
0.0
20
0.0
30
0.0
0
VERTEX
8
0
10
7581823.150
20
5649290.480
30
0.000
0
VERTEX
8
0
10
7581827.960
20
5649284.080
30
0.000
0
VERTEX
8
0
10
7581824.500
20
5649276.350
30
0.000
0
VERTEX
8
0
10
7581817.270
20
5649283.180
30
0.000
0
VERTEX
8
0
10
7581799.140
20
5649300.990
30
0.000
0
VERTEX
8
0
10
7581793.540
20
5649310.900
30
0.000
0
VERTEX
8
0
10
7581780.610
20
5649329.900
30
0.000
0
VERTEX
8
0
10
7581769.820
20
5649344.430
30
0.000
0
VERTEX
8
0
10
7581773.120
20
5649346.980
30
0.000
0
VERTEX
8
0
10
7581776.400
20
5649347.310
30
0.000
0
VERTEX
8
0
10
7581782.464
20
5649342.334
30
0.000
0
VERTEX
8
0
10
7581780.020
20
5649340.670
30
0.000
0
VERTEX
8
0
10
7581799.650
20
5649313.670
30
0.000
0
VERTEX
8
0
10
7581799.390
20
5649311.200
30
0.000
0
VERTEX
8
0
10
7581805.380
20
5649304.370
30
0.000
0
VERTEX
8
0
10
7581807.630
20
5649303.900
30
0.000
0
VERTEX
8
0
10
7581818.190
20
5649294.850
30
0.000
0
VERTEX
8
0
10
7581823.147
20
5649290.488
30
0.000
0
SEQEND
0
POLYLINE
8
Drogowka_BRAKI
66
1
70
0
10
0.0
20
0.0
30
0.0
0
VERTEX
8
0
10
7582511.370
20
5648503.550
30
0.000
0
VERTEX
8
0
10
7582518.400
20
5648495.760
30
0.000
0
VERTEX
8
0
10
7582520.710
20
5648497.440
30
0.000
0
VERTEX
8
0
10
7582520.830
20
5648501.590
30
0.000
0
VERTEX
8
0
10
7582514.000
20
5648503.070
30
0.000
0
VERTEX
8
0
10
7582511.370
20
5648503.550
30
0.000
0
SEQEND
0
POLYLINE
8
Drogowka_BRAKI
66
1
70
0
10
0.0
20
0.0
30
0.0
0
VERTEX
8
0
10
7582507.210
20
5648476.790
30
0.000
0
VERTEX
8
0
10
7582498.100
20
5648468.960
30
0.000
0
VERTEX
8
0
10
7582526.220
20
5648438.690
30
0.000
0
VERTEX
8
0
10
7582535.090
20
5648446.910
30
0.000
0
VERTEX
8
0
10
7582507.210
20
5648476.790
30
0.000
0
SEQEND
0
POLYLINE
8
Drogowka_BRAKI
66
1
70
0
10
0.0
20
0.0
30
0.0
0
VERTEX
8
0
10
7582643.610
20
5648308.200
30
0.000
0
VERTEX
8
0
10
7582646.040
20
5648305.490
30
0.000
0
VERTEX
8
0
10
7582649.280
20
5648309.600
30
0.000
0
VERTEX
8
0
10
7582646.880
20
5648311.840
30
0.000
0
VERTEX
8
0
10
7582643.610
20
5648308.200
30
0.000
0
SEQEND
0
POLYLINE
8
Drogowka_BRAKI
66
1
70
0
10
0.0
20
0.0
30
0.0
0
VERTEX
8
0
10
7582634.260
20
5648286.610
30
0.000
0
VERTEX
8
0
10
7582635.810
20
5648286.770
30
0.000
0
VERTEX
8
0
10
7582636.170
20
5648285.050
30
0.000
0
VERTEX
8
0
10
7582639.370
20
5648283.330
30
0.000
0
VERTEX
8
0
10
7582638.610
20
5648282.330
30
0.000
0
VERTEX
8
0
10
7582634.780
20
5648284.130
30
0.000
0
VERTEX
8
0
10
7582634.260
20
5648286.610
30
0.000
0
SEQEND
0
POLYLINE
8
Drogowka_BRAKI
66
1
70
0
10
0.0
20
0.0
30
0.0
0
VERTEX
8
0
10
7582622.640
20
5648278.020
30
0.000
0
VERTEX
8
0
10
7582623.350
20
5648277.140
30
0.000
0
VERTEX
8
0
10
7582628.110
20
5648278.380
30
0.000
0
VERTEX
8
0
10
7582632.580
20
5648273.190
30
0.000
0
VERTEX
8
0
10
7582635.770
20
5648274.670
30
0.000
0
VERTEX
8
0
10
7582630.820
20
5648279.740
30
0.000
0
VERTEX
8
0
10
7582625.750
20
5648279.980
30
0.000
0
VERTEX
8
0
10
7582622.640
20
5648278.020
30
0.000
0
SEQEND
0
POLYLINE
8
Drogowka_BRAKI
66
1
70
0
10
0.0
20
0.0
30
0.0
0
VERTEX
8
0
10
7582670.660
20
5648282.010
30
0.000
0
VERTEX
8
0
10
7582671.260
20
5648279.890
30
0.000
0
VERTEX
8
0
10
7582677.690
20
5648280.130
30
0.000
0
VERTEX
8
0
10
7582680.130
20
5648279.290
30
0.000
0
VERTEX
8
0
10
7582680.690
20
5648280.930
30
0.000
0
VERTEX
8
0
10
7582674.770
20
5648282.050
30
0.000
0
VERTEX
8
0
10
7582670.660
20
5648282.010
30
0.000
0
SEQEND
0
POLYLINE
8
Drogowka_BRAKI
66
1
70
0
10
0.0
20
0.0
30
0.0
0
VERTEX
8
0
10
7582663.950
20
5648290.270
30
0.000
0
VERTEX
8
0
10
7582663.350
20
5648289.230
30
0.000
0
VERTEX
8
0
10
7582669.860
20
5648286.480
30
0.000
0
VERTEX
8
0
10
7582673.010
20
5648288.000
30
0.000
0
VERTEX
8
0
10
7582673.090
20
5648289.870
30
0.000
0
VERTEX
8
0
10
7582669.740
20
5648289.230
30
0.000
0
VERTEX
8
0
10
7582665.580
20
5648290.630
30
0.000
0
VERTEX
8
0
10
7582663.950
20
5648290.270
30
0.000
0
SEQEND
0
POLYLINE
8
Drogowka_BRAKI
66
1
70
0
10
0.0
20
0.0
30
0.0
0
VERTEX
8
0
10
7582802.440
20
5648127.960
30
0.000
0
VERTEX
8
0
10
7582795.170
20
5648121.650
30
0.000
0
VERTEX
8
0
10
7582799.240
20
5648118.690
30
0.000
0
VERTEX
8
0
10
7582806.750
20
5648124.840
30
0.000
0
VERTEX
8
0
10
7582803.320
20
5648128.680
30
0.000
0
VERTEX
8
0
10
7582802.440
20
5648127.960
30
0.000
0
SEQEND
0
POLYLINE
8
Drogowka_BRAKI
66
1
70
0
10
0.0
20
0.0
30
0.0
0
VERTEX
8
0
10
7582722.560
20
5648129.870
30
0.000
0
VERTEX
8
0
10
7582723.040
20
5648126.040
30
0.000
0
VERTEX
8
0
10
7582731.670
20
5648125.880
30
0.000
0
VERTEX
8
0
10
7582731.590
20
5648129.950
30
0.000
0
VERTEX
8
0
10
7582722.560
20
5648129.870
30
0.000
0
SEQEND
0
POLYLINE
8
uwagi_energia
66
1
70
0
10
0.0
20
0.0
30
0.0
0
VERTEX
8
0
10
7583570.240
20
5647429.240
30
0.000
0
VERTEX
8
0
10
7583569.569
20
5647429.067
30
0.000
0
VERTEX
8
0
10
7583568.883
20
5647429.164
30
0.000
0
VERTEX
8
0
10
7583568.286
20
5647429.516
30
0.000
0
VERTEX
8
0
10
7583567.870
20
5647430.070
30
0.000
0
VERTEX
8
0
10
7583567.697
20
5647430.741
30
0.000
0
VERTEX
8
0
10
7583567.794
20
5647431.427
30
0.000
0
VERTEX
8
0
10
7583568.146
20
5647432.024
30
0.000
0
VERTEX
8
0
10
7583568.700
20
5647432.440
30
0.000
0
VERTEX
8
0
10
7583569.371
20
5647432.613
30
0.000
0
VERTEX
8
0
10
7583570.057
20
5647432.516
30
0.000
0
VERTEX
8
0
10
7583570.654
20
5647432.164
30
0.000
0
VERTEX
8
0
10
7583571.070
20
5647431.610
30
0.000
0
VERTEX
8
0
10
7583571.243
20
5647430.939
30
0.000
0
VERTEX
8
0
10
7583571.146
20
5647430.253
30
0.000
0
VERTEX
8
0
10
7583570.794
20
5647429.656
30
0.000
0
SEQEND
0
POLYLINE
8
uwagi_energia
66
1
70
0
10
0.0
20
0.0
30
0.0
0
VERTEX
8
0
10
7581713.693
20
5649436.719
30
0.000
0
VERTEX
8
0
10
7581713.498
20
5649436.504
30
0.000
0
VERTEX
8
0
10
7581713.235
20
5649436.379
30
0.000
0
VERTEX
8
0
10
7581712.945
20
5649436.365
30
0.000
0
VERTEX
8
0
10
7581712.671
20
5649436.463
30
0.000
0
VERTEX
8
0
10
7581712.456
20
5649436.658
30
0.000
0
VERTEX
8
0
10
7581712.331
20
5649436.921
30
0.000
0
VERTEX
8
0
10
7581712.317
20
5649437.211
30
0.000
0
VERTEX
8
0
10
7581712.415
20
5649437.485
30
0.000
0
VERTEX
8
0
10
7581712.610
20
5649437.700
30
0.000
0
VERTEX
8
0
10
7581712.873
20
5649437.825
30
0.000
0
VERTEX
8
0
10
7581713.163
20
5649437.839
30
0.000
0
VERTEX
8
0
10
7581713.437
20
5649437.741
30
0.000
0
VERTEX
8
0
10
7581713.652
20
5649437.546
30
0.000
0
VERTEX
8
0
10
7581713.777
20
5649437.283
30
0.000
0
VERTEX
8
0
10
7581713.791
20
5649436.993
30
0.000
0
SEQEND
0
POLYLINE
8
uwagi_energia
66
1
70
0
10
0.0
20
0.0
30
0.0
0
VERTEX
8
0
10
7581786.100
20
5649367.060
30
0.000
0
VERTEX
8
0
10
7581785.614
20
5649366.596
30
0.000
0
VERTEX
8
0
10
7581784.987
20
5649366.353
30
0.000
0
VERTEX
8
0
10
7581784.315
20
5649366.368
30
0.000
0
VERTEX
8
0
10
7581783.700
20
5649366.640
30
0.000
0
VERTEX
8
0
10
7581783.236
20
5649367.126
30
0.000
0
VERTEX
8
0
10
7581782.993
20
5649367.753
30
0.000
0
VERTEX
8
0
10
7581783.008
20
5649368.425
30
0.000
0
VERTEX
8
0
10
7581783.280
20
5649369.040
30
0.000
0
VERTEX
8
0
10
7581783.766
20
5649369.504
30
0.000
0
VERTEX
8
0
10
7581784.393
20
5649369.747
30
0.000
0
VERTEX
8
0
10
7581785.065
20
5649369.732
30
0.000
0
VERTEX
8
0
10
7581785.680
20
5649369.460
30
0.000
0
VERTEX
8
0
10
7581786.144
20
5649368.974
30
0.000
0
VERTEX
8
0
10
7581786.387
20
5649368.347
30
0.000
0
VERTEX
8
0
10
7581786.372
20
5649367.675
30
0.000
0
SEQEND
0
POLYLINE
8
uwagi_energia
66
1
70
0
10
0.0
20
0.0
30
0.0
0
VERTEX
8
0
10
7582721.180
20
5648224.950
30
0.000
0
VERTEX
8
0
10
7582720.655
20
5648224.708
30
0.000
0
VERTEX
8
0
10
7582720.077
20
5648224.686
30
0.000
0
VERTEX
8
0
10
7582719.534
20
5648224.887
30
0.000
0
VERTEX
8
0
10
7582719.110
20
5648225.280
30
0.000
0
VERTEX
8
0
10
7582718.868
20
5648225.805
30
0.000
0
VERTEX
8
0
10
7582718.846
20
5648226.383
30
0.000
0
VERTEX
8
0
10
7582719.047
20
5648226.926
30
0.000
0
VERTEX
8
0
10
7582719.440
20
5648227.350
30
0.000
0
VERTEX
8
0
10
7582719.965
20
5648227.592
30
0.000
0
VERTEX
8
0
10
7582720.543
20
5648227.614
30
0.000
0
VERTEX
8
0
10
7582721.086
20
5648227.413
30
0.000
0
VERTEX
8
0
10
7582721.510
20
5648227.020
30
0.000
0
VERTEX
8
0
10
7582721.752
20
5648226.495
30
0.000
0
VERTEX
8
0
10
7582721.774
20
5648225.917
30
0.000
0
VERTEX
8
0
10
7582721.573
20
5648225.374
30
0.000
0
SEQEND
0
POLYLINE
8
uwagi_energia
66
1
70
0
10
0.0
20
0.0
30
0.0
0
VERTEX
8
0
10
7582772.390
20
5648168.910
30
0.000
0
VERTEX
8
0
10
7582772.030
20
5648168.620
30
0.000
0
VERTEX
8
0
10
7582771.586
20
5648168.489
30
0.000
0
VERTEX
8
0
10
7582771.126
20
5648168.538
30
0.000
0
VERTEX
8
0
10
7582770.720
20
5648168.760
30
0.000
0
VERTEX
8
0
10
7582770.430
20
5648169.120
30
0.000
0
VERTEX
8
0
10
7582770.299
20
5648169.564
30
0.000
0
VERTEX
8
0
10
7582770.348
20
5648170.024
30
0.000
0
VERTEX
8
0
10
7582770.570
20
5648170.430
30
0.000
0
VERTEX
8
0
10
7582770.930
20
5648170.720
30
0.000
0
VERTEX
8
0
10
7582771.374
20
5648170.851
30
0.000
0
VERTEX
8
0
10
7582771.834
20
5648170.802
30
0.000
0
VERTEX
8
0
10
7582772.240
20
5648170.580
30
0.000
0
VERTEX
8
0
10
7582772.530
20
5648170.220
30
0.000
0
VERTEX
8
0
10
7582772.661
20
5648169.776
30
0.000
0
VERTEX
8
0
10
7582772.612
20
5648169.316
30
0.000
0
SEQEND
0
POLYLINE
8
uwagi_energia
66
1
70
0
10
0.0
20
0.0
30
0.0
0
VERTEX
8
0
10
7582782.190
20
5648157.570
30
0.000
0
VERTEX
8
0
10
7582781.749
20
5648157.133
30
0.000
0
VERTEX
8
0
10
7582781.174
20
5648156.897
30
0.000
0
VERTEX
8
0
10
7582780.553
20
5648156.900
30
0.000
0
VERTEX
8
0
10
7582779.980
20
5648157.140
30
0.000
0
VERTEX
8
0
10
7582779.543
20
5648157.581
30
0.000
0
VERTEX
8
0
10
7582779.307
20
5648158.156
30
0.000
0
VERTEX
8
0
10
7582779.310
20
5648158.777
30
0.000
0
VERTEX
8
0
10
7582779.550
20
5648159.350
30
0.000
0
VERTEX
8
0
10
7582779.991
20
5648159.787
30
0.000
0
VERTEX
8
0
10
7582780.566
20
5648160.023
30
0.000
0
VERTEX
8
0
10
7582781.187
20
5648160.020
30
0.000
0
VERTEX
8
0
10
7582781.760
20
5648159.780
30
0.000
0
VERTEX
8
0
10
7582782.197
20
5648159.339
30
0.000
0
VERTEX
8
0
10
7582782.433
20
5648158.764
30
0.000
0
VERTEX
8
0
10
7582782.430
20
5648158.143
30
0.000
0
SEQEND
0
POLYLINE
8
uwagi_energia
66
1
70
0
10
0.0
20
0.0
30
0.0
0
VERTEX
8
0
10
7583409.610
20
5647420.240
30
0.000
0
VERTEX
8
0
10
7583410.450
20
5647418.870
30
0.000
0
VERTEX
8
0
10
7583399.410
20
5647410.560
30
0.000
0
VERTEX
8
0
10
7583377.310
20
5647435.910
30
0.000
0
VERTEX
8
0
10
7583378.610
20
5647436.960
30
0.000
0
VERTEX
8
0
10
7583399.580
20
5647412.140
30
0.000
0
SEQEND
0
POLYLINE
8
uwagi_energia
66
1
70
0
10
0.0
20
0.0
30
0.0
0
VERTEX
8
0
10
7583564.720
20
5647472.660
30
0.000
0
VERTEX
8
0
10
7583570.950
20
5647476.460
30
0.000
0
SEQEND
0
POLYLINE
8
uwagi_energia
66
1
70
0
10
0.0
20
0.0
30
0.0
0
VERTEX
8
0
10
7583558.490
20
5647468.700
30
0.000
0
VERTEX
8
0
10
7583564.660
20
5647472.600
30
0.000
0
VERTEX
8
0
10
7583578.810
20
5647460.300
30
0.000
0
VERTEX
8
0
10
7583575.420
20
5647451.580
30
0.000
0
VERTEX
8
0
10
7583581.710
20
5647448.640
30
0.000
0
SEQEND
0
POLYLINE
8
uwagi_energia
66
1
70
0
10
0.0
20
0.0
30
0.0
0
VERTEX
8
0
10
7582780.770
20
5648145.530
30
0.000
0
VERTEX
8
0
10
7582778.900
20
5648144.490
30
0.000
0
VERTEX
8
0
10
7582780.250
20
5648143.260
30
0.000
0
VERTEX
8
0
10
7582781.630
20
5648143.720
30
0.000
0
VERTEX
8
0
10
7582780.770
20
5648145.530
30
0.000
0
SEQEND
0
POLYLINE
8
uwagi_energia
66
1
70
0
10
0.0
20
0.0
30
0.0
0
VERTEX
8
0
10
7582771.530
20
5648153.290
30
0.000
0
VERTEX
8
0
10
7582772.820
20
5648151.330
30
0.000
0
VERTEX
8
0
10
7582774.170
20
5648152.050
30
0.000
0
VERTEX
8
0
10
7582773.050
20
5648154.010
30
0.000
0
VERTEX
8
0
10
7582771.530
20
5648153.290
30
0.000
0
SEQEND
0
POLYLINE
8
uwagi_energia
66
1
70
0
10
0.0
20
0.0
30
0.0
0
VERTEX
8
0
10
7582767.220
20
5648161.330
30
0.000
0
VERTEX
8
0
10
7582768.420
20
5648159.870
30
0.000
0
VERTEX
8
0
10
7582767.410
20
5648159.120
30
0.000
0
VERTEX
8
0
10
7582766.450
20
5648160.500
30
0.000
0
VERTEX
8
0
10
7582767.220
20
5648161.330
30
0.000
0
SEQEND
0
POLYLINE
8
uwagi_energia
66
1
70
0
10
0.0
20
0.0
30
0.0
0
VERTEX
8
0
10
7582634.515
20
5648334.150
30
0.000
0
VERTEX
8
0
10
7582633.573
20
5648333.481
30
0.000
0
VERTEX
8
0
10
7582634.558
20
5648332.122
30
0.000
0
VERTEX
8
0
10
7582635.881
20
5648332.999
30
0.000
0
VERTEX
8
0
10
7582634.515
20
5648334.150
30
0.000
0
SEQEND
0
POLYLINE
8
uwagi_energia
66
1
70
0
10
0.0
20
0.0
30
0.0
0
VERTEX
8
0
10
7582644.020
20
5648341.770
30
0.000
0
VERTEX
8
0
10
7582643.200
20
5648341.050
30
0.000
0
VERTEX
8
0
10
7582644.260
20
5648339.800
30
0.000
0
VERTEX
8
0
10
7582645.410
20
5648340.740
30
0.000
0
VERTEX
8
0
10
7582644.020
20
5648341.770
30
0.000
0
SEQEND
0
POLYLINE
8
uwagi_energia
66
1
70
0
10
0.0
20
0.0
30
0.0
0
VERTEX
8
0
10
7582649.668
20
5648348.476
30
0.000
0
VERTEX
8
0
10
7582650.499
20
5648349.320
30
0.000
0
VERTEX
8
0
10
7582651.348
20
5648348.234
30
0.000
0
VERTEX
8
0
10
7582650.607
20
5648347.428
30
0.000
0
VERTEX
8
0
10
7582649.668
20
5648348.476
30
0.000
0
SEQEND
0
POLYLINE
8
uwagi_energia
66
1
70
0
10
0.0
20
0.0
30
0.0
0
VERTEX
8
0
10
7582684.097
20
5648269.534
30
0.000
0
VERTEX
8
0
10
7582684.952
20
5648270.205
30
0.000
0
VERTEX
8
0
10
7582686.086
20
5648269.055
30
0.000
0
VERTEX
8
0
10
7582685.223
20
5648268.272
30
0.000
0
VERTEX
8
0
10
7582684.097
20
5648269.534
30
0.000
0
SEQEND
0
POLYLINE
8
uwagi_energia
66
1
70
0
10
0.0
20
0.0
30
0.0
0
VERTEX
8
0
10
7582630.880
20
5648305.430
30
0.000
0
VERTEX
8
0
10
7582628.850
20
5648307.850
30
0.000
0
VERTEX
8
0
10
7582629.370
20
5648309.460
30
0.000
0
SEQEND
0
POLYLINE
8
uwagi_energia
66
1
70
0
10
0.0
20
0.0
30
0.0
0
VERTEX
8
0
10
7582620.460
20
5648288.620
30
0.000
0
VERTEX
8
0
10
7582619.340
20
5648287.850
30
0.000
0
VERTEX
8
0
10
7582620.270
20
5648286.290
30
0.000
0
VERTEX
8
0
10
7582621.770
20
5648287.410
30
0.000
0
VERTEX
8
0
10
7582620.460
20
5648288.620
30
0.000
0
SEQEND
0
POLYLINE
8
uwagi_energia
66
1
70
0
10
0.0
20
0.0
30
0.0
0
VERTEX
8
0
10
7582790.920
20
5648144.170
30
0.000
0
VERTEX
8
0
10
7582792.240
20
5648145.460
30
0.000
0
VERTEX
8
0
10
7582794.710
20
5648143.740
30
0.000
0
VERTEX
8
0
10
7582793.510
20
5648142.130
30
0.000
0
VERTEX
8
0
10
7582790.920
20
5648144.170
30
0.000
0
SEQEND
0
POLYLINE
8
uwagi_energia
66
1
70
0
10
0.0
20
0.0
30
0.0
0
VERTEX
8
0
10
7582396.840
20
5648611.490
30
0.000
0
VERTEX
8
0
10
7582400.870
20
5648606.630
30
0.000
0
VERTEX
8
0
10
7582416.650
20
5648621.270
30
0.000
0
SEQEND
0
POLYLINE
8
uwagi_energia
66
1
70
0
10
0.0
20
0.0
30
0.0
0
VERTEX
8
0
10
7582678.020
20
5648327.380
30
0.000
0
VERTEX
8
0
10
7582673.370
20
5648327.420
30
0.000
0
VERTEX
8
0
10
7582669.100
20
5648331.310
30
0.000
0
SEQEND
0
POLYLINE
8
uwagi_energia
66
1
70
0
10
0.0
20
0.0
30
0.0
0
VERTEX
8
0
10
7582649.040
20
5648310.720
30
0.000
0
VERTEX
8
0
10
7582658.500
20
5648300.300
30
0.000
0
SEQEND
0
POLYLINE
8
uwagi_energia
66
1
70
0
10
0.0
20
0.0
30
0.0
0
VERTEX
8
0
10
7582618.410
20
5648290.070
30
0.000
0
VERTEX
8
0
10
7582620.520
20
5648287.680
30
0.000
0
VERTEX
8
0
10
7582609.703
20
5648280.153
30
0.000
0
SEQEND
0
POLYLINE
8
uwagi_energia
66
1
70
0
10
0.0
20
0.0
30
0.0
0
VERTEX
8
0
10
7582805.180
20
5648177.500
30
0.000
0
VERTEX
8
0
10
7582783.520
20
5648202.140
30
0.000
0
VERTEX
8
0
10
7582780.160
20
5648198.880
30
0.000
0
SEQEND
0
POLYLINE
8
uwagi_energia
66
1
70
0
10
0.0
20
0.0
30
0.0
0
VERTEX
8
0
10
7582819.660
20
5648154.600
30
0.000
0
VERTEX
8
0
10
7582822.530
20
5648157.190
30
0.000
0
VERTEX
8
0
10
7582805.090
20
5648177.500
30
0.000
0
VERTEX
8
0
10
7582801.640
20
5648174.530
30
0.000
0
SEQEND
0
POLYLINE
8
uwagi_energia
66
1
70
0
10
0.0
20
0.0
30
0.0
0
VERTEX
8
0
10
7582798.720
20
5648132.560
30
0.000
0
VERTEX
8
0
10
7582802.170
20
5648135.720
30
0.000
0
SEQEND
0
POLYLINE
8
uwagi_energia
66
1
70
0
10
0.0
20
0.0
30
0.0
0
VERTEX
8
0
10
7582782.290
20
5648138.040
30
0.000
0
VERTEX
8
0
10
7582788.800
20
5648138.430
30
0.000
0
VERTEX
8
0
10
7582790.380
20
5648138.140
30
0.000
0
VERTEX
8
0
10
7582793.310
20
5648143.700
30
0.000
0
VERTEX
8
0
10
7582802.840
20
5648151.940
30
0.000
0
SEQEND
0
POLYLINE
8
uwagi_energia
66
1
70
0
10
0.0
20
0.0
30
0.0
0
VERTEX
8
0
10
7582774.620
20
5648137.710
30
0.000
0
VERTEX
8
0
10
7582782.190
20
5648137.990
30
0.000
0
VERTEX
8
0
10
7582781.660
20
5648141.830
30
0.000
0
SEQEND
0
POLYLINE
8
uwagi_energia
66
1
70
0
10
0.0
20
0.0
30
0.0
0
VERTEX
8
0
10
7582774.010
20
5648152.320
30
0.000
0
VERTEX
8
0
10
7582780.530
20
5648157.970
30
0.000
0
VERTEX
8
0
10
7582780.960
20
5648158.790
30
0.000
0
VERTEX
8
0
10
7582772.140
20
5648169.570
30
0.000
0
SEQEND
0
POLYLINE
8
uwagi_energia
66
1
70
0
10
0.0
20
0.0
30
0.0
0
VERTEX
8
0
10
7582766.870
20
5648159.360
30
0.000
0
VERTEX
8
0
10
7582772.340
20
5648152.130
30
0.000
0
VERTEX
8
0
10
7582773.920
20
5648152.220
30
0.000
0
VERTEX
8
0
10
7582781.110
20
5648144.310
30
0.000
0
SEQEND
0
POLYLINE
8
uwagi_energia
66
1
70
0
10
0.0
20
0.0
30
0.0
0
VERTEX
8
0
10
7583304.750
20
5647576.550
30
0.000
0
VERTEX
8
0
10
7583297.760
20
5647583.350
30
0.000
0
VERTEX
8
0
10
7583281.560
20
5647570.320
30
0.000
0
SEQEND
0
POLYLINE
8
uwagi_energia
66
1
70
0
10
0.0
20
0.0
30
0.0
0
VERTEX
8
0
10
7583283.900
20
5647549.960
30
0.000
0
VERTEX
8
0
10
7583285.100
20
5647544.740
30
0.000
0
VERTEX
8
0
10
7583289.460
20
5647527.970
30
0.000
0
VERTEX
8
0
10
7583281.500
20
5647525.230
30
0.000
0
VERTEX
8
0
10
7583281.110
20
5647524.060
30
0.000
0
SEQEND
0
POLYLINE
8
uwagi_energia
66
1
70
0
10
0.0
20
0.0
30
0.0
0
VERTEX
8
0
10
7583269.330
20
5647540.280
30
0.000
0
VERTEX
8
0
10
7583270.720
20
5647540.520
30
0.000
0
VERTEX
8
0
10
7583269.810
20
5647543.200
30
0.000
0
VERTEX
8
0
10
7583274.220
20
5647544.930
30
0.000
0
VERTEX
8
0
10
7583273.830
20
5647547.270
30
0.000
0
VERTEX
8
0
10
7583283.850
20
5647549.960
30
0.000
0
VERTEX
8
0
10
7583285.170
20
5647554.240
30
0.000
0
SEQEND
0
POLYLINE
8
uwagi_energia
66
1
70
0
10
0.0
20
0.0
30
0.0
0
VERTEX
8
0
10
7583336.650
20
5647501.680
30
0.000
0
VERTEX
8
0
10
7583332.530
20
5647498.040
30
0.000
0
VERTEX
8
0
10
7583322.370
20
5647509.250
30
0.000
0
VERTEX
8
0
10
7583318.630
20
5647511.940
30
0.000
0
VERTEX
8
0
10
7583305.930
20
5647515.050
30
0.000
0
SEQEND
0
POLYLINE
8
uwagi_energia
66
1
70
0
10
0.0
20
0.0
30
0.0
0
VERTEX
8
0
10
7583325.560
20
5647512.630
30
0.000
0
VERTEX
8
0
10
7583330.160
20
5647507.550
30
0.000
0
VERTEX
8
0
10
7583347.180
20
5647523.080
30
0.000
0
SEQEND
0
POLYLINE
8
sygnalizacja_braki
66
1
70
0
10
0.0
20
0.0
30
0.0
0
VERTEX
8
0
10
7582779.770
20
5648158.540
30
0.000
0
VERTEX
8
0
10
7582781.260
20
5648156.720
30
0.000
0
VERTEX
8
0
10
7582783.130
20
5648158.250
30
0.000
0
VERTEX
8
0
10
7582782.000
20
5648160.380
30
0.000
0
VERTEX
8
0
10
7582779.770
20
5648158.540
30
0.000
0
SEQEND
0
POLYLINE
8
sygnalizacja_braki
66
1
70
0
10
0.0
20
0.0
30
0.0
0
VERTEX
8
0
10
7582778.570
20
5648185.080
30
0.000
0
VERTEX
8
0
10
7582779.910
20
5648186.220
30
0.000
0
VERTEX
8
0
10
7582781.410
20
5648184.900
30
0.000
0
VERTEX
8
0
10
7582779.190
20
5648183.580
30
0.000
0
VERTEX
8
0
10
7582778.570
20
5648185.080
30
0.000
0
SEQEND
0
POLYLINE
8
sygnalizacja_braki
66
1
70
0
10
0.0
20
0.0
30
0.0
0
VERTEX
8
0
10
7582805.030
20
5648149.720
30
0.000
0
VERTEX
8
0
10
7582804.300
20
5648149.080
30
0.000
0
VERTEX
8
0
10
7582805.410
20
5648148.120
30
0.000
0
VERTEX
8
0
10
7582806.240
20
5648148.820
30
0.000
0
VERTEX
8
0
10
7582805.030
20
5648149.720
30
0.000
0
SEQEND
0
POLYLINE
8
sygnalizacja_braki
66
1
70
0
10
0.0
20
0.0
30
0.0
0
VERTEX
8
0
10
7583344.730
20
5647587.020
30
0.000
0
VERTEX
8
0
10
7583369.750
20
5647543.600
30
0.000
0
SEQEND
0
POLYLINE
8
sygnalizacja_braki
66
1
70
0
10
0.0
20
0.0
30
0.0
0
VERTEX
8
0
10
7582781.053
20
5648179.107
30
0.000
0
VERTEX
8
0
10
7582780.160
20
5648178.240
30
0.000
0
VERTEX
8
0
10
7582781.315
20
5648177.050
30
0.000
0
VERTEX
8
0
10
7582782.221
20
5648177.931
30
0.000
0
VERTEX
8
0
10
7582781.053
20
5648179.107
30
0.000
0
SEQEND
0
POLYLINE
8
sygnalizacja_braki
66
1
70
0
10
0.0
20
0.0
30
0.0
0
VERTEX
8
0
10
7582791.778
20
5648145.157
30
0.000
0
VERTEX
8
0
10
7582791.099
20
5648144.638
30
0.000
0
VERTEX
8
0
10
7582792.050
20
5648143.499
30
0.000
0
VERTEX
8
0
10
7582792.825
20
5648144.278
30
0.000
0
VERTEX
8
0
10
7582791.778
20
5648145.157
30
0.000
0
SEQEND
0
POLYLINE
8
sygnalizacja_braki
66
1
70
0
10
0.0
20
0.0
30
0.0
0
VERTEX
8
0
10
7582646.970
20
5648309.840
30
0.000
0
VERTEX
8
0
10
7582646.010
20
5648308.950
30
0.000
0
VERTEX
8
0
10
7582646.950
20
5648308.220
30
0.000
0
VERTEX
8
0
10
7582647.960
20
5648309.230
30
0.000
0
VERTEX
8
0
10
7582646.970
20
5648309.840
30
0.000
0
SEQEND
0
POLYLINE
8
sygnalizacja_braki
66
1
70
0
10
0.0
20
0.0
30
0.0
0
VERTEX
8
0
10
7582673.190
20
5648338.060
30
0.000
0
VERTEX
8
0
10
7582672.480
20
5648337.140
30
0.000
0
VERTEX
8
0
10
7582673.330
20
5648336.480
30
0.000
0
VERTEX
8
0
10
7582674.240
20
5648337.630
30
0.000
0
VERTEX
8
0
10
7582673.190
20
5648338.060
30
0.000
0
SEQEND
0
POLYLINE
8
skreslenia
66
1
70
0
10
0.0
20
0.0
30
0.0
0
VERTEX
8
0
10
7583588.790
20
5647436.320
30
0.000
0
VERTEX
8
0
10
7583588.463
20
5647435.836
30
0.000
0
VERTEX
8
0
10
7583587.976
20
5647435.514
30
0.000
0
VERTEX
8
0
10
7583587.402
20
5647435.403
30
0.000
0
VERTEX
8
0
10
7583586.830
20
5647435.520
30
0.000
0
VERTEX
8
0
10
7583586.346
20
5647435.847
30
0.000
0
VERTEX
8
0
10
7583586.024
20
5647436.334
30
0.000
0
VERTEX
8
0
10
7583585.913
20
5647436.908
30
0.000
0
VERTEX
8
0
10
7583586.030
20
5647437.480
30
0.000
0
VERTEX
8
0
10
7583586.357
20
5647437.964
30
0.000
0
VERTEX
8
0
10
7583586.844
20
5647438.286
30
0.000
0
VERTEX
8
0
10
7583587.418
20
5647438.397
30
0.000
0
VERTEX
8
0
10
7583587.990
20
5647438.280
30
0.000
0
VERTEX
8
0
10
7583588.474
20
5647437.953
30
0.000
0
VERTEX
8
0
10
7583588.796
20
5647437.466
30
0.000
0
VERTEX
8
0
10
7583588.907
20
5647436.892
30
0.000
0
SEQEND
0
POLYLINE
8
skreslenia
66
1
70
0
10
0.0
20
0.0
30
0.0
0
VERTEX
8
0
10
7583497.920
20
5647510.650
30
0.000
0
VERTEX
8
0
10
7583497.716
20
5647510.245
30
0.000
0
VERTEX
8
0
10
7583497.373
20
5647509.949
30
0.000
0
VERTEX
8
0
10
7583496.942
20
5647509.807
30
0.000
0
VERTEX
8
0
10
7583496.490
20
5647509.840
30
0.000
0
VERTEX
8
0
10
7583496.085
20
5647510.044
30
0.000
0
VERTEX
8
0
10
7583495.789
20
5647510.387
30
0.000
0
VERTEX
8
0
10
7583495.647
20
5647510.818
30
0.000
0
VERTEX
8
0
10
7583495.680
20
5647511.270
30
0.000
0
VERTEX
8
0
10
7583495.884
20
5647511.675
30
0.000
0
VERTEX
8
0
10
7583496.227
20
5647511.971
30
0.000
0
VERTEX
8
0
10
7583496.658
20
5647512.113
30
0.000
0
VERTEX
8
0
10
7583497.110
20
5647512.080
30
0.000
0
VERTEX
8
0
10
7583497.515
20
5647511.876
30
0.000
0
VERTEX
8
0
10
7583497.811
20
5647511.533
30
0.000
0
VERTEX
8
0
10
7583497.953
20
5647511.102
30
0.000
0
SEQEND
0
POLYLINE
8
skreslenia
66
1
70
0
10
0.0
20
0.0
30
0.0
0
VERTEX
8
0
10
7582806.900
20
5648133.440
30
0.000
0
VERTEX
8
0
10
7582806.287
20
5648133.077
30
0.000
0
VERTEX
8
0
10
7582805.581
20
5648132.976
30
0.000
0
VERTEX
8
0
10
7582804.890
20
5648133.152
30
0.000
0
VERTEX
8
0
10
7582804.320
20
5648133.580
30
0.000
0
VERTEX
8
0
10
7582803.957
20
5648134.193
30
0.000
0
VERTEX
8
0
10
7582803.856
20
5648134.899
30
0.000
0
VERTEX
8
0
10
7582804.032
20
5648135.590
30
0.000
0
VERTEX
8
0
10
7582804.460
20
5648136.160
30
0.000
0
VERTEX
8
0
10
7582805.073
20
5648136.523
30
0.000
0
VERTEX
8
0
10
7582805.779
20
5648136.624
30
0.000
0
VERTEX
8
0
10
7582806.470
20
5648136.448
30
0.000
0
VERTEX
8
0
10
7582807.040
20
5648136.020
30
0.000
0
VERTEX
8
0
10
7582807.403
20
5648135.407
30
0.000
0
VERTEX
8
0
10
7582807.504
20
5648134.701
30
0.000
0
VERTEX
8
0
10
7582807.328
20
5648134.010
30
0.000
0
SEQEND
0
POLYLINE
8
skreslenia
66
1
70
0
10
0.0
20
0.0
30
0.0
0
VERTEX
8
0
10
7582810.230
20
5648142.740
30
0.000
0
VERTEX
8
0
10
7582809.827
20
5648142.632
30
0.000
0
VERTEX
8
0
10
7582809.413
20
5648142.687
30
0.000
0
VERTEX
8
0
10
7582809.051
20
5648142.896
30
0.000
0
VERTEX
8
0
10
7582808.797
20
5648143.227
30
0.000
0
VERTEX
8
0
10
7582808.689
20
5648143.630
30
0.000
0
VERTEX
8
0
10
7582808.744
20
5648144.044
30
0.000
0
VERTEX
8
0
10
7582808.953
20
5648144.406
30
0.000
0
VERTEX
8
0
10
7582809.284
20
5648144.660
30
0.000
0
VERTEX
8
0
10
7582809.687
20
5648144.768
30
0.000
0
VERTEX
8
0
10
7582810.101
20
5648144.713
30
0.000
0
VERTEX
8
0
10
7582810.463
20
5648144.504
30
0.000
0
VERTEX
8
0
10
7582810.717
20
5648144.173
30
0.000
0
VERTEX
8
0
10
7582810.825
20
5648143.770
30
0.000
0
VERTEX
8
0
10
7582810.770
20
5648143.356
30
0.000
0
VERTEX
8
0
10
7582810.561
20
5648142.994
30
0.000
0
SEQEND
0
POLYLINE
8
skreslenia
66
1
70
0
10
0.0
20
0.0
30
0.0
0
VERTEX
8
0
10
7582821.530
20
5648151.690
30
0.000
0
VERTEX
8
0
10
7582821.120
20
5648151.605
30
0.000
0
VERTEX
8
0
10
7582820.708
20
5648151.683
30
0.000
0
VERTEX
8
0
10
7582820.357
20
5648151.912
30
0.000
0
VERTEX
8
0
10
7582820.121
20
5648152.259
30
0.000
0
VERTEX
8
0
10
7582820.036
20
5648152.669
30
0.000
0
VERTEX
8
0
10
7582820.114
20
5648153.081
30
0.000
0
VERTEX
8
0
10
7582820.343
20
5648153.432
30
0.000
0
VERTEX
8
0
10
7582820.690
20
5648153.668
30
0.000
0
VERTEX
8
0
10
7582821.100
20
5648153.753
30
0.000
0
VERTEX
8
0
10
7582821.512
20
5648153.675
30
0.000
0
VERTEX
8
0
10
7582821.863
20
5648153.446
30
0.000
0
VERTEX
8
0
10
7582822.099
20
5648153.099
30
0.000
0
VERTEX
8
0
10
7582822.184
20
5648152.689
30
0.000
0
VERTEX
8
0
10
7582822.106
20
5648152.277
30
0.000
0
VERTEX
8
0
10
7582821.877
20
5648151.926
30
0.000
0
SEQEND
0
POLYLINE
8
skreslenia
66
1
70
0
10
0.0
20
0.0
30
0.0
0
VERTEX
8
0
10
7582801.420
20
5648134.740
30
0.000
0
VERTEX
8
0
10
7582800.946
20
5648134.654
30
0.000
0
VERTEX
8
0
10
7582800.476
20
5648134.757
30
0.000
0
VERTEX
8
0
10
7582800.080
20
5648135.031
30
0.000
0
VERTEX
8
0
10
7582799.820
20
5648135.436
30
0.000
0
VERTEX
8
0
10
7582799.734
20
5648135.910
30
0.000
0
VERTEX
8
0
10
7582799.837
20
5648136.380
30
0.000
0
VERTEX
8
0
10
7582800.111
20
5648136.776
30
0.000
0
VERTEX
8
0
10
7582800.516
20
5648137.036
30
0.000
0
VERTEX
8
0
10
7582800.990
20
5648137.122
30
0.000
0
VERTEX
8
0
10
7582801.460
20
5648137.019
30
0.000
0
VERTEX
8
0
10
7582801.856
20
5648136.745
30
0.000
0
VERTEX
8
0
10
7582802.116
20
5648136.340
30
0.000
0
VERTEX
8
0
10
7582802.202
20
5648135.866
30
0.000
0
VERTEX
8
0
10
7582802.099
20
5648135.396
30
0.000
0
VERTEX
8
0
10
7582801.825
20
5648135.000
30
0.000
0
SEQEND
0
POLYLINE
8
skreslenia
66
1
70
0
10
0.0
20
0.0
30
0.0
0
VERTEX
8
0
10
7582677.750
20
5648332.257
30
0.000
0
VERTEX
8
0
10
7582677.373
20
5648332.069
30
0.000
0
VERTEX
8
0
10
7582676.954
20
5648332.040
30
0.000
0
VERTEX
8
0
10
7582676.555
20
5648332.174
30
0.000
0
VERTEX
8
0
10
7582676.237
20
5648332.450
30
0.000
0
VERTEX
8
0
10
7582676.049
20
5648332.827
30
0.000
0
VERTEX
8
0
10
7582676.020
20
5648333.246
30
0.000
0
VERTEX
8
0
10
7582676.154
20
5648333.645
30
0.000
0
VERTEX
8
0
10
7582676.430
20
5648333.963
30
0.000
0
VERTEX
8
0
10
7582676.807
20
5648334.151
30
0.000
0
VERTEX
8
0
10
7582677.226
20
5648334.180
30
0.000
0
VERTEX
8
0
10
7582677.625
20
5648334.046
30
0.000
0
VERTEX
8
0
10
7582677.943
20
5648333.770
30
0.000
0
VERTEX
8
0
10
7582678.131
20
5648333.393
30
0.000
0
VERTEX
8
0
10
7582678.160
20
5648332.974
30
0.000
0
VERTEX
8
0
10
7582678.026
20
5648332.575
30
0.000
0
SEQEND
0
POLYLINE
8
skreslenia
66
1
70
0
10
0.0
20
0.0
30
0.0
0
VERTEX
8
0
10
7582678.963
20
5648318.843
30
0.000
0
VERTEX
8
0
10
7582678.514
20
5648318.598
30
0.000
0
VERTEX
8
0
10
7582678.005
20
5648318.544
30
0.000
0
VERTEX
8
0
10
7582677.514
20
5648318.689
30
0.000
0
VERTEX
8
0
10
7582677.116
20
5648319.010
30
0.000
0
VERTEX
8
0
10
7582676.871
20
5648319.459
30
0.000
0
VERTEX
8
0
10
7582676.817
20
5648319.968
30
0.000
0
VERTEX
8
0
10
7582676.962
20
5648320.459
30
0.000
0
VERTEX
8
0
10
7582677.283
20
5648320.857
30
0.000
0
VERTEX
8
0
10
7582677.732
20
5648321.102
30
0.000
0
VERTEX
8
0
10
7582678.241
20
5648321.156
30
0.000
0
VERTEX
8
0
10
7582678.732
20
5648321.011
30
0.000
0
VERTEX
8
0
10
7582679.130
20
5648320.690
30
0.000
0
VERTEX
8
0
10
7582679.375
20
5648320.241
30
0.000
0
VERTEX
8
0
10
7582679.429
20
5648319.732
30
0.000
0
VERTEX
8
0
10
7582679.284
20
5648319.241
30
0.000
0
SEQEND
0
POLYLINE
8
skreslenia
66
1
70
0
10
0.0
20
0.0
30
0.0
0
VERTEX
8
0
10
7582669.300
20
5648306.340
30
0.000
0
VERTEX
8
0
10
7582668.919
20
5648306.154
30
0.000
0
VERTEX
8
0
10
7582668.495
20
5648306.129
30
0.000
0
VERTEX
8
0
10
7582668.094
20
5648306.268
30
0.000
0
VERTEX
8
0
10
7582667.777
20
5648306.549
30
0.000
0
VERTEX
8
0
10
7582667.591
20
5648306.930
30
0.000
0
VERTEX
8
0
10
7582667.566
20
5648307.354
30
0.000
0
VERTEX
8
0
10
7582667.705
20
5648307.755
30
0.000
0
VERTEX
8
0
10
7582667.986
20
5648308.072
30
0.000
0
VERTEX
8
0
10
7582668.367
20
5648308.258
30
0.000
0
VERTEX
8
0
10
7582668.791
20
5648308.283
30
0.000
0
VERTEX
8
0
10
7582669.192
20
5648308.144
30
0.000
0
VERTEX
8
0
10
7582669.509
20
5648307.863
30
0.000
0
VERTEX
8
0
10
7582669.695
20
5648307.482
30
0.000
0
VERTEX
8
0
10
7582669.720
20
5648307.058
30
0.000
0
VERTEX
8
0
10
7582669.581
20
5648306.657
30
0.000
0
SEQEND
0
POLYLINE
8
skreslenia
66
1
70
0
10
0.0
20
0.0
30
0.0
0
VERTEX
8
0
10
7582655.290
20
5648299.702
30
0.000
0
VERTEX
8
0
10
7582655.026
20
5648299.331
30
0.000
0
VERTEX
8
0
10
7582654.640
20
5648299.090
30
0.000
0
VERTEX
8
0
10
7582654.191
20
5648299.015
30
0.000
0
VERTEX
8
0
10
7582653.747
20
5648299.117
30
0.000
0
VERTEX
8
0
10
7582653.376
20
5648299.381
30
0.000
0
VERTEX
8
0
10
7582653.135
20
5648299.767
30
0.000
0
VERTEX
8
0
10
7582653.060
20
5648300.216
30
0.000
0
VERTEX
8
0
10
7582653.162
20
5648300.660
30
0.000
0
VERTEX
8
0
10
7582653.426
20
5648301.031
30
0.000
0
VERTEX
8
0
10
7582653.812
20
5648301.272
30
0.000
0
VERTEX
8
0
10
7582654.261
20
5648301.347
30
0.000
0
VERTEX
8
0
10
7582654.705
20
5648301.245
30
0.000
0
VERTEX
8
0
10
7582655.076
20
5648300.981
30
0.000
0
VERTEX
8
0
10
7582655.317
20
5648300.595
30
0.000
0
VERTEX
8
0
10
7582655.392
20
5648300.146
30
0.000
0
SEQEND
0
POLYLINE
8
skreslenia
66
1
70
0
10
0.0
20
0.0
30
0.0
0
VERTEX
8
0
10
7582639.800
20
5648316.720
30
0.000
0
VERTEX
8
0
10
7582639.407
20
5648316.587
30
0.000
0
VERTEX
8
0
10
7582638.992
20
5648316.614
30
0.000
0
VERTEX
8
0
10
7582638.620
20
5648316.798
30
0.000
0
VERTEX
8
0
10
7582638.346
20
5648317.110
30
0.000
0
VERTEX
8
0
10
7582638.213
20
5648317.503
30
0.000
0
VERTEX
8
0
10
7582638.240
20
5648317.918
30
0.000
0
VERTEX
8
0
10
7582638.424
20
5648318.290
30
0.000
0
VERTEX
8
0
10
7582638.736
20
5648318.564
30
0.000
0
VERTEX
8
0
10
7582639.129
20
5648318.697
30
0.000
0
VERTEX
8
0
10
7582639.544
20
5648318.670
30
0.000
0
VERTEX
8
0
10
7582639.916
20
5648318.486
30
0.000
0
VERTEX
8
0
10
7582640.190
20
5648318.174
30
0.000
0
VERTEX
8
0
10
7582640.323
20
5648317.781
30
0.000
0
VERTEX
8
0
10
7582640.296
20
5648317.366
30
0.000
0
VERTEX
8
0
10
7582640.112
20
5648316.994
30
0.000
0
SEQEND
0
POLYLINE
8
skreslenia
66
1
70
0
10
0.0
20
0.0
30
0.0
0
VERTEX
8
0
10
7582674.490
20
5648336.080
30
0.000
0
VERTEX
8
0
10
7582673.858
20
5648335.764
30
0.000
0
VERTEX
8
0
10
7582673.154
20
5648335.714
30
0.000
0
VERTEX
8
0
10
7582672.484
20
5648335.937
30
0.000
0
VERTEX
8
0
10
7582671.950
20
5648336.400
30
0.000
0
VERTEX
8
0
10
7582671.634
20
5648337.032
30
0.000
0
VERTEX
8
0
10
7582671.584
20
5648337.736
30
0.000
0
VERTEX
8
0
10
7582671.807
20
5648338.406
30
0.000
0
VERTEX
8
0
10
7582672.270
20
5648338.940
30
0.000
0
VERTEX
8
0
10
7582672.902
20
5648339.256
30
0.000
0
VERTEX
8
0
10
7582673.606
20
5648339.306
30
0.000
0
VERTEX
8
0
10
7582674.276
20
5648339.083
30
0.000
0
VERTEX
8
0
10
7582674.810
20
5648338.620
30
0.000
0
VERTEX
8
0
10
7582675.126
20
5648337.988
30
0.000
0
VERTEX
8
0
10
7582675.176
20
5648337.284
30
0.000
0
VERTEX
8
0
10
7582674.953
20
5648336.614
30
0.000
0
SEQEND
0
POLYLINE
8
skreslenia
66
1
70
0
10
0.0
20
0.0
30
0.0
0
VERTEX
8
0
10
7582651.240
20
5648347.230
30
0.000
0
VERTEX
8
0
10
7582650.765
20
5648347.042
30
0.000
0
VERTEX
8
0
10
7582650.254
20
5648347.050
30
0.000
0
VERTEX
8
0
10
7582649.785
20
5648347.253
30
0.000
0
VERTEX
8
0
10
7582649.430
20
5648347.620
30
0.000
0
VERTEX
8
0
10
7582649.242
20
5648348.095
30
0.000
0
VERTEX
8
0
10
7582649.250
20
5648348.606
30
0.000
0
VERTEX
8
0
10
7582649.453
20
5648349.075
30
0.000
0
VERTEX
8
0
10
7582649.820
20
5648349.430
30
0.000
0
VERTEX
8
0
10
7582650.295
20
5648349.618
30
0.000
0
VERTEX
8
0
10
7582650.806
20
5648349.610
30
0.000
0
VERTEX
8
0
10
7582651.275
20
5648349.407
30
0.000
0
VERTEX
8
0
10
7582651.630
20
5648349.040
30
0.000
0
VERTEX
8
0
10
7582651.818
20
5648348.565
30
0.000
0
VERTEX
8
0
10
7582651.810
20
5648348.054
30
0.000
0
VERTEX
8
0
10
7582651.607
20
5648347.585
30
0.000
0
SEQEND
0
POLYLINE
8
skreslenia
66
1
70
0
10
0.0
20
0.0
30
0.0
0
VERTEX
8
0
10
7582636.160
20
5648331.540
30
0.000
0
VERTEX
8
0
10
7582635.453
20
5648331.048
30
0.000
0
VERTEX
8
0
10
7582634.612
20
5648330.864
30
0.000
0
VERTEX
8
0
10
7582633.765
20
5648331.016
30
0.000
0
VERTEX
8
0
10
7582633.040
20
5648331.480
30
0.000
0
VERTEX
8
0
10
7582632.548
20
5648332.187
30
0.000
0
VERTEX
8
0
10
7582632.364
20
5648333.028
30
0.000
0
VERTEX
8
0
10
7582632.516
20
5648333.875
30
0.000
0
VERTEX
8
0
10
7582632.980
20
5648334.600
30
0.000
0
VERTEX
8
0
10
7582633.687
20
5648335.092
30
0.000
0
VERTEX
8
0
10
7582634.528
20
5648335.276
30
0.000
0
VERTEX
8
0
10
7582635.375
20
5648335.124
30
0.000
0
VERTEX
8
0
10
7582636.100
20
5648334.660
30
0.000
0
VERTEX
8
0
10
7582636.592
20
5648333.953
30
0.000
0
VERTEX
8
0
10
7582636.776
20
5648333.112
30
0.000
0
VERTEX
8
0
10
7582636.624
20
5648332.265
30
0.000
0
SEQEND
0
POLYLINE
8
skreslenia
66
1
70
0
10
0.0
20
0.0
30
0.0
0
VERTEX
8
0
10
7582629.450
20
5648306.850
30
0.000
0
VERTEX
8
0
10
7582629.038
20
5648306.701
30
0.000
0
VERTEX
8
0
10
7582628.601
20
5648306.721
30
0.000
0
VERTEX
8
0
10
7582628.205
20
5648306.907
30
0.000
0
VERTEX
8
0
10
7582627.910
20
5648307.230
30
0.000
0
VERTEX
8
0
10
7582627.761
20
5648307.642
30
0.000
0
VERTEX
8
0
10
7582627.781
20
5648308.079
30
0.000
0
VERTEX
8
0
10
7582627.967
20
5648308.475
30
0.000
0
VERTEX
8
0
10
7582628.290
20
5648308.770
30
0.000
0
VERTEX
8
0
10
7582628.702
20
5648308.919
30
0.000
0
VERTEX
8
0
10
7582629.139
20
5648308.899
30
0.000
0
VERTEX
8
0
10
7582629.535
20
5648308.713
30
0.000
0
VERTEX
8
0
10
7582629.830
20
5648308.390
30
0.000
0
VERTEX
8
0
10
7582629.979
20
5648307.978
30
0.000
0
VERTEX
8
0
10
7582629.959
20
5648307.541
30
0.000
0
VERTEX
8
0
10
7582629.773
20
5648307.145
30
0.000
0
SEQEND
0
POLYLINE
8
skreslenia
66
1
70
0
10
0.0
20
0.0
30
0.0
0
VERTEX
8
0
10
7582621.650
20
5648286.110
30
0.000
0
VERTEX
8
0
10
7582620.982
20
5648285.750
30
0.000
0
VERTEX
8
0
10
7582620.226
20
5648285.673
30
0.000
0
VERTEX
8
0
10
7582619.499
20
5648285.890
30
0.000
0
VERTEX
8
0
10
7582618.910
20
5648286.370
30
0.000
0
VERTEX
8
0
10
7582618.550
20
5648287.038
30
0.000
0
VERTEX
8
0
10
7582618.473
20
5648287.794
30
0.000
0
VERTEX
8
0
10
7582618.690
20
5648288.521
30
0.000
0
VERTEX
8
0
10
7582619.170
20
5648289.110
30
0.000
0
VERTEX
8
0
10
7582619.838
20
5648289.470
30
0.000
0
VERTEX
8
0
10
7582620.594
20
5648289.547
30
0.000
0
VERTEX
8
0
10
7582621.321
20
5648289.330
30
0.000
0
VERTEX
8
0
10
7582621.910
20
5648288.850
30
0.000
0
VERTEX
8
0
10
7582622.270
20
5648288.182
30
0.000
0
VERTEX
8
0
10
7582622.347
20
5648287.426
30
0.000
0
VERTEX
8
0
10
7582622.130
20
5648286.699
30
0.000
0
SEQEND
0
POLYLINE
8
skreslenia
66
1
70
0
10
0.0
20
0.0
30
0.0
0
VERTEX
8
0
10
7582649.310
20
5648306.200
30
0.000
0
VERTEX
8
0
10
7582648.038
20
5648305.307
30
0.000
0
VERTEX
8
0
10
7582646.522
20
5648304.969
30
0.000
0
VERTEX
8
0
10
7582644.991
20
5648305.237
30
0.000
0
VERTEX
8
0
10
7582643.680
20
5648306.070
30
0.000
0
VERTEX
8
0
10
7582642.787
20
5648307.342
30
0.000
0
VERTEX
8
0
10
7582642.449
20
5648308.858
30
0.000
0
VERTEX
8
0
10
7582642.717
20
5648310.389
30
0.000
0
VERTEX
8
0
10
7582643.550
20
5648311.700
30
0.000
0
VERTEX
8
0
10
7582644.822
20
5648312.593
30
0.000
0
VERTEX
8
0
10
7582646.338
20
5648312.931
30
0.000
0
VERTEX
8
0
10
7582647.869
20
5648312.663
30
0.000
0
VERTEX
8
0
10
7582649.180
20
5648311.830
30
0.000
0
VERTEX
8
0
10
7582650.073
20
5648310.558
30
0.000
0
VERTEX
8
0
10
7582650.411
20
5648309.042
30
0.000
0
VERTEX
8
0
10
7582650.143
20
5648307.511
30
0.000
0
SEQEND
0
POLYLINE
8
skreslenia
66
1
70
0
10
0.0
20
0.0
30
0.0
0
VERTEX
8
0
10
7582686.100
20
5648266.300
30
0.000
0
VERTEX
8
0
10
7582684.564
20
5648265.539
30
0.000
0
VERTEX
8
0
10
7582682.854
20
5648265.424
30
0.000
0
VERTEX
8
0
10
7582681.230
20
5648265.972
30
0.000
0
VERTEX
8
0
10
7582679.940
20
5648267.100
30
0.000
0
VERTEX
8
0
10
7582679.179
20
5648268.636
30
0.000
0
VERTEX
8
0
10
7582679.064
20
5648270.346
30
0.000
0
VERTEX
8
0
10
7582679.612
20
5648271.970
30
0.000
0
VERTEX
8
0
10
7582680.740
20
5648273.260
30
0.000
0
VERTEX
8
0
10
7582682.276
20
5648274.021
30
0.000
0
VERTEX
8
0
10
7582683.986
20
5648274.136
30
0.000
0
VERTEX
8
0
10
7582685.610
20
5648273.588
30
0.000
0
VERTEX
8
0
10
7582686.900
20
5648272.460
30
0.000
0
VERTEX
8
0
10
7582687.661
20
5648270.924
30
0.000
0
VERTEX
8
0
10
7582687.776
20
5648269.214
30
0.000
0
VERTEX
8
0
10
7582687.228
20
5648267.590
30
0.000
0
SEQEND
0
POLYLINE
8
skreslenia
66
1
70
0
10
0.0
20
0.0
30
0.0
0
VERTEX
8
0
10
7582725.000
20
5648225.280
30
0.000
0
VERTEX
8
0
10
7582726.240
20
5648226.320
30
0.000
0
VERTEX
8
0
10
7582728.410
20
5648223.680
30
0.000
0
VERTEX
8
0
10
7582726.620
20
5648223.040
30
0.000
0
VERTEX
8
0
10
7582725.000
20
5648225.280
30
0.000
0
SEQEND
0
ENDSEC
0
EOF
