  0
SECTION
  2
HEADER
  9
$ACADVER
  1
AC1027
  9
$ACADMAINTVER
 70
     8
  9
$DWGCODEPAGE
  3
ANSI_1250
  9
$REQUIREDVERSIONS
160
                 0
  9
$INSBASE
 10
0.0
 20
0.0
 30
0.0
  9
$EXTMIN
 10
745237.8399999999
 20
380379.73
 30
0.0
  9
$EXTMAX
 10
8396863.520002977
 20
5679353.859999483
 30
0.0
  9
$LIMMIN
 10
745237.8399999999
 20
380379.73
  9
$LIMMAX
 10
8396863.52
 20
5679353.86
  9
$ORTHOMODE
 70
     0
  9
$REGENMODE
 70
     1
  9
$FILLMODE
 70
     1
  9
$QTEXTMODE
 70
     0
  9
$MIRRTEXT
 70
     0
  9
$LTSCALE
 40
1.0
  9
$ATTMODE
 70
     1
  9
$TEXTSIZE
 40
0.2
  9
$TRACEWID
 40
0.05
  9
$TEXTSTYLE
  7
STANDARD
  9
$CLAYER
  8
0
  9
$CELTYPE
  6
CONTINUOUS
  9
$CECOLOR
 62
   256
  9
$CELTSCALE
 40
1.0
  9
$DISPSILH
 70
     0
  9
$DIMSCALE
 40
1.0
  9
$DIMASZ
 40
2.5
  9
$DIMEXO
 40
0.625
  9
$DIMDLI
 40
0.38
  9
$DIMRND
 40
0.0
  9
$DIMDLE
 40
0.0
  9
$DIMEXE
 40
1.25
  9
$DIMTP
 40
0.0
  9
$DIMTM
 40
0.0
  9
$DIMTXT
 40
2.5
  9
$DIMCEN
 40
0.09
  9
$DIMTSZ
 40
0.0
  9
$DIMTOL
 70
     0
  9
$DIMLIM
 70
     0
  9
$DIMTIH
 70
     1
  9
$DIMTOH
 70
     1
  9
$DIMSE1
 70
     0
  9
$DIMSE2
 70
     0
  9
$DIMTAD
 70
     0
  9
$DIMZIN
 70
     0
  9
$DIMBLK
  1

  9
$DIMASO
 70
     1
  9
$DIMSHO
 70
     1
  9
$DIMPOST
  1

  9
$DIMAPOST
  1

  9
$DIMALT
 70
     0
  9
$DIMALTD
 70
     2
  9
$DIMALTF
 40
25.4
  9
$DIMLFAC
 40
1.0
  9
$DIMTOFL
 70
     0
  9
$DIMTVP
 40
0.0
  9
$DIMTIX
 70
     0
  9
$DIMSOXD
 70
     0
  9
$DIMSAH
 70
     0
  9
$DIMBLK1
  1

  9
$DIMBLK2
  1

  9
$DIMSTYLE
  2
Standard
  9
$DIMCLRD
 70
     0
  9
$DIMCLRE
 70
     0
  9
$DIMCLRT
 70
     0
  9
$DIMTFAC
 40
1.0
  9
$DIMGAP
 40
0.625
  9
$DIMJUST
 70
     0
  9
$DIMSD1
 70
     0
  9
$DIMSD2
 70
     0
  9
$DIMTOLJ
 70
     1
  9
$DIMTZIN
 70
     0
  9
$DIMALTZ
 70
     0
  9
$DIMALTTZ
 70
     0
  9
$DIMUPT
 70
     0
  9
$DIMDEC
 70
     4
  9
$DIMTDEC
 70
     4
  9
$DIMALTU
 70
     2
  9
$DIMALTTD
 70
     2
  9
$DIMTXSTY
  7
STANDARD
  9
$DIMAUNIT
 70
     0
  9
$DIMADEC
 70
     0
  9
$DIMALTRND
 40
0.0
  9
$DIMAZIN
 70
     0
  9
$DIMDSEP
 70
    46
  9
$DIMATFIT
 70
     3
  9
$DIMFRAC
 70
     0
  9
$DIMLDRBLK
  1

  9
$DIMLUNIT
 70
     2
  9
$DIMLWD
 70
    -2
  9
$DIMLWE
 70
    -2
  9
$DIMTMOVE
 70
     0
  9
$DIMFXL
 40
1.0
  9
$DIMFXLON
 70
     0
  9
$DIMJOGANG
 40
0.7853981633974483
  9
$DIMTFILL
 70
     0
  9
$DIMTFILLCLR
 70
     0
  9
$DIMARCSYM
 70
     0
  9
$DIMLTYPE
  6

  9
$DIMLTEX1
  6

  9
$DIMLTEX2
  6

  9
$DIMTXTDIRECTION
 70
     0
  9
$LUNITS
 70
     2
  9
$LUPREC
 70
     4
  9
$SKETCHINC
 40
0.1
  9
$FILLETRAD
 40
0.0
  9
$AUNITS
 70
     0
  9
$AUPREC
 70
     0
  9
$MENU
  1

  9
$ELEVATION
 40
0.0
  9
$PELEVATION
 40
0.0
  9
$THICKNESS
 40
0.0
  9
$LIMCHECK
 70
     0
  9
$CHAMFERA
 40
0.0
  9
$CHAMFERB
 40
0.0
  9
$CHAMFERC
 40
0.0
  9
$CHAMFERD
 40
0.0
  9
$SKPOLY
 70
     0
  9
$TDCREATE
 40
2305814.367772083
  9
$TDUCREATE
 40
45733.326105417
  9
$TDUPDATE
 40
2460752.370843495
  9
$TDUUPDATE
 40
2460752.329176829
  9
$TDINDWG
 40
0.002298738
  9
$TDUSRTIMER
 40
0.002298507
  9
$USRTIMER
 70
     1
  9
$ANGBASE
 50
0.0
  9
$ANGDIR
 70
     0
  9
$PDMODE
 70
     0
  9
$PDSIZE
 40
0.0
  9
$PLINEWID
 40
0.0
  9
$SPLFRAME
 70
     0
  9
$SPLINETYPE
 70
     6
  9
$SPLINESEGS
 70
     8
  9
$HANDSEED
  5
10002E1
  9
$SURFTAB1
 70
     6
  9
$SURFTAB2
 70
     6
  9
$SURFTYPE
 70
     6
  9
$SURFU
 70
     6
  9
$SURFV
 70
     6
  9
$UCSBASE
  2

  9
$UCSNAME
  2

  9
$UCSORG
 10
0.0
 20
0.0
 30
0.0
  9
$UCSXDIR
 10
1.0
 20
0.0
 30
0.0
  9
$UCSYDIR
 10
0.0
 20
1.0
 30
0.0
  9
$UCSORTHOREF
  2

  9
$UCSORTHOVIEW
 70
     0
  9
$UCSORGTOP
 10
0.0
 20
0.0
 30
0.0
  9
$UCSORGBOTTOM
 10
0.0
 20
0.0
 30
0.0
  9
$UCSORGLEFT
 10
0.0
 20
0.0
 30
0.0
  9
$UCSORGRIGHT
 10
0.0
 20
0.0
 30
0.0
  9
$UCSORGFRONT
 10
0.0
 20
0.0
 30
0.0
  9
$UCSORGBACK
 10
0.0
 20
0.0
 30
0.0
  9
$PUCSBASE
  2

  9
$PUCSNAME
  2

  9
$PUCSORG
 10
0.0
 20
0.0
 30
0.0
  9
$PUCSXDIR
 10
1.0
 20
0.0
 30
0.0
  9
$PUCSYDIR
 10
0.0
 20
1.0
 30
0.0
  9
$PUCSORTHOREF
  2

  9
$PUCSORTHOVIEW
 70
     0
  9
$PUCSORGTOP
 10
0.0
 20
0.0
 30
0.0
  9
$PUCSORGBOTTOM
 10
0.0
 20
0.0
 30
0.0
  9
$PUCSORGLEFT
 10
0.0
 20
0.0
 30
0.0
  9
$PUCSORGRIGHT
 10
0.0
 20
0.0
 30
0.0
  9
$PUCSORGFRONT
 10
0.0
 20
0.0
 30
0.0
  9
$PUCSORGBACK
 10
0.0
 20
0.0
 30
0.0
  9
$USERI1
 70
     0
  9
$USERI2
 70
     0
  9
$USERI3
 70
     0
  9
$USERI4
 70
     0
  9
$USERI5
 70
     0
  9
$USERR1
 40
0.0
  9
$USERR2
 40
0.0
  9
$USERR3
 40
0.0
  9
$USERR4
 40
0.0
  9
$USERR5
 40
0.0
  9
$WORLDVIEW
 70
     1
  9
$SHADEDGE
 70
     3
  9
$SHADEDIF
 70
    70
  9
$TILEMODE
 70
     1
  9
$MAXACTVP
 70
    64
  9
$PINSBASE
 10
0.0
 20
0.0
 30
0.0
  9
$PLIMCHECK
 70
     0
  9
$PEXTMIN
 10
1.000000000000000E+20
 20
1.000000000000000E+20
 30
1.000000000000000E+20
  9
$PEXTMAX
 10
-1.000000000000000E+20
 20
-1.000000000000000E+20
 30
-1.000000000000000E+20
  9
$PLIMMIN
 10
0.0
 20
0.0
  9
$PLIMMAX
 10
210.0
 20
297.0
  9
$UNITMODE
 70
     0
  9
$VISRETAIN
 70
     1
  9
$PLINEGEN
 70
     0
  9
$PSLTSCALE
 70
     1
  9
$TREEDEPTH
 70
  3020
  9
$CMLSTYLE
  2
Standard
  9
$CMLJUST
 70
     0
  9
$CMLSCALE
 40
1.0
  9
$PROXYGRAPHICS
 70
     1
  9
$MEASUREMENT
 70
     1
  9
$CELWEIGHT
370
    -1
  9
$ENDCAPS
280
     0
  9
$JOINSTYLE
280
     0
  9
$LWDISPLAY
290
     1
  9
$INSUNITS
 70
     6
  9
$HYPERLINKBASE
  1

  9
$STYLESHEET
  1

  9
$XEDIT
290
     0
  9
$CEPSNTYPE
380
     0
  9
$PSTYLEMODE
290
     1
  9
$FINGERPRINTGUID
  2
{7A5D7329-DF0B-4490-8697-533C9BD736C6}
  9
$VERSIONGUID
  2
{2C604C57-903C-4840-A73B-B74FDA30ADFF}
  9
$EXTNAMES
290
     1
  9
$PSVPSCALE
 40
0.0
  9
$OLESTARTUP
290
     0
  9
$SORTENTS
280
   127
  9
$INDEXCTL
280
     0
  9
$HIDETEXT
280
     1
  9
$XCLIPFRAME
280
     2
  9
$HALOGAP
280
     0
  9
$OBSCOLOR
 70
   257
  9
$OBSLTYPE
280
     0
  9
$INTERSECTIONDISPLAY
280
     0
  9
$INTERSECTIONCOLOR
 70
   257
  9
$DIMASSOC
280
     2
  9
$PROJECTNAME
  1

  9
$CAMERADISPLAY
290
     0
  9
$LENSLENGTH
 40
50.0
  9
$CAMERAHEIGHT
 40
0.0
  9
$STEPSPERSEC
 40
2.0
  9
$STEPSIZE
 40
6.0
  9
$3DDWFPREC
 40
2.0
  9
$PSOLWIDTH
 40
0.25
  9
$PSOLHEIGHT
 40
4.0
  9
$LOFTANG1
 40
1.570796326794896
  9
$LOFTANG2
 40
1.570796326794896
  9
$LOFTMAG1
 40
0.0
  9
$LOFTMAG2
 40
0.0
  9
$LOFTPARAM
 70
     7
  9
$LOFTNORMALS
280
     1
  9
$LATITUDE
 40
0.0
  9
$LONGITUDE
 40
0.0
  9
$NORTHDIRECTION
 40
0.0
  9
$TIMEZONE
 70
 -8000
  9
$LIGHTGLYPHDISPLAY
280
     1
  9
$TILEMODELIGHTSYNCH
280
     1
  9
$CMATERIAL
347
1000000
  9
$SOLIDHIST
280
     1
  9
$SHOWHIST
280
     1
  9
$DWFFRAME
280
     2
  9
$DGNFRAME
280
     0
  9
$REALWORLDSCALE
290
     1
  9
$INTERFERECOLOR
 62
     1
  9
$CSHADOW
280
     0
  9
$SHADOWPLANELOCATION
 40
0.0
  0
ENDSEC
  0
SECTION
  2
CLASSES
  0
CLASS
  1
WIPEOUT
  2
AcDbWipeout
  3
WipeOut
 90
      127
 91
        0
280
     0
281
     1
  0
CLASS
  1
WIPEOUTVARIABLES
  2
AcDbWipeoutVariables
  3
WipeOut
 90
        0
 91
        1
280
     0
281
     0
  0
CLASS
  1
ACDBDICTIONARYWDFLT
  2
AcDbDictionaryWithDefault
  3
ObjectDBX Classes
 90
    32768
 91
        1
280
     0
281
     0
  0
CLASS
  1
MATERIAL
  2
AcDbMaterial
  3
ObjectDBX Classes
 90
        0
 91
        3
280
     0
281
     0
  0
CLASS
  1
VISUALSTYLE
  2
AcDbVisualStyle
  3
ObjectDBX Classes
 90
     4095
 91
       24
280
     0
281
     0
  0
CLASS
  1
TABLESTYLE
  2
AcDbTableStyle
  3
ObjectDBX Classes
 90
     2047
 91
        1
280
     0
281
     0
  0
CLASS
  1
MLEADERSTYLE
  2
AcDbMLeaderStyle
  3
ACDB_MLEADERSTYLE_CLASS
 90
     4095
 91
        1
280
     0
281
     0
  0
CLASS
  1
SCALE
  2
AcDbScale
  3
ObjectDBX Classes
 90
     1153
 91
       17
280
     0
281
     0
  0
CLASS
  1
SORTENTSTABLE
  2
AcDbSortentsTable
  3
ObjectDBX Classes
 90
        0
 91
        1
280
     0
281
     0
  0
CLASS
  1
DICTIONARYVAR
  2
AcDbDictionaryVar
  3
ObjectDBX Classes
 90
        0
 91
        4
280
     0
281
     0
  0
ENDSEC
  0
SECTION
  2
TABLES
  0
TABLE
  2
VPORT
  5
1
330
0
100
AcDbSymbolTable
 70
     1
  0
VPORT
  5
2
330
1
100
AcDbSymbolTableRecord
100
AcDbViewportTableRecord
  2
*ACTIVE
 70
     0
 10
0.0
 20
0.0
 11
1.0
 21
1.0
 12
8396360.157166702
 22
5679028.855768238
 13
0.0
 23
0.0
 14
1.0
 24
1.0
 15
0.0
 25
0.0
 16
0.0
 26
0.0
 36
1.0
 17
0.0
 27
0.0
 37
0.0
 40
915.453832415117
 41
1.663853727144866
 42
50.0
 43
0.0
 44
0.0
 50
0.0
 51
0.0
 71
     0
 72
   100
 73
     1
 74
     1
 75
     0
 76
     0
 77
     0
 78
     0
281
     0
 65
     1
110
0.0
120
0.0
130
0.0
111
1.0
121
0.0
131
0.0
112
0.0
122
1.0
132
0.0
 79
     0
146
0.0
348
1000008
 60
     3
 61
     5
292
     1
282
     1
141
0.0
142
0.0
 63
   256
  0
ENDTAB
  0
TABLE
  2
LTYPE
  5
3
330
0
100
AcDbSymbolTable
 70
     2
  0
LTYPE
  5
4
330
3
100
AcDbSymbolTableRecord
100
AcDbLinetypeTableRecord
  2
ByBlock
 70
     0
  3

 72
    65
 73
     0
 40
0.0
  0
LTYPE
  5
5
330
3
100
AcDbSymbolTableRecord
100
AcDbLinetypeTableRecord
  2
ByLayer
 70
     0
  3

 72
    65
 73
     0
 40
0.0
  0
LTYPE
  5
6
330
3
100
AcDbSymbolTableRecord
100
AcDbLinetypeTableRecord
  2
CONTINUOUS
 70
     0
  3
Solid line
 72
    65
 73
     0
 40
0.0
  0
LTYPE
  5
7
330
3
100
AcDbSymbolTableRecord
100
AcDbLinetypeTableRecord
  2
L_0_04
 70
     0
  3
Budynek_projektowany
 72
    65
 73
     2
 40
1.5
 49
1.0
 74
     0
 49
-0.5
 74
     0
  0
ENDTAB
  0
TABLE
  2
LAYER
  5
8
330
0
100
AcDbSymbolTable
 70
     2
  0
LAYER
  5
9
330
8
100
AcDbSymbolTableRecord
100
AcDbLayerTableRecord
  2
0
 70
     0
 62
     7
  6
CONTINUOUS
370
    18
390
A
347
1000002
348
0
  0
LAYER
  5
B
330
8
100
AcDbSymbolTableRecord
100
AcDbLayerTableRecord
  2
zakres
 70
     0
 62
   150
  6
L_0_04
370
    35
390
A
347
1000002
348
0
  0
ENDTAB
  0
TABLE
  2
STYLE
  5
C
330
0
100
AcDbSymbolTable
 70
     2
  0
STYLE
  5
D
330
C
100
AcDbSymbolTableRecord
100
AcDbTextStyleTableRecord
  2
STANDARD
 70
     0
 40
0.0
 41
1.0
 50
0.0
 71
     0
 42
0.2
  3
simplex.shx
  4

  0
STYLE
  5
E
330
C
100
AcDbSymbolTableRecord
100
AcDbTextStyleTableRecord
  2
STANDARD_ITALIC
 70
     0
 40
0.0
 41
1.0
 50
15.0
 71
     0
 42
0.2
  3
simplex.shx
  4

  0
ENDTAB
  0
TABLE
  2
VIEW
  5
F
330
0
100
AcDbSymbolTable
 70
     0
  0
ENDTAB
  0
TABLE
  2
UCS
  5
10
330
0
100
AcDbSymbolTable
 70
     0
  0
ENDTAB
  0
TABLE
  2
APPID
  5
11
330
0
100
AcDbSymbolTable
 70
     1
  0
APPID
  5
12
330
11
100
AcDbSymbolTableRecord
100
AcDbRegAppTableRecord
  2
ACAD
 70
     0
  0
ENDTAB
  0
TABLE
  2
DIMSTYLE
  5
13
330
0
100
AcDbSymbolTable
 70
     1
100
AcDbDimStyleTable
 71
     0
  0
DIMSTYLE
105
14
330
13
100
AcDbSymbolTableRecord
100
AcDbDimStyleTableRecord
  2
Standard
 70
     0
340
D
  0
ENDTAB
  0
TABLE
  2
BLOCK_RECORD
  5
15
330
0
100
AcDbSymbolTable
 70
     0
  0
BLOCK_RECORD
  5
16
102
{ACAD_XDICTIONARY
360
1000034
102
}
330
15
100
AcDbSymbolTableRecord
100
AcDbBlockTableRecord
  2
*MODEL_SPACE
340
17
 70
     0
280
     1
281
     0
  0
BLOCK_RECORD
  5
18
330
15
100
AcDbSymbolTableRecord
100
AcDbBlockTableRecord
  2
*PAPER_SPACE
340
19
 70
     0
280
     1
281
     0
  0
ENDTAB
  0
ENDSEC
  0
SECTION
  2
BLOCKS
  0
BLOCK
  5
1A
330
16
100
AcDbEntity
  8
0
100
AcDbBlockBegin
  2
*MODEL_SPACE
 70
     0
 10
0.0
 20
0.0
 30
0.0
  3
*MODEL_SPACE
  1

  0
ENDBLK
  5
1B
330
16
100
AcDbEntity
  8
0
100
AcDbBlockEnd
  0
BLOCK
  5
1C
330
18
100
AcDbEntity
 67
     1
  8
0
100
AcDbBlockBegin
  2
*PAPER_SPACE
 70
     0
 10
0.0
 20
0.0
 30
0.0
  3
*PAPER_SPACE
  1

  0
ENDBLK
  5
1D
330
18
100
AcDbEntity
 67
     1
  8
0
100
AcDbBlockEnd
  0
ENDSEC
  0
SECTION
  2
ENTITIES
  0
POINT
  5
477
330
16
100
AcDbEntity
  8
0
100
AcDbPoint
 10
8396258.388226724
 20
5679098.313809857
 30
0.0
  0
POINT
  5
478
330
16
100
AcDbEntity
  8
0
100
AcDbPoint
 10
8396132.400002937
 20
5678967.649999482
 30
0.0
  0
POINT
  5
479
330
16
100
AcDbEntity
  8
0
100
AcDbPoint
 10
8396178.500002939
 20
5678953.229999482
 30
0.0
  0
POINT
  5
47A
330
16
100
AcDbEntity
  8
0
100
AcDbPoint
 10
8396171.430002938
 20
5678927.329999484
 30
0.0
  0
POINT
  5
47B
330
16
100
AcDbEntity
  8
0
100
AcDbPoint
 10
8396186.600002938
 20
5678949.549999479
 30
0.0
  0
POINT
  5
47C
330
16
100
AcDbEntity
  8
0
100
AcDbPoint
 10
8396186.920002939
 20
5678950.699999481
 30
0.0
  0
POINT
  5
47D
330
16
100
AcDbEntity
  8
0
100
AcDbPoint
 10
8396194.74000294
 20
5678979.899999482
 30
0.0
  0
POINT
  5
47E
330
16
100
AcDbEntity
  8
0
100
AcDbPoint
 10
8396188.890002942
 20
5678981.45999948
 30
0.0
  0
POINT
  5
47F
330
16
100
AcDbEntity
  8
0
100
AcDbPoint
 10
8396191.570002942
 20
5678992.229999484
 30
0.0
  0
POINT
  5
480
330
16
100
AcDbEntity
  8
0
100
AcDbPoint
 10
8396201.780002941
 20
5678989.529999482
 30
0.0
  0
POINT
  5
481
330
16
100
AcDbEntity
  8
0
100
AcDbPoint
 10
8396202.580002942
 20
5678992.419999481
 30
0.0
  0
POINT
  5
482
330
16
100
AcDbEntity
  8
0
100
AcDbPoint
 10
8396214.220002942
 20
5678989.949999482
 30
0.0
  0
POINT
  5
483
330
16
100
AcDbEntity
  8
0
100
AcDbPoint
 10
8396228.490002942
 20
5679010.81999948
 30
0.0
  0
POINT
  5
484
330
16
100
AcDbEntity
  8
0
100
AcDbPoint
 10
8396278.330002946
 20
5679083.759999485
 30
0.0
  0
POINT
  5
485
330
16
100
AcDbEntity
  8
0
100
AcDbPoint
 10
8396329.760002949
 20
5679071.849999485
 30
0.0
  0
POINT
  5
486
330
16
100
AcDbEntity
  8
0
100
AcDbPoint
 10
8396283.300002945
 20
5679000.959999484
 30
0.0
  0
POINT
  5
487
330
16
100
AcDbEntity
  8
0
100
AcDbPoint
 10
8396269.150002947
 20
5678979.34999948
 30
0.0
  0
POINT
  5
488
330
16
100
AcDbEntity
  8
0
100
AcDbPoint
 10
8396272.930002945
 20
5678978.63999948
 30
0.0
  0
POINT
  5
489
330
16
100
AcDbEntity
  8
0
100
AcDbPoint
 10
8396278.140002946
 20
5678979.299999483
 30
0.0
  0
POINT
  5
48A
330
16
100
AcDbEntity
  8
0
100
AcDbPoint
 10
8396292.030002944
 20
5678983.46999948
 30
0.0
  0
POINT
  5
48B
330
16
100
AcDbEntity
  8
0
100
AcDbPoint
 10
8396306.330002945
 20
5678983.799999481
 30
0.0
  0
POINT
  5
48C
330
16
100
AcDbEntity
  8
0
100
AcDbPoint
 10
8396312.120002948
 20
5678983.089999482
 30
0.0
  0
POINT
  5
48D
330
16
100
AcDbEntity
  8
0
100
AcDbPoint
 10
8396320.160002947
 20
5678979.719999481
 30
0.0
  0
POINT
  5
48E
330
16
100
AcDbEntity
  8
0
100
AcDbPoint
 10
8396329.250002946
 20
5678974.149999485
 30
0.0
  0
POINT
  5
48F
330
16
100
AcDbEntity
  8
0
100
AcDbPoint
 10
8396335.31000295
 20
5678971.929999483
 30
0.0
  0
POINT
  5
490
330
16
100
AcDbEntity
  8
0
100
AcDbPoint
 10
8396339.470002949
 20
5678971.259999478
 30
0.0
  0
POINT
  5
491
330
16
100
AcDbEntity
  8
0
100
AcDbPoint
 10
8396340.990002947
 20
5678971.009999481
 30
0.0
  0
POINT
  5
492
330
16
100
AcDbEntity
  8
0
100
AcDbPoint
 10
8396354.55000295
 20
5678973.949999483
 30
0.0
  0
POINT
  5
493
330
16
100
AcDbEntity
  8
0
100
AcDbPoint
 10
8396398.800002952
 20
5678969.349999481
 30
0.0
  0
POINT
  5
494
330
16
100
AcDbEntity
  8
0
100
AcDbPoint
 10
8396417.340002953
 20
5678967.41999948
 30
0.0
  0
POINT
  5
495
330
16
100
AcDbEntity
  8
0
100
AcDbPoint
 10
8396424.050002956
 20
5678952.289999484
 30
0.0
  0
POINT
  5
496
330
16
100
AcDbEntity
  8
0
100
AcDbPoint
 10
8396428.410002954
 20
5678945.399999483
 30
0.0
  0
POINT
  5
497
330
16
100
AcDbEntity
  8
0
100
AcDbPoint
 10
8396432.760002955
 20
5678927.519999485
 30
0.0
  0
POINT
  5
498
330
16
100
AcDbEntity
  8
0
100
AcDbPoint
 10
8396439.340002954
 20
5678916.089999481
 30
0.0
  0
POINT
  5
499
330
16
100
AcDbEntity
  8
0
100
AcDbPoint
 10
8396449.350002956
 20
5678906.379999481
 30
0.0
  0
POINT
  5
49A
330
16
100
AcDbEntity
  8
0
100
AcDbPoint
 10
8396459.980002957
 20
5678897.769999481
 30
0.0
  0
POINT
  5
49B
330
16
100
AcDbEntity
  8
0
100
AcDbPoint
 10
8396465.620002956
 20
5678894.259999484
 30
0.0
  0
POINT
  5
49C
330
16
100
AcDbEntity
  8
0
100
AcDbPoint
 10
8396473.470002955
 20
5678891.709999485
 30
0.0
  0
POINT
  5
49D
330
16
100
AcDbEntity
  8
0
100
AcDbPoint
 10
8396465.600002956
 20
5678859.479999486
 30
0.0
  0
POINT
  5
49E
330
16
100
AcDbEntity
  8
0
100
AcDbPoint
 10
8396468.530002955
 20
5678857.609999483
 30
0.0
  0
POINT
  5
49F
330
16
100
AcDbEntity
  8
0
100
AcDbPoint
 10
8396500.000002957
 20
5678849.099999481
 30
0.0
  0
POINT
  5
4A0
330
16
100
AcDbEntity
  8
0
100
AcDbPoint
 10
8396501.340002959
 20
5678853.939999482
 30
0.0
  0
POINT
  5
4A1
330
16
100
AcDbEntity
  8
0
100
AcDbPoint
 10
8396512.58000296
 20
5678850.959999481
 30
0.0
  0
POINT
  5
4A2
330
16
100
AcDbEntity
  8
0
100
AcDbPoint
 10
8396509.64000296
 20
5678839.539999485
 30
0.0
  0
POINT
  5
4A3
330
16
100
AcDbEntity
  8
0
100
AcDbPoint
 10
8396503.500002959
 20
5678835.909999482
 30
0.0
  0
POINT
  5
4A4
330
16
100
AcDbEntity
  8
0
100
AcDbPoint
 10
8396492.060002961
 20
5678791.759999483
 30
0.0
  0
POINT
  5
4A5
330
16
100
AcDbEntity
  8
0
100
AcDbPoint
 10
8396487.57000296
 20
5678793.079999484
 30
0.0
  0
POINT
  5
4A6
330
16
100
AcDbEntity
  8
0
100
AcDbPoint
 10
8396481.920002955
 20
5678771.509999481
 30
0.0
  0
POINT
  5
4A7
330
16
100
AcDbEntity
  8
0
100
AcDbPoint
 10
8396471.130002959
 20
5678730.369999481
 30
0.0
  0
POINT
  5
4A8
330
16
100
AcDbEntity
  8
0
100
AcDbPoint
 10
8396488.220002961
 20
5678726.949999484
 30
0.0
  0
POINT
  5
4A9
330
16
100
AcDbEntity
  8
0
100
AcDbPoint
 10
8396499.020002959
 20
5678724.789999481
 30
0.0
  0
POINT
  5
4AA
330
16
100
AcDbEntity
  8
0
100
AcDbPoint
 10
8396509.96000296
 20
5678722.609999482
 30
0.0
  0
POINT
  5
4AB
330
16
100
AcDbEntity
  8
0
100
AcDbPoint
 10
8396514.600002959
 20
5678740.929999482
 30
0.0
  0
POINT
  5
4AC
330
16
100
AcDbEntity
  8
0
100
AcDbPoint
 10
8396549.660002964
 20
5678754.419999484
 30
0.0
  0
POINT
  5
4AD
330
16
100
AcDbEntity
  8
0
100
AcDbPoint
 10
8396559.300002964
 20
5678753.719999483
 30
0.0
  0
POINT
  5
4AE
330
16
100
AcDbEntity
  8
0
100
AcDbPoint
 10
8396601.010002965
 20
5678750.699999483
 30
0.0
  0
POINT
  5
4AF
330
16
100
AcDbEntity
  8
0
100
AcDbPoint
 10
8396620.520002963
 20
5678734.469999485
 30
0.0
  0
POINT
  5
4B0
330
16
100
AcDbEntity
  8
0
100
AcDbPoint
 10
8396638.700002968
 20
5678719.359999485
 30
0.0
  0
POINT
  5
4B1
330
16
100
AcDbEntity
  8
0
100
AcDbPoint
 10
8396664.200002968
 20
5678698.149999485
 30
0.0
  0
POINT
  5
4B2
330
16
100
AcDbEntity
  8
0
100
AcDbPoint
 10
8396698.060002972
 20
5678669.989999486
 30
0.0
  0
POINT
  5
4B3
330
16
100
AcDbEntity
  8
0
100
AcDbPoint
 10
8396742.320002976
 20
5678734.289999485
 30
0.0
  0
POINT
  5
4B4
330
16
100
AcDbEntity
  8
0
100
AcDbPoint
 10
8396770.560002977
 20
5678711.459999484
 30
0.0
  0
POINT
  5
4B5
330
16
100
AcDbEntity
  8
0
100
AcDbPoint
 10
8396808.510002978
 20
5678680.769999486
 30
0.0
  0
POINT
  5
4B6
330
16
100
AcDbEntity
  8
0
100
AcDbPoint
 10
8396817.21000298
 20
5678694.009999484
 30
0.0
  0
POINT
  5
4B7
330
16
100
AcDbEntity
  8
0
100
AcDbPoint
 10
8396863.520002977
 20
5678763.969999485
 30
0.0
  0
POINT
  5
4B8
330
16
100
AcDbEntity
  8
0
100
AcDbPoint
 10
8396851.780002981
 20
5678773.279999484
 30
0.0
  0
POINT
  5
4B9
330
16
100
AcDbEntity
  8
0
100
AcDbPoint
 10
8396824.570002976
 20
5678792.029999486
 30
0.0
  0
POINT
  5
4BA
330
16
100
AcDbEntity
  8
0
100
AcDbPoint
 10
8396821.400002977
 20
5678794.039999488
 30
0.0
  0
POINT
  5
4BB
330
16
100
AcDbEntity
  8
0
100
AcDbPoint
 10
8396817.000002979
 20
5678797.519999488
 30
0.0
  0
POINT
  5
4BC
330
16
100
AcDbEntity
  8
0
100
AcDbPoint
 10
8396814.020002977
 20
5678800.979999485
 30
0.0
  0
POINT
  5
4BD
330
16
100
AcDbEntity
  8
0
100
AcDbPoint
 10
8396812.010002978
 20
5678804.979999486
 30
0.0
  0
POINT
  5
4BE
330
16
100
AcDbEntity
  8
0
100
AcDbPoint
 10
8396810.790002978
 20
5678810.559999484
 30
0.0
  0
POINT
  5
4BF
330
16
100
AcDbEntity
  8
0
100
AcDbPoint
 10
8396810.660002977
 20
5678816.449999486
 30
0.0
  0
POINT
  5
4C0
330
16
100
AcDbEntity
  8
0
100
AcDbPoint
 10
8396801.970002979
 20
5678820.939999487
 30
0.0
  0
POINT
  5
4C1
330
16
100
AcDbEntity
  8
0
100
AcDbPoint
 10
8396792.570002977
 20
5678823.989999487
 30
0.0
  0
POINT
  5
4C2
330
16
100
AcDbEntity
  8
0
100
AcDbPoint
 10
8396783.090002976
 20
5678819.049999484
 30
0.0
  0
POINT
  5
4C3
330
16
100
AcDbEntity
  8
0
100
AcDbPoint
 10
8396780.310002977
 20
5678817.589999488
 30
0.0
  0
POINT
  5
4C4
330
16
100
AcDbEntity
  8
0
100
AcDbPoint
 10
8396770.580002975
 20
5678819.469999484
 30
0.0
  0
POINT
  5
4C5
330
16
100
AcDbEntity
  8
0
100
AcDbPoint
 10
8396741.930002974
 20
5678838.109999486
 30
0.0
  0
POINT
  5
4C6
330
16
100
AcDbEntity
  8
0
100
AcDbPoint
 10
8396726.170002974
 20
5678853.439999487
 30
0.0
  0
POINT
  5
4C7
330
16
100
AcDbEntity
  8
0
100
AcDbPoint
 10
8396707.910002971
 20
5678861.499999485
 30
0.0
  0
POINT
  5
4C8
330
16
100
AcDbEntity
  8
0
100
AcDbPoint
 10
8396694.220002972
 20
5678867.539999485
 30
0.0
  0
POINT
  5
4C9
330
16
100
AcDbEntity
  8
0
100
AcDbPoint
 10
8396681.460002973
 20
5678873.169999487
 30
0.0
  0
POINT
  5
4CA
330
16
100
AcDbEntity
  8
0
100
AcDbPoint
 10
8396662.760002971
 20
5678880.939999486
 30
0.0
  0
POINT
  5
4CB
330
16
100
AcDbEntity
  8
0
100
AcDbPoint
 10
8396645.760002966
 20
5678887.659999485
 30
0.0
  0
POINT
  5
4CC
330
16
100
AcDbEntity
  8
0
100
AcDbPoint
 10
8396620.070002965
 20
5678898.199999486
 30
0.0
  0
POINT
  5
4CD
330
16
100
AcDbEntity
  8
0
100
AcDbPoint
 10
8396613.280002965
 20
5678915.199999484
 30
0.0
  0
POINT
  5
4CE
330
16
100
AcDbEntity
  8
0
100
AcDbPoint
 10
8396608.720002966
 20
5678922.259999483
 30
0.0
  0
POINT
  5
4CF
330
16
100
AcDbEntity
  8
0
100
AcDbPoint
 10
8396607.750002965
 20
5678923.299999483
 30
0.0
  0
POINT
  5
4D0
330
16
100
AcDbEntity
  8
0
100
AcDbPoint
 10
8396599.660002966
 20
5678931.049999484
 30
0.0
  0
POINT
  5
4D1
330
16
100
AcDbEntity
  8
0
100
AcDbPoint
 10
8396592.150002964
 20
5678940.789999485
 30
0.0
  0
POINT
  5
4D2
330
16
100
AcDbEntity
  8
0
100
AcDbPoint
 10
8396587.230002966
 20
5678952.739999483
 30
0.0
  0
POINT
  5
4D3
330
16
100
AcDbEntity
  8
0
100
AcDbPoint
 10
8396589.790002961
 20
5678957.539999485
 30
0.0
  0
POINT
  5
4D4
330
16
100
AcDbEntity
  8
0
100
AcDbPoint
 10
8396601.050002967
 20
5678974.569999486
 30
0.0
  0
POINT
  5
4D5
330
16
100
AcDbEntity
  8
0
100
AcDbPoint
 10
8396608.480002965
 20
5678986.129999485
 30
0.0
  0
POINT
  5
4D6
330
16
100
AcDbEntity
  8
0
100
AcDbPoint
 10
8396586.480002966
 20
5678997.339999484
 30
0.0
  0
POINT
  5
4D7
330
16
100
AcDbEntity
  8
0
100
AcDbPoint
 10
8396559.190002962
 20
5679009.429999482
 30
0.0
  0
POINT
  5
4D8
330
16
100
AcDbEntity
  8
0
100
AcDbPoint
 10
8396558.89000296
 20
5679009.909999485
 30
0.0
  0
POINT
  5
4D9
330
16
100
AcDbEntity
  8
0
100
AcDbPoint
 10
8396465.500002957
 20
5679036.199999483
 30
0.0
  0
POINT
  5
4DA
330
16
100
AcDbEntity
  8
0
100
AcDbPoint
 10
8396457.500002956
 20
5679054.429999484
 30
0.0
  0
POINT
  5
4DB
330
16
100
AcDbEntity
  8
0
100
AcDbPoint
 10
8396456.880002958
 20
5679055.849999484
 30
0.0
  0
POINT
  5
4DC
330
16
100
AcDbEntity
  8
0
100
AcDbPoint
 10
8396466.250002957
 20
5679073.729999486
 30
0.0
  0
POINT
  5
4DD
330
16
100
AcDbEntity
  8
0
100
AcDbPoint
 10
8396397.070002953
 20
5679109.759999485
 30
0.0
  0
POINT
  5
4DE
330
16
100
AcDbEntity
  8
0
100
AcDbPoint
 10
8396371.240002951
 20
5679116.209999484
 30
0.0
  0
POINT
  5
4DF
330
16
100
AcDbEntity
  8
0
100
AcDbPoint
 10
8396322.170002944
 20
5679141.369999481
 30
0.0
  0
POINT
  5
4E0
330
16
100
AcDbEntity
  8
0
100
AcDbPoint
 10
8396285.540002944
 20
5679153.299999483
 30
0.0
  0
POINT
  5
4E1
330
16
100
AcDbEntity
  8
0
100
AcDbPoint
 10
8396231.52000294
 20
5679150.309999482
 30
0.0
  0
POINT
  5
4E2
330
16
100
AcDbEntity
  8
0
100
AcDbPoint
 10
8396231.040002941
 20
5679148.609999483
 30
0.0
  0
POINT
  5
4E3
330
16
100
AcDbEntity
  8
0
100
AcDbPoint
 10
8396225.240002943
 20
5679127.799999482
 30
0.0
  0
POINT
  5
4E4
330
16
100
AcDbEntity
  8
0
100
AcDbPoint
 10
8396220.44000294
 20
5679110.629999481
 30
0.0
  0
POINT
  5
4E5
330
16
100
AcDbEntity
  8
0
100
AcDbPoint
 10
8396227.630002941
 20
5679106.419999484
 30
0.0
  0
POINT
  5
4E6
330
16
100
AcDbEntity
  8
0
100
AcDbPoint
 10
8396250.840002943
 20
5679124.359999483
 30
0.0
  0
POINT
  5
4E7
330
16
100
AcDbEntity
  8
0
100
AcDbPoint
 10
8396246.670002943
 20
5679124.939999485
 30
0.0
  0
POINT
  5
4E8
330
16
100
AcDbEntity
  8
0
100
AcDbPoint
 10
8396259.970002942
 20
5679144.989999481
 30
0.0
  0
POINT
  5
4E9
330
16
100
AcDbEntity
  8
0
100
AcDbPoint
 10
8396268.080002943
 20
5679143.499999484
 30
0.0
  0
POINT
  5
4EA
330
16
100
AcDbEntity
  8
0
100
AcDbPoint
 10
8396276.500002944
 20
5679139.219999484
 30
0.0
  0
POINT
  5
4EB
330
16
100
AcDbEntity
  8
0
100
AcDbPoint
 10
8396285.540002944
 20
5679136.349999481
 30
0.0
  0
POINT
  5
4EC
330
16
100
AcDbEntity
  8
0
100
AcDbPoint
 10
8396326.640002948
 20
5679126.559999483
 30
0.0
  0
POINT
  5
4ED
330
16
100
AcDbEntity
  8
0
100
AcDbPoint
 10
8396322.880002948
 20
5679108.309999485
 30
0.0
  0
POINT
  5
4EE
330
16
100
AcDbEntity
  8
0
100
AcDbPoint
 10
8396305.470002948
 20
5679112.029999483
 30
0.0
  0
POINT
  5
4EF
330
16
100
AcDbEntity
  8
0
100
AcDbPoint
 10
8396271.360002943
 20
5679120.219999481
 30
0.0
  0
POINT
  5
4F0
330
16
100
AcDbEntity
  8
0
100
AcDbPoint
 10
8396220.610002941
 20
5679149.709999484
 30
0.0
  0
POINT
  5
4F1
330
16
100
AcDbEntity
  8
0
100
AcDbPoint
 10
8396181.390002942
 20
5679133.969999482
 30
0.0
  0
POINT
  5
4F2
330
16
100
AcDbEntity
  8
0
100
AcDbPoint
 10
8396176.590002939
 20
5679133.749999481
 30
0.0
  0
POINT
  5
4F3
330
16
100
AcDbEntity
  8
0
100
AcDbPoint
 10
8396151.200002934
 20
5679132.619999485
 30
0.0
  0
POINT
  5
4F4
330
16
100
AcDbEntity
  8
0
100
AcDbPoint
 10
8396151.560002937
 20
5679124.829999481
 30
0.0
  0
POINT
  5
4F5
330
16
100
AcDbEntity
  8
0
100
AcDbPoint
 10
8396239.220002941
 20
5679008.529999483
 30
0.0
  0
POINT
  5
4F6
330
16
100
AcDbEntity
  8
0
100
AcDbPoint
 10
8396144.140002938
 20
5679119.679999482
 30
0.0
  0
POINT
  5
4F7
330
16
100
AcDbEntity
  8
0
100
AcDbPoint
 10
8396130.410002935
 20
5679110.119999482
 30
0.0
  0
POINT
  5
4F8
330
16
100
AcDbEntity
  8
0
100
AcDbPoint
 10
8396117.090002931
 20
5679106.219999481
 30
0.0
  0
POINT
  5
4F9
330
16
100
AcDbEntity
  8
0
100
AcDbPoint
 10
8396042.19000293
 20
5679102.649999481
 30
0.0
  0
POINT
  5
4FA
330
16
100
AcDbEntity
  8
0
100
AcDbPoint
 10
8396027.500002931
 20
5679101.939999482
 30
0.0
  0
POINT
  5
4FB
330
16
100
AcDbEntity
  8
0
100
AcDbPoint
 10
8396030.97000293
 20
5679091.849999481
 30
0.0
  0
POINT
  5
4FC
330
16
100
AcDbEntity
  8
0
100
AcDbPoint
 10
8396035.65000293
 20
5679073.719999482
 30
0.0
  0
POINT
  5
4FD
330
16
100
AcDbEntity
  8
0
100
AcDbPoint
 10
8396037.64000293
 20
5679065.999999478
 30
0.0
  0
POINT
  5
4FE
330
16
100
AcDbEntity
  8
0
100
AcDbPoint
 10
8396056.920002932
 20
5678991.25999948
 30
0.0
  0
POINT
  5
4FF
330
16
100
AcDbEntity
  8
0
100
AcDbPoint
 10
8396075.040002932
 20
5678985.599999481
 30
0.0
  0
POINT
  5
500
330
16
100
AcDbEntity
  8
0
100
AcDbPoint
 10
8396101.740002935
 20
5678977.239999482
 30
0.0
  0
POINT
  5
501
330
16
100
AcDbEntity
  8
0
100
AcDbPoint
 10
8396104.230002936
 20
5678976.459999478
 30
0.0
  0
POINT
  5
502
330
16
100
AcDbEntity
  8
0
100
AcDbPoint
 10
8396143.200002937
 20
5679132.259999481
 30
0.0
  0
POINT
  5
503
330
16
100
AcDbEntity
  8
0
100
AcDbPoint
 10
8396141.760002935
 20
5679135.769999479
 30
0.0
  0
POINT
  5
504
330
16
100
AcDbEntity
  8
0
100
AcDbPoint
 10
8396140.100002934
 20
5679139.84999948
 30
0.0
  0
POINT
  5
505
330
16
100
AcDbEntity
  8
0
100
AcDbPoint
 10
8396137.180002936
 20
5679148.099999481
 30
0.0
  0
POINT
  5
506
330
16
100
AcDbEntity
  8
0
100
AcDbPoint
 10
8396131.230002936
 20
5679161.59999948
 30
0.0
  0
POINT
  5
507
330
16
100
AcDbEntity
  8
0
100
AcDbPoint
 10
8396127.120002935
 20
5679171.66999948
 30
0.0
  0
POINT
  5
508
330
16
100
AcDbEntity
  8
0
100
AcDbPoint
 10
8396111.990002935
 20
5679170.899999482
 30
0.0
  0
POINT
  5
509
330
16
100
AcDbEntity
  8
0
100
AcDbPoint
 10
8396108.460002935
 20
5679174.079999482
 30
0.0
  0
POINT
  5
50A
330
16
100
AcDbEntity
  8
0
100
AcDbPoint
 10
8396043.490002931
 20
5679172.029999481
 30
0.0
  0
POINT
  5
50B
330
16
100
AcDbEntity
  8
0
100
AcDbPoint
 10
8396039.820002931
 20
5679171.919999482
 30
0.0
  0
POINT
  5
50C
330
16
100
AcDbEntity
  8
0
100
AcDbPoint
 10
8396037.330002929
 20
5679171.82999948
 30
0.0
  0
POINT
  5
50D
330
16
100
AcDbEntity
  8
0
100
AcDbPoint
 10
8396031.620002929
 20
5679169.799999479
 30
0.0
  0
POINT
  5
50E
330
16
100
AcDbEntity
  8
0
100
AcDbPoint
 10
8396015.190002925
 20
5679138.879999481
 30
0.0
  0
POINT
  5
50F
330
16
100
AcDbEntity
  8
0
100
AcDbPoint
 10
8396039.06000293
 20
5679126.599999481
 30
0.0
  0
POINT
  5
510
330
16
100
AcDbEntity
  8
0
100
AcDbPoint
 10
8396204.40000294
 20
5679171.099999481
 30
0.0
  0
POINT
  5
511
330
16
100
AcDbEntity
  8
0
100
AcDbPoint
 10
8396203.91000294
 20
5679184.729999482
 30
0.0
  0
POINT
  5
512
330
16
100
AcDbEntity
  8
0
100
AcDbPoint
 10
8396163.890002938
 20
5679182.659999484
 30
0.0
  0
POINT
  5
513
330
16
100
AcDbEntity
  8
0
100
AcDbPoint
 10
8396156.780002936
 20
5679182.239999481
 30
0.0
  0
POINT
  5
514
330
16
100
AcDbEntity
  8
0
100
AcDbPoint
 10
8396149.140002936
 20
5679177.779999482
 30
0.0
  0
POINT
  5
515
330
16
100
AcDbEntity
  8
0
100
AcDbPoint
 10
8396236.480002942
 20
5679168.119999484
 30
0.0
  0
POINT
  5
516
330
16
100
AcDbEntity
  8
0
100
AcDbPoint
 10
8396227.690002941
 20
5679172.649999485
 30
0.0
  0
POINT
  5
517
330
16
100
AcDbEntity
  8
0
100
AcDbPoint
 10
8396467.380002956
 20
5679105.629999485
 30
0.0
  0
POINT
  5
518
330
16
100
AcDbEntity
  8
0
100
AcDbPoint
 10
8396466.990002958
 20
5679107.459999484
 30
0.0
  0
POINT
  5
519
330
16
100
AcDbEntity
  8
0
100
AcDbPoint
 10
8396414.730002952
 20
5679134.499999483
 30
0.0
  0
POINT
  5
51A
330
16
100
AcDbEntity
  8
0
100
AcDbPoint
 10
8396391.200002948
 20
5679140.029999486
 30
0.0
  0
POINT
  5
51B
330
16
100
AcDbEntity
  8
0
100
AcDbPoint
 10
8396387.020002949
 20
5679141.389999482
 30
0.0
  0
POINT
  5
51C
330
16
100
AcDbEntity
  8
0
100
AcDbPoint
 10
8396381.560002954
 20
5679143.709999484
 30
0.0
  0
POINT
  5
51D
330
16
100
AcDbEntity
  8
0
100
AcDbPoint
 10
8396338.730002948
 20
5679165.42999948
 30
0.0
  0
POINT
  5
51E
330
16
100
AcDbEntity
  8
0
100
AcDbPoint
 10
8396312.610002944
 20
5679173.74999948
 30
0.0
  0
POINT
  5
521
330
16
100
AcDbEntity
  8
0
100
AcDbPoint
 10
8396237.560002941
 20
5679188.449999482
 30
0.0
  0
POINT
  5
522
330
16
100
AcDbEntity
  8
0
100
AcDbPoint
 10
8396477.730002956
 20
5679095.599999484
 30
0.0
  0
POINT
  5
523
330
16
100
AcDbEntity
  8
0
100
AcDbPoint
 10
8396465.340002956
 20
5679101.279999485
 30
0.0
  0
POINT
  5
524
330
16
100
AcDbEntity
  8
0
100
AcDbPoint
 10
8396466.210002959
 20
5679102.799999485
 30
0.0
  0
POINT
  5
529
330
16
100
AcDbEntity
  8
0
100
AcDbPoint
 10
8396231.300002943
 20
5679194.759999485
 30
0.0
  0
POINT
  5
52A
330
16
100
AcDbEntity
  8
0
100
AcDbPoint
 10
8396163.390002937
 20
5679191.639999483
 30
0.0
  0
POINT
  5
541
330
16
100
AcDbEntity
  8
0
100
AcDbPoint
 10
8396559.370002961
 20
5679010.539999484
 30
0.0
  0
POINT
  5
542
330
16
100
AcDbEntity
  8
0
100
AcDbPoint
 10
8396594.900002963
 20
5679056.589999484
 30
0.0
  0
POINT
  5
543
330
16
100
AcDbEntity
  8
0
100
AcDbPoint
 10
8396608.310002966
 20
5679062.299999485
 30
0.0
  0
POINT
  5
544
330
16
100
AcDbEntity
  8
0
100
AcDbPoint
 10
8396617.230002966
 20
5679079.099999484
 30
0.0
  0
POINT
  5
545
330
16
100
AcDbEntity
  8
0
100
AcDbPoint
 10
8396613.730002966
 20
5679100.249999484
 30
0.0
  0
POINT
  5
546
330
16
100
AcDbEntity
  8
0
100
AcDbPoint
 10
8396613.070002965
 20
5679104.249999485
 30
0.0
  0
POINT
  5
547
330
16
100
AcDbEntity
  8
0
100
AcDbPoint
 10
8396603.320002963
 20
5679109.349999484
 30
0.0
  0
POINT
  5
548
330
16
100
AcDbEntity
  8
0
100
AcDbPoint
 10
8396589.800002963
 20
5679116.409999486
 30
0.0
  0
POINT
  5
549
330
16
100
AcDbEntity
  8
0
100
AcDbPoint
 10
8396530.220002961
 20
5679147.529999483
 30
0.0
  0
POINT
  5
54A
330
16
100
AcDbEntity
  8
0
100
AcDbPoint
 10
8396528.38000296
 20
5679148.489999485
 30
0.0
  0
POINT
  5
54B
330
16
100
AcDbEntity
  8
0
100
AcDbPoint
 10
8396513.110002954
 20
5679121.799999484
 30
0.0
  0
POINT
  5
54C
330
16
100
AcDbEntity
  8
0
100
AcDbPoint
 10
8396505.110002957
 20
5679126.169999485
 30
0.0
  0
POINT
  5
54D
330
16
100
AcDbEntity
  8
0
100
AcDbPoint
 10
8396487.730002956
 20
5679114.649999486
 30
0.0
  0
POINT
  5
54E
330
16
100
AcDbEntity
  8
0
100
AcDbPoint
 10
8396256.510002945
 20
5678981.70999948
 30
0.0
  0
POINT
  5
54F
330
16
100
AcDbEntity
  8
0
100
AcDbPoint
 10
8396227.980002944
 20
5678987.029999483
 30
0.0
  0
POINT
  5
550
330
16
100
AcDbEntity
  8
0
100
AcDbPoint
 10
8396193.690002938
 20
5678959.909999481
 30
0.0
  0
POINT
  5
551
330
16
100
AcDbEntity
  8
0
100
AcDbPoint
 10
8396179.530002937
 20
5678908.059999481
 30
0.0
  0
POINT
  5
552
330
16
100
AcDbEntity
  8
0
100
AcDbPoint
 10
8396232.190002942
 20
5678894.54999948
 30
0.0
  0
POINT
  5
553
330
16
100
AcDbEntity
  8
0
100
AcDbPoint
 10
8396233.990002944
 20
5678894.409999482
 30
0.0
  0
POINT
  5
554
330
16
100
AcDbEntity
  8
0
100
AcDbPoint
 10
8396296.820002948
 20
5678892.799999483
 30
0.0
  0
POINT
  5
555
330
16
100
AcDbEntity
  8
0
100
AcDbPoint
 10
8396314.420002946
 20
5678895.339999481
 30
0.0
  0
POINT
  5
556
330
16
100
AcDbEntity
  8
0
100
AcDbPoint
 10
8396317.820002947
 20
5678899.279999483
 30
0.0
  0
POINT
  5
557
330
16
100
AcDbEntity
  8
0
100
AcDbPoint
 10
8396278.450002947
 20
5678890.819999479
 30
0.0
  0
POINT
  5
558
330
16
100
AcDbEntity
  8
0
100
AcDbPoint
 10
8396320.290002947
 20
5678902.159999482
 30
0.0
  0
POINT
  5
559
330
16
100
AcDbEntity
  8
0
100
AcDbPoint
 10
8396321.770002948
 20
5678906.939999483
 30
0.0
  0
POINT
  5
55A
330
16
100
AcDbEntity
  8
0
100
AcDbPoint
 10
8396326.55000295
 20
5678905.459999481
 30
0.0
  0
POINT
  5
55B
330
16
100
AcDbEntity
  8
0
100
AcDbPoint
 10
8396325.070002946
 20
5678900.689999482
 30
0.0
  0
POINT
  5
55C
330
16
100
AcDbEntity
  8
0
100
AcDbPoint
 10
8396332.260002948
 20
5678898.609999484
 30
0.0
  0
POINT
  5
55D
330
16
100
AcDbEntity
  8
0
100
AcDbPoint
 10
8396354.220002949
 20
5678902.32999948
 30
0.0
  0
POINT
  5
55E
330
16
100
AcDbEntity
  8
0
100
AcDbPoint
 10
8396359.930002949
 20
5678902.229999482
 30
0.0
  0
POINT
  5
55F
330
16
100
AcDbEntity
  8
0
100
AcDbPoint
 10
8396369.90000295
 20
5678900.399999483
 30
0.0
  0
POINT
  5
560
330
16
100
AcDbEntity
  8
0
100
AcDbPoint
 10
8396375.12000295
 20
5678897.759999481
 30
0.0
  0
POINT
  5
561
330
16
100
AcDbEntity
  8
0
100
AcDbPoint
 10
8396379.03000295
 20
5678893.939999482
 30
0.0
  0
POINT
  5
562
330
16
100
AcDbEntity
  8
0
100
AcDbPoint
 10
8396379.490002953
 20
5678893.419999485
 30
0.0
  0
POINT
  5
563
330
16
100
AcDbEntity
  8
0
100
AcDbPoint
 10
8396406.080002956
 20
5678863.129999484
 30
0.0
  0
POINT
  5
564
330
16
100
AcDbEntity
  8
0
100
AcDbPoint
 10
8396441.600002956
 20
5678853.139999482
 30
0.0
  0
POINT
  5
565
330
16
100
AcDbEntity
  8
0
100
AcDbPoint
 10
8396443.330002956
 20
5678859.989999483
 30
0.0
  0
POINT
  5
566
330
16
100
AcDbEntity
  8
0
100
AcDbPoint
 10
8396464.350002956
 20
5678854.369999483
 30
0.0
  0
POINT
  5
567
330
16
100
AcDbEntity
  8
0
100
AcDbPoint
 10
8396464.770002955
 20
5678856.069999483
 30
0.0
  0
POINT
  5
5E1
330
16
100
AcDbEntity
  8
0
100
AcDbPoint
 10
8396314.770002945
 20
5679177.179999481
 30
0.0
  0
POINT
  5
5E2
330
16
100
AcDbEntity
  8
0
100
AcDbPoint
 10
8396340.690002945
 20
5679169.289999484
 30
0.0
  0
POINT
  5
5E3
330
16
100
AcDbEntity
  8
0
100
AcDbPoint
 10
8396383.420002951
 20
5679147.399999485
 30
0.0
  0
POINT
  5
5E4
330
16
100
AcDbEntity
  8
0
100
AcDbPoint
 10
8396388.62000295
 20
5679145.209999485
 30
0.0
  0
POINT
  5
5E5
330
16
100
AcDbEntity
  8
0
100
AcDbPoint
 10
8396392.450002949
 20
5679143.999999483
 30
0.0
  0
POINT
  5
5E6
330
16
100
AcDbEntity
  8
0
100
AcDbPoint
 10
8396412.790002949
 20
5679138.979999484
 30
0.0
  0
POINT
  5
5E7
330
16
100
AcDbEntity
  8
0
100
AcDbPoint
 10
8396416.490002952
 20
5679137.889999481
 30
0.0
  0
POINT
  5
5E8
330
16
100
AcDbEntity
  8
0
100
AcDbPoint
 10
8396462.710002959
 20
5679113.989999483
 30
0.0
  0
POINT
  5
5E9
330
16
100
AcDbEntity
  8
0
100
AcDbPoint
 10
8396464.250002956
 20
5679111.359999483
 30
0.0
  0
POINT
  5
5EA
330
16
100
AcDbEntity
  8
0
100
AcDbPoint
 10
8396466.910002956
 20
5679107.809999484
 30
0.0
  0
POINT
  5
5EB
330
16
100
AcDbEntity
  8
0
100
AcDbPoint
 10
8396521.220002959
 20
5679151.549999483
 30
0.0
  0
POINT
  5
5F9
330
16
100
AcDbEntity
  8
0
100
AcDbPoint
 10
8396532.620002961
 20
5679152.149999485
 30
0.0
  0
POINT
  5
5FA
330
16
100
AcDbEntity
  8
0
100
AcDbPoint
 10
8396567.80000296
 20
5679138.269999486
 30
0.0
  0
POINT
  5
5FB
330
16
100
AcDbEntity
  8
0
100
AcDbPoint
 10
8396570.410002961
 20
5679137.239999485
 30
0.0
  0
POINT
  5
5FC
330
16
100
AcDbEntity
  8
0
100
AcDbPoint
 10
8396590.730002962
 20
5679129.219999484
 30
0.0
  0
POINT
  5
5FD
330
16
100
AcDbEntity
  8
0
100
AcDbPoint
 10
8396594.580002963
 20
5679127.589999485
 30
0.0
  0
POINT
  5
5FE
330
16
100
AcDbEntity
  8
0
100
AcDbPoint
 10
8396634.420002964
 20
5679110.289999484
 30
0.0
  0
POINT
  5
614
330
16
100
AcDbEntity
  8
0
100
AcDbPoint
 10
8396620.080002966
 20
5679003.869999485
 30
0.0
  0
POINT
  5
615
330
16
100
AcDbEntity
  8
0
100
AcDbPoint
 10
8396623.000002966
 20
5679002.409999488
 30
0.0
  0
POINT
  5
616
330
16
100
AcDbEntity
  8
0
100
AcDbPoint
 10
8396653.140002966
 20
5678985.359999485
 30
0.0
  0
POINT
  5
617
330
16
100
AcDbEntity
  8
0
100
AcDbPoint
 10
8396665.870002969
 20
5678978.899999487
 30
0.0
  0
POINT
  5
618
330
16
100
AcDbEntity
  8
0
100
AcDbPoint
 10
8396683.580002969
 20
5678970.669999483
 30
0.0
  0
POINT
  5
619
330
16
100
AcDbEntity
  8
0
100
AcDbPoint
 10
8396688.02000297
 20
5678979.969999487
 30
0.0
  0
POINT
  5
61A
330
16
100
AcDbEntity
  8
0
100
AcDbPoint
 10
8396692.280002969
 20
5678989.129999488
 30
0.0
  0
POINT
  5
61B
330
16
100
AcDbEntity
  8
0
100
AcDbPoint
 10
8396729.890002971
 20
5679005.589999485
 30
0.0
  0
POINT
  5
61C
330
16
100
AcDbEntity
  8
0
100
AcDbPoint
 10
8396707.690002971
 20
5679051.979999488
 30
0.0
  0
POINT
  5
61D
330
16
100
AcDbEntity
  8
0
100
AcDbPoint
 10
8396686.670002971
 20
5679063.749999484
 30
0.0
  0
POINT
  5
61E
330
16
100
AcDbEntity
  8
0
100
AcDbPoint
 10
8396688.240002969
 20
5679071.319999487
 30
0.0
  0
POINT
  5
61F
330
16
100
AcDbEntity
  8
0
100
AcDbPoint
 10
8396691.39000297
 20
5679078.989999488
 30
0.0
  0
POINT
  5
620
330
16
100
AcDbEntity
  8
0
100
AcDbPoint
 10
8396692.87000297
 20
5679082.619999486
 30
0.0
  0
POINT
  5
621
330
16
100
AcDbEntity
  8
0
100
AcDbPoint
 10
8396705.08000297
 20
5679077.019999485
 30
0.0
  0
POINT
  5
622
330
16
100
AcDbEntity
  8
0
100
AcDbPoint
 10
8396733.690002971
 20
5679135.679999484
 30
0.0
  0
POINT
  5
625
330
16
100
AcDbEntity
  8
0
100
AcDbPoint
 10
8396660.080002964
 20
5679099.019999486
 30
0.0
  0
POINT
  5
626
330
16
100
AcDbEntity
  8
0
100
AcDbPoint
 10
8396674.470002967
 20
5679090.549999484
 30
0.0
  0
POINT
  5
627
330
16
100
AcDbEntity
  8
0
100
AcDbPoint
 10
8396664.690002968
 20
5679077.499999488
 30
0.0
  0
POINT
  5
628
330
16
100
AcDbEntity
  8
0
100
AcDbPoint
 10
8396663.440002967
 20
5679078.249999484
 30
0.0
  0
POINT
  5
629
330
16
100
AcDbEntity
  8
0
100
AcDbPoint
 10
8396680.31000297
 20
5679068.139999484
 30
0.0
  0
POINT
  5
62A
330
16
100
AcDbEntity
  8
0
100
AcDbPoint
 10
8396671.590002966
 20
5679073.369999485
 30
0.0
  0
POINT
  5
62B
330
16
100
AcDbEntity
  8
0
100
AcDbPoint
 10
8396681.410002969
 20
5679086.469999488
 30
0.0
  0
POINT
  5
62C
330
16
100
AcDbEntity
  8
0
100
AcDbPoint
 10
8396690.410002969
 20
5679081.159999485
 30
0.0
  0
POINT
  5
62D
330
16
100
AcDbEntity
  8
0
100
AcDbPoint
 10
8396687.830002969
 20
5679075.489999486
 30
0.0
  0
POINT
  5
62E
330
16
100
AcDbEntity
  8
0
100
AcDbPoint
 10
8396686.730002969
 20
5679072.889999485
 30
0.0
  0
POINT
  5
62F
330
16
100
AcDbEntity
  8
0
100
AcDbPoint
 10
8396684.870002967
 20
5679065.619999488
 30
0.0
  0
POINT
  5
631
330
16
100
AcDbEntity
  8
0
100
AcDbPoint
 10
8396658.060002966
 20
5678961.109999484
 30
0.0
  0
POINT
  5
632
330
16
100
AcDbEntity
  8
0
100
AcDbPoint
 10
8396642.010002967
 20
5678969.719999485
 30
0.0
  0
POINT
  5
633
330
16
100
AcDbEntity
  8
0
100
AcDbPoint
 10
8396609.800002966
 20
5678985.709999484
 30
0.0
  0
POINT
  5
634
330
16
100
AcDbEntity
  8
0
100
AcDbPoint
 10
8396653.960002968
 20
5678925.649999485
 30
0.0
  0
POINT
  5
635
330
16
100
AcDbEntity
  8
0
100
AcDbPoint
 10
8396673.190002967
 20
5678916.849999484
 30
0.0
  0
POINT
  5
636
330
16
100
AcDbEntity
  8
0
100
AcDbPoint
 10
8396667.900002968
 20
5678937.829999484
 30
0.0
  0
POINT
  5
637
330
16
100
AcDbEntity
  8
0
100
AcDbPoint
 10
8396675.31000297
 20
5678953.349999484
 30
0.0
  0
POINT
  5
638
330
16
100
AcDbEntity
  8
0
100
AcDbPoint
 10
8396673.930002968
 20
5678913.919999488
 30
0.0
  0
POINT
  5
639
330
16
100
AcDbEntity
  8
0
100
AcDbPoint
 10
8396123.090002935
 20
5678954.079999479
 30
0.0
  0
POINT
  5
63A
330
16
100
AcDbEntity
  8
0
100
AcDbPoint
 10
8396113.770002935
 20
5678940.029999481
 30
0.0
  0
POINT
  5
63B
330
16
100
AcDbEntity
  8
0
100
AcDbPoint
 10
8396180.110002937
 20
5678925.45999948
 30
0.0
  0
POINT
  5
63C
330
16
100
AcDbEntity
  8
0
100
AcDbPoint
 10
8396175.260002939
 20
5678907.459999481
 30
0.0
  0
POINT
  5
63D
330
16
100
AcDbEntity
  8
0
100
AcDbPoint
 10
8396179.09000294
 20
5678906.469999481
 30
0.0
  0
POINT
  5
63E
330
16
100
AcDbEntity
  8
0
100
AcDbPoint
 10
8396076.060002934
 20
5678933.089999481
 30
0.0
  0
POINT
  5
63F
330
16
100
AcDbEntity
  8
0
100
AcDbPoint
 10
8396089.450002934
 20
5678953.719999481
 30
0.0
  0
POINT
  5
640
330
16
100
AcDbEntity
  8
0
100
AcDbPoint
 10
8396099.590002934
 20
5678968.669999481
 30
0.0
  0
POINT
  5
641
330
16
100
AcDbEntity
  8
0
100
AcDbPoint
 10
8396099.160002936
 20
5678968.95999948
 30
0.0
  0
POINT
  5
642
330
16
100
AcDbEntity
  8
0
100
AcDbPoint
 10
8396097.110002934
 20
5678970.399999482
 30
0.0
  0
POINT
  5
643
330
16
100
AcDbEntity
  8
0
100
AcDbPoint
 10
8396072.630002935
 20
5678933.979999482
 30
0.0
  0
POINT
  5
644
330
16
100
AcDbEntity
  8
0
100
AcDbPoint
 10
8396113.030002934
 20
5678939.189999481
 30
0.0
  0
POINT
  5
645
330
16
100
AcDbEntity
  8
0
100
AcDbPoint
 10
8396051.520002931
 20
5678939.429999481
 30
0.0
  0
POINT
  5
646
330
16
100
AcDbEntity
  8
0
100
AcDbPoint
 10
8396053.000002932
 20
5678953.61999948
 30
0.0
  0
POINT
  5
647
330
16
100
AcDbEntity
  8
0
100
AcDbPoint
 10
8395950.420002924
 20
5679129.479999479
 30
0.0
  0
POINT
  5
648
330
16
100
AcDbEntity
  8
0
100
AcDbPoint
 10
8395961.700002924
 20
5679067.999999479
 30
0.0
  0
POINT
  5
649
330
16
100
AcDbEntity
  8
0
100
AcDbPoint
 10
8395981.020002926
 20
5678968.849999481
 30
0.0
  0
POINT
  5
64A
330
16
100
AcDbEntity
  8
0
100
AcDbPoint
 10
8395985.790002926
 20
5678943.899999482
 30
0.0
  0
POINT
  5
64B
330
16
100
AcDbEntity
  8
0
100
AcDbPoint
 10
8395989.100002926
 20
5678926.53999948
 30
0.0
  0
POINT
  5
64C
330
16
100
AcDbEntity
  8
0
100
AcDbPoint
 10
8395997.94000293
 20
5678880.25999948
 30
0.0
  0
POINT
  5
64D
330
16
100
AcDbEntity
  8
0
100
AcDbPoint
 10
8395990.720002927
 20
5678855.88999948
 30
0.0
  0
POINT
  5
64E
330
16
100
AcDbEntity
  8
0
100
AcDbPoint
 10
8395987.88000293
 20
5678846.289999482
 30
0.0
  0
POINT
  5
64F
330
16
100
AcDbEntity
  8
0
100
AcDbPoint
 10
8395987.910002927
 20
5678844.67999948
 30
0.0
  0
POINT
  5
650
330
16
100
AcDbEntity
  8
0
100
AcDbPoint
 10
8395988.140002927
 20
5678834.179999479
 30
0.0
  0
POINT
  5
651
330
16
100
AcDbEntity
  8
0
100
AcDbPoint
 10
8395988.060002927
 20
5678831.93999948
 30
0.0
  0
POINT
  5
652
330
16
100
AcDbEntity
  8
0
100
AcDbPoint
 10
8395988.250002929
 20
5678830.949999478
 30
0.0
  0
POINT
  5
653
330
16
100
AcDbEntity
  8
0
100
AcDbPoint
 10
8395997.640002931
 20
5678829.899999482
 30
0.0
  0
POINT
  5
654
330
16
100
AcDbEntity
  8
0
100
AcDbPoint
 10
8396017.190002929
 20
5678826.80999948
 30
0.0
  0
POINT
  5
655
330
16
100
AcDbEntity
  8
0
100
AcDbPoint
 10
8396034.990002933
 20
5678820.74999948
 30
0.0
  0
POINT
  5
656
330
16
100
AcDbEntity
  8
0
100
AcDbPoint
 10
8396037.220002931
 20
5678820.089999478
 30
0.0
  0
POINT
  5
657
330
16
100
AcDbEntity
  8
0
100
AcDbPoint
 10
8396039.530002932
 20
5678820.289999479
 30
0.0
  0
POINT
  5
658
330
16
100
AcDbEntity
  8
0
100
AcDbPoint
 10
8396077.030002933
 20
5678814.119999481
 30
0.0
  0
POINT
  5
659
330
16
100
AcDbEntity
  8
0
100
AcDbPoint
 10
8396085.210002935
 20
5678812.449999481
 30
0.0
  0
POINT
  5
65A
330
16
100
AcDbEntity
  8
0
100
AcDbPoint
 10
8396085.940002933
 20
5678823.069999481
 30
0.0
  0
POINT
  5
65B
330
16
100
AcDbEntity
  8
0
100
AcDbPoint
 10
8396082.960002935
 20
5678824.229999482
 30
0.0
  0
POINT
  5
65C
330
16
100
AcDbEntity
  8
0
100
AcDbPoint
 10
8396066.010002931
 20
5678826.859999482
 30
0.0
  0
POINT
  5
65D
330
16
100
AcDbEntity
  8
0
100
AcDbPoint
 10
8396047.270002933
 20
5678891.149999482
 30
0.0
  0
POINT
  5
65E
330
16
100
AcDbEntity
  8
0
100
AcDbPoint
 10
8396043.650002932
 20
5678910.769999482
 30
0.0
  0
POINT
  5
65F
330
16
100
AcDbEntity
  8
0
100
AcDbPoint
 10
8396048.930002931
 20
5678930.01999948
 30
0.0
  0
POINT
  5
660
330
16
100
AcDbEntity
  8
0
100
AcDbPoint
 10
8396018.890002928
 20
5679126.85999948
 30
0.0
  0
POINT
  5
661
330
16
100
AcDbEntity
  8
0
100
AcDbPoint
 10
8396016.780002925
 20
5679131.449999481
 30
0.0
  0
POINT
  5
662
330
16
100
AcDbEntity
  8
0
100
AcDbPoint
 10
8395993.100002925
 20
5679121.729999482
 30
0.0
  0
POINT
  5
663
330
16
100
AcDbEntity
  8
0
100
AcDbPoint
 10
8395998.110002926
 20
5679097.239999481
 30
0.0
  0
POINT
  5
664
330
16
100
AcDbEntity
  8
0
100
AcDbPoint
 10
8395989.250002926
 20
5679095.50999948
 30
0.0
  0
POINT
  5
665
330
16
100
AcDbEntity
  8
0
100
AcDbPoint
 10
8395988.460002927
 20
5679099.54999948
 30
0.0
  0
POINT
  5
666
330
16
100
AcDbEntity
  8
0
100
AcDbPoint
 10
8395973.440002926
 20
5679096.609999482
 30
0.0
  0
POINT
  5
667
330
16
100
AcDbEntity
  8
0
100
AcDbPoint
 10
8395966.820002927
 20
5679128.419999479
 30
0.0
  0
POINT
  5
668
330
16
100
AcDbEntity
  8
0
100
AcDbPoint
 10
8395988.060002927
 20
5679228.969999483
 30
0.0
  0
POINT
  5
669
330
16
100
AcDbEntity
  8
0
100
AcDbPoint
 10
8395994.220002927
 20
5679180.539999481
 30
0.0
  0
POINT
  5
66C
330
16
100
AcDbEntity
  8
0
100
AcDbPoint
 10
8395992.420002926
 20
5679247.679999483
 30
0.0
  0
POINT
  5
66D
330
16
100
AcDbEntity
  8
0
100
AcDbPoint
 10
8395931.890002923
 20
5679223.769999481
 30
0.0
  0
POINT
  5
66E
330
16
100
AcDbEntity
  8
0
100
AcDbPoint
 10
8395933.110002923
 20
5679217.67999948
 30
0.0
  0
POINT
  5
66F
330
16
100
AcDbEntity
  8
0
100
AcDbPoint
 10
8395945.650002925
 20
5679155.079999478
 30
0.0
  0
POINT
  5
670
330
16
100
AcDbEntity
  8
0
100
AcDbPoint
 10
8395946.430002926
 20
5679151.209999478
 30
0.0
  0
POINT
  5
671
330
16
100
AcDbEntity
  8
0
100
AcDbPoint
 10
8395962.160002925
 20
5679235.689999481
 30
0.0
  0
POINT
  5
679
330
16
100
AcDbEntity
  8
0
100
AcDbPoint
 10
8396101.370002934
 20
5678915.729999479
 30
0.0
  0
POINT
  5
680
330
16
100
AcDbEntity
  8
0
100
AcDbPoint
 10
8396249.760002945
 20
5678879.699999483
 30
0.0
  0
POINT
  5
681
330
16
100
AcDbEntity
  8
0
100
AcDbPoint
 10
8396256.670002943
 20
5678878.71999948
 30
0.0
  0
POINT
  5
682
330
16
100
AcDbEntity
  8
0
100
AcDbPoint
 10
8396266.140002946
 20
5678878.099999479
 30
0.0
  0
POINT
  5
683
330
16
100
AcDbEntity
  8
0
100
AcDbPoint
 10
8396276.690002943
 20
5678878.019999481
 30
0.0
  0
POINT
  5
684
330
16
100
AcDbEntity
  8
0
100
AcDbPoint
 10
8396278.740002946
 20
5678877.979999482
 30
0.0
  0
POINT
  5
685
330
16
100
AcDbEntity
  8
0
100
AcDbPoint
 10
8396287.310002945
 20
5678878.479999482
 30
0.0
  0
POINT
  5
686
330
16
100
AcDbEntity
  8
0
100
AcDbPoint
 10
8396316.360002948
 20
5678882.759999485
 30
0.0
  0
POINT
  5
687
330
16
100
AcDbEntity
  8
0
100
AcDbPoint
 10
8396317.380002949
 20
5678882.929999483
 30
0.0
  0
POINT
  5
688
330
16
100
AcDbEntity
  8
0
100
AcDbPoint
 10
8396319.910002947
 20
5678883.309999481
 30
0.0
  0
POINT
  5
689
330
16
100
AcDbEntity
  8
0
100
AcDbPoint
 10
8396323.800002949
 20
5678883.879999481
 30
0.0
  0
POINT
  5
68A
330
16
100
AcDbEntity
  8
0
100
AcDbPoint
 10
8396361.77000295
 20
5678888.149999482
 30
0.0
  0
POINT
  5
68B
330
16
100
AcDbEntity
  8
0
100
AcDbPoint
 10
8396367.600002951
 20
5678885.989999484
 30
0.0
  0
POINT
  5
68C
330
16
100
AcDbEntity
  8
0
100
AcDbPoint
 10
8396369.380002949
 20
5678884.999999484
 30
0.0
  0
POINT
  5
68D
330
16
100
AcDbEntity
  8
0
100
AcDbPoint
 10
8396371.58000295
 20
5678881.819999483
 30
0.0
  0
POINT
  5
68E
330
16
100
AcDbEntity
  8
0
100
AcDbPoint
 10
8396380.080002952
 20
5678872.349999485
 30
0.0
  0
POINT
  5
68F
330
16
100
AcDbEntity
  8
0
100
AcDbPoint
 10
8396397.340002954
 20
5678853.299999483
 30
0.0
  0
POINT
  5
690
330
16
100
AcDbEntity
  8
0
100
AcDbPoint
 10
8396401.720002954
 20
5678848.399999483
 30
0.0
  0
POINT
  5
691
330
16
100
AcDbEntity
  8
0
100
AcDbPoint
 10
8396404.760002956
 20
5678845.389999485
 30
0.0
  0
POINT
  5
692
330
16
100
AcDbEntity
  8
0
100
AcDbPoint
 10
8396408.760002955
 20
5678839.62999948
 30
0.0
  0
POINT
  5
693
330
16
100
AcDbEntity
  8
0
100
AcDbPoint
 10
8396411.510002955
 20
5678834.369999484
 30
0.0
  0
POINT
  5
694
330
16
100
AcDbEntity
  8
0
100
AcDbPoint
 10
8396412.660002955
 20
5678828.279999481
 30
0.0
  0
POINT
  5
695
330
16
100
AcDbEntity
  8
0
100
AcDbPoint
 10
8396412.150002955
 20
5678817.369999482
 30
0.0
  0
POINT
  5
696
330
16
100
AcDbEntity
  8
0
100
AcDbPoint
 10
8396411.640002954
 20
5678814.049999483
 30
0.0
  0
POINT
  5
697
330
16
100
AcDbEntity
  8
0
100
AcDbPoint
 10
8396410.630002955
 20
5678811.259999482
 30
0.0
  0
POINT
  5
698
330
16
100
AcDbEntity
  8
0
100
AcDbPoint
 10
8396397.410002954
 20
5678760.989999481
 30
0.0
  0
POINT
  5
699
330
16
100
AcDbEntity
  8
0
100
AcDbPoint
 10
8396392.650002953
 20
5678742.899999482
 30
0.0
  0
POINT
  5
69A
330
16
100
AcDbEntity
  8
0
100
AcDbPoint
 10
8396404.220002953
 20
5678741.629999485
 30
0.0
  0
POINT
  5
69B
330
16
100
AcDbEntity
  8
0
100
AcDbPoint
 10
8396422.820002955
 20
5678814.479999482
 30
0.0
  0
POINT
  5
69C
330
16
100
AcDbEntity
  8
0
100
AcDbPoint
 10
8396423.820002954
 20
5678825.259999483
 30
0.0
  0
POINT
  5
69D
330
16
100
AcDbEntity
  8
0
100
AcDbPoint
 10
8396423.120002953
 20
5678831.219999481
 30
0.0
  0
POINT
  5
69E
330
16
100
AcDbEntity
  8
0
100
AcDbPoint
 10
8396421.750002954
 20
5678836.119999484
 30
0.0
  0
POINT
  5
69F
330
16
100
AcDbEntity
  8
0
100
AcDbPoint
 10
8396410.760002956
 20
5678854.649999485
 30
0.0
  0
POINT
  5
6A0
330
16
100
AcDbEntity
  8
0
100
AcDbPoint
 10
8396377.800002948
 20
5678891.769999482
 30
0.0
  0
POINT
  5
6A1
330
16
100
AcDbEntity
  8
0
100
AcDbPoint
 10
8396372.570002951
 20
5678895.609999482
 30
0.0
  0
POINT
  5
6A2
330
16
100
AcDbEntity
  8
0
100
AcDbPoint
 10
8396365.280002948
 20
5678898.41999948
 30
0.0
  0
POINT
  5
6A3
330
16
100
AcDbEntity
  8
0
100
AcDbPoint
 10
8396356.40000295
 20
5678899.689999483
 30
0.0
  0
POINT
  5
6A4
330
16
100
AcDbEntity
  8
0
100
AcDbPoint
 10
8396346.340002949
 20
5678899.08999948
 30
0.0
  0
POINT
  5
6A5
330
16
100
AcDbEntity
  8
0
100
AcDbPoint
 10
8396300.630002947
 20
5678891.279999482
 30
0.0
  0
POINT
  5
6A6
330
16
100
AcDbEntity
  8
0
100
AcDbPoint
 10
8396280.890002946
 20
5678889.569999482
 30
0.0
  0
POINT
  5
6A7
330
16
100
AcDbEntity
  8
0
100
AcDbPoint
 10
8396272.670002943
 20
5678889.12999948
 30
0.0
  0
POINT
  5
6A8
330
16
100
AcDbEntity
  8
0
100
AcDbPoint
 10
8396256.890002941
 20
5678890.039999481
 30
0.0
  0
POINT
  5
6A9
330
16
100
AcDbEntity
  8
0
100
AcDbPoint
 10
8396231.450002941
 20
5678892.939999482
 30
0.0
  0
POINT
  5
6AA
330
16
100
AcDbEntity
  8
0
100
AcDbPoint
 10
8396166.620002937
 20
5678909.699999482
 30
0.0
  0
POINT
  5
6AB
330
16
100
AcDbEntity
  8
0
100
AcDbPoint
 10
8396104.060002937
 20
5678925.85999948
 30
0.0
  0
POINT
  5
6AC
330
16
100
AcDbEntity
  8
0
100
AcDbPoint
 10
8396229.670002943
 20
5678880.779999483
 30
0.0
  0
POINT
  5
6AD
330
16
100
AcDbEntity
  8
0
100
AcDbPoint
 10
8396233.680002943
 20
5678879.689999481
 30
0.0
  0
POINT
  5
6AF
330
16
100
AcDbEntity
  8
0
100
AcDbPoint
 10
8396720.2
 20
5678703.5
 30
0.0
  0
POINT
  5
6B0
330
16
100
AcDbEntity
  8
0
100
AcDbPoint
 10
8396038.3
 20
5679094.599999998
 30
0.0
  0
POINT
  5
6B1
330
16
100
AcDbEntity
  8
0
100
AcDbPoint
 10
8396109.599999997
 20
5679097.899999999
 30
0.0
  0
POINT
  5
6B2
330
16
100
AcDbEntity
  8
0
100
AcDbPoint
 10
8396111.800000001
 20
5679053.799999999
 30
0.0
  0
POINT
  5
6B3
330
16
100
AcDbEntity
  8
0
100
AcDbPoint
 10
8396049.699999997
 20
5679049.799999999
 30
0.0
  0
POINT
  5
6B4
330
16
100
AcDbEntity
  8
0
100
AcDbPoint
 10
8396043.103528258
 20
5679044.820337501
 30
0.0
  0
POINT
  5
6B5
330
16
100
AcDbEntity
  8
0
100
AcDbPoint
 10
8396145.599999996
 20
5679050.099999999
 30
0.0
  0
POINT
  5
6B6
330
16
100
AcDbEntity
  8
0
100
AcDbPoint
 10
8396195.453947775
 20
5679051.077757801
 30
0.0
  0
POINT
  5
6B7
330
16
100
AcDbEntity
  8
0
100
AcDbPoint
 10
8396266.899999998
 20
5679037.299999999
 30
0.0
  0
POINT
  5
6B8
330
16
100
AcDbEntity
  8
0
100
AcDbPoint
 10
8396363.3
 20
5679010.399999998
 30
0.0
  0
POINT
  5
6B9
330
16
100
AcDbEntity
  8
0
100
AcDbPoint
 10
8396436.399999998
 20
5678989.799999999
 30
0.0
  0
POINT
  5
6BA
330
16
100
AcDbEntity
  8
0
100
AcDbPoint
 10
8396569.099999995
 20
5678937.199999998
 30
0.0
  0
POINT
  5
6BB
330
16
100
AcDbEntity
  8
0
100
AcDbPoint
 10
8396466.545313366
 20
5679035.905736601
 30
0.0
  0
POINT
  5
6BC
330
16
100
AcDbEntity
  8
0
100
AcDbPoint
 10
8396446.737041525
 20
5678985.702574343
 30
0.0
  0
POINT
  5
6BD
330
16
100
AcDbEntity
  8
0
100
AcDbPoint
 10
8396572.099999996
 20
5678941.599999999
 30
0.0
  0
POINT
  5
6BE
330
16
100
AcDbEntity
  8
0
100
AcDbPoint
 10
8396588.199999994
 20
5678971.399999999
 30
0.0
  0
POINT
  5
6BF
330
16
100
AcDbEntity
  8
0
100
AcDbPoint
 10
8396569.09242516
 20
5679005.043034135
 30
0.0
  0
POINT
  5
6C0
330
16
100
AcDbEntity
  8
0
100
AcDbPoint
 10
8396466.545313366
 20
5679035.905736601
 30
0.0
  0
POINT
  5
6C1
330
16
100
AcDbEntity
  8
0
100
AcDbPoint
 10
8396429.22711039
 20
5679093.012087068
 30
0.0
  0
POINT
  5
6C2
330
16
100
AcDbEntity
  8
0
100
AcDbPoint
 10
8396397.015142413
 20
5679000.898879154
 30
0.0
  0
POINT
  5
6C3
330
16
100
AcDbEntity
  8
0
100
AcDbPoint
 10
8396365.064341781
 20
5678972.856983468
 30
0.0
  0
TEXT
  5
6C4
330
16
100
AcDbEntity
  8
0
370
    20
100
AcDbText
 10
8396496.514288674
 20
5678910.644999483
 30
0.0
 40
1.0
  1
2/103
 41
0.6600000000000001
 72
     1
 11
8396497.960002959
 21
5678911.644999483
 31
0.0
100
AcDbText
 73
     3
  0
TEXT
  5
6C5
330
16
100
AcDbEntity
  8
0
370
    20
100
AcDbText
 10
8396190.307145795
 20
5679129.46999948
 30
0.0
 40
1.0
  1
82/1
 41
0.6600000000000001
 72
     1
 11
8396191.360002937
 21
5679130.469999481
 31
0.0
100
AcDbText
 73
     3
  0
TEXT
  5
6C6
330
16
100
AcDbEntity
  8
0
370
    20
100
AcDbText
 10
8396285.46071723
 20
5679125.649999483
 30
0.0
 40
1.0
  1
64/7
 41
0.6600000000000001
 72
     1
 11
8396286.655002944
 21
5679126.649999483
 31
0.0
100
AcDbText
 73
     3
  0
TEXT
  5
6C7
330
16
100
AcDbEntity
  8
0
370
    20
100
AcDbText
 10
8396277.930717229
 20
5679041.359999484
 30
0.0
 40
1.0
  1
2/72
 41
0.6600000000000001
 72
     1
 11
8396279.125002942
 21
5679042.359999483
 31
0.0
100
AcDbText
 73
     3
  0
TEXT
  5
6C8
330
16
100
AcDbEntity
  8
0
370
    20
100
AcDbText
 10
8396126.11928865
 20
5679045.239999481
 30
0.0
 40
1.0
  1
62/10
 41
0.6600000000000001
 72
     1
 11
8396127.565002936
 21
5679046.239999482
 31
0.0
100
AcDbText
 73
     3
  0
TEXT
  5
6C9
330
16
100
AcDbEntity
  8
0
370
    20
100
AcDbText
 10
8396082.589288646
 20
5679137.364999482
 30
0.0
 40
1.0
  1
100
 41
0.6600000000000001
 72
     1
 11
8396083.375002932
 21
5679138.364999481
 31
0.0
100
AcDbText
 73
     3
  0
TEXT
  5
6CA
330
16
100
AcDbEntity
  8
0
370
    20
100
AcDbText
 10
8396192.07143151
 20
5679157.674999482
 30
0.0
 40
1.0
  1
9/1
 41
0.6600000000000001
 72
     1
 11
8396192.810002938
 21
5679158.674999484
 31
0.0
100
AcDbText
 73
     3
  0
TEXT
  5
6CB
330
16
100
AcDbEntity
  8
0
370
    20
100
AcDbText
 10
8396351.515717233
 20
5679139.689999483
 30
0.0
 40
1.0
  1
86/2
 41
0.6600000000000001
 72
     1
 11
8396352.710002947
 21
5679140.689999484
 31
0.0
100
AcDbText
 73
     3
  0
TEXT
  5
6CC
330
16
100
AcDbEntity
  8
0
370
    20
100
AcDbText
 10
8396224.010236917
 20
5679192.719999481
 30
0.0
 40
1.0
  1
81
 41
0.6600000000000001
 72
     1
 11
8396224.403094061
 21
5679193.719999481
 31
0.0
100
AcDbText
 73
     3
  0
TEXT
  5
6CE
330
16
100
AcDbEntity
  8
0
370
    20
100
AcDbText
 10
8396536.662145818
 20
5679078.199999485
 30
0.0
 40
1.0
  1
91
 41
0.6600000000000001
 72
     1
 11
8396537.055002962
 21
5679079.199999485
 31
0.0
100
AcDbText
 73
     3
  0
TEXT
  5
6CF
330
16
100
AcDbEntity
  8
0
370
    20
100
AcDbText
 10
8396216.841431513
 20
5678942.414999482
 30
0.0
 40
1.0
  1
42/6
 41
0.6600000000000001
 72
     1
 11
8396218.020002944
 21
5678943.414999481
 31
0.0
100
AcDbText
 73
     3
  0
TEXT
  5
6D0
330
16
100
AcDbEntity
  8
0
370
    20
100
AcDbText
 10
8396247.56571723
 20
5678994.08499948
 30
0.0
 40
1.0
  1
2/73
 41
0.6600000000000001
 72
     1
 11
8396248.760002945
 21
5678995.084999481
 31
0.0
100
AcDbText
 73
     3
  0
TEXT
  5
6D1
330
16
100
AcDbEntity
  8
0
370
    20
100
AcDbText
 10
8396285.535717233
 20
5678936.30999948
 30
0.0
 40
1.0
  1
42/7
 41
0.6600000000000001
 72
     1
 11
8396286.730002946
 21
5678937.309999481
 31
0.0
100
AcDbText
 73
     3
  0
TEXT
  5
6D2
330
16
100
AcDbEntity
  8
0
370
    20
100
AcDbText
 10
8396357.115717234
 20
5678932.684999485
 30
0.0
 40
1.0
  1
42/8
 41
0.6600000000000001
 72
     1
 11
8396358.310002948
 21
5678933.684999484
 31
0.0
100
AcDbText
 73
     3
  0
TEXT
  5
6D3
330
16
100
AcDbEntity
  8
0
370
    20
100
AcDbText
 10
8396425.301431525
 20
5678910.244999481
 30
0.0
 40
1.0
  1
42/9
 41
0.6600000000000001
 72
     1
 11
8396426.480002954
 21
5678911.244999482
 31
0.0
100
AcDbText
 73
     3
  0
TEXT
  5
6D7
330
16
100
AcDbEntity
  8
0
370
    20
100
AcDbText
 10
8396355.92714581
 20
5679158.169999484
 30
0.0
 40
1.0
  1
86/1
 41
0.6600000000000001
 72
     1
 11
8396356.980002952
 21
5679159.169999484
 31
0.0
100
AcDbText
 73
     3
  0
TEXT
  5
6DF
330
16
100
AcDbEntity
  8
0
370
    20
100
AcDbText
 10
8396560.90714582
 20
5679133.279999486
 30
0.0
 40
1.0
  1
89/29
 41
0.6600000000000001
 72
     1
 11
8396562.400002963
 21
5679134.279999487
 31
0.0
100
AcDbText
 73
     3
  0
TEXT
  5
6E1
330
16
100
AcDbEntity
  8
0
370
    20
100
AcDbText
 10
8396644.985717252
 20
5679057.199999485
 30
0.0
 40
1.0
  1
92/11
 41
0.6600000000000001
 72
     1
 11
8396646.290002967
 21
5679058.199999485
 31
0.0
100
AcDbText
 73
     3
  0
TEXT
  5
6E2
330
16
100
AcDbEntity
  8
0
370
    20
100
AcDbText
 10
8396642.591431538
 20
5679092.894999485
 30
0.0
 40
1.0
  1
92/6
 41
0.6600000000000001
 72
     1
 11
8396643.770002967
 21
5679093.894999486
 31
0.0
100
AcDbText
 73
     3
  0
TEXT
  5
6E3
330
16
100
AcDbEntity
  8
0
370
    20
100
AcDbText
 10
8396679.554288686
 20
5679075.044999487
 30
0.0
 40
1.0
  1
92/10
 41
0.6600000000000001
 72
     1
 11
8396681.000002971
 21
5679076.044999487
 31
0.0
100
AcDbText
 73
     3
  0
TEXT
  5
6E5
330
16
100
AcDbEntity
  8
0
370
    20
100
AcDbText
 10
8396631.35571725
 20
5678950.489999484
 30
0.0
 40
1.0
  1
92/2
 41
0.6600000000000001
 72
     1
 11
8396632.550002966
 21
5678951.489999483
 31
0.0
100
AcDbText
 73
     3
  0
TEXT
  5
6E6
330
16
100
AcDbEntity
  8
0
370
    20
100
AcDbText
 10
8396644.835717252
 20
5678977.609999485
 30
0.0
 40
1.0
  1
92/5
 41
0.6600000000000001
 72
     1
 11
8396646.030002965
 21
5678978.609999485
 31
0.0
100
AcDbText
 73
     3
  0
TEXT
  5
6E7
330
16
100
AcDbEntity
  8
0
370
    20
100
AcDbText
 10
8396655.505717253
 20
5678904.489999486
 30
0.0
 40
1.0
  1
92/3
 41
0.6600000000000001
 72
     1
 11
8396656.700002969
 21
5678905.489999486
 31
0.0
100
AcDbText
 73
     3
  0
TEXT
  5
6E8
330
16
100
AcDbEntity
  8
0
370
    20
100
AcDbText
 10
8396144.940717222
 20
5678946.489999482
 30
0.0
 40
1.0
  1
2/43
 41
0.6600000000000001
 72
     1
 11
8396146.135002938
 21
5678947.489999481
 31
0.0
100
AcDbText
 73
     3
  0
TEXT
  5
6E9
330
16
100
AcDbEntity
  8
0
370
    20
100
AcDbText
 10
8396177.80500294
 20
5678936.50499948
 30
0.0
 40
1.0
  1
2/74
 41
0.6600000000000001
 72
     1
 11
8396179.015002942
 21
5678937.50499948
 31
0.0
100
AcDbText
 73
     3
  0
TEXT
  5
6EA
330
16
100
AcDbEntity
  8
0
370
    20
100
AcDbText
 10
8396187.341431508
 20
5678948.349999481
 30
0.0
 40
1.0
  1
2/39
 41
0.6600000000000001
 72
     1
 11
8396188.520002937
 21
5678949.349999481
 31
0.0
100
AcDbText
 73
     3
  0
TEXT
  5
6EB
330
16
100
AcDbEntity
  8
0
370
    20
100
AcDbText
 10
8396084.915717221
 20
5678950.744999481
 30
0.0
 40
1.0
  1
62/8
 41
0.6600000000000001
 72
     1
 11
8396086.110002936
 21
5678951.744999481
 31
0.0
100
AcDbText
 73
     3
  0
TEXT
  5
6EC
330
16
100
AcDbEntity
  8
0
370
    20
100
AcDbText
 10
8396105.217145793
 20
5678952.92999948
 30
0.0
 40
1.0
  1
62/1
 41
0.6600000000000001
 72
     1
 11
8396106.270002935
 21
5678953.929999481
 31
0.0
100
AcDbText
 73
     3
  0
TEXT
  5
6ED
330
16
100
AcDbEntity
  8
0
370
    20
100
AcDbText
 10
8396114.601431506
 20
5678964.269999481
 30
0.0
 40
1.0
  1
62/9
 41
0.6600000000000001
 72
     1
 11
8396115.780002935
 21
5678965.26999948
 31
0.0
100
AcDbText
 73
     3
  0
TEXT
  5
6EE
330
16
100
AcDbEntity
  8
0
370
    20
100
AcDbText
 10
8396075.451431501
 20
5678958.789999482
 30
0.0
 40
1.0
  1
62/6
 41
0.6600000000000001
 72
     1
 11
8396076.63000293
 21
5678959.789999481
 31
0.0
100
AcDbText
 73
     3
  0
TEXT
  5
6EF
330
16
100
AcDbEntity
  8
0
370
    20
100
AcDbText
 10
8396099.475717218
 20
5678972.099999481
 30
0.0
 40
1.0
  1
62/7
 41
0.6600000000000001
 72
     1
 11
8396100.670002931
 21
5678973.09999948
 31
0.0
100
AcDbText
 73
     3
  0
TEXT
  5
6F0
330
16
100
AcDbEntity
  8
0
370
    20
100
AcDbText
 10
8396062.825717216
 20
5678971.439999479
 30
0.0
 40
1.0
  1
62/5
 41
0.6600000000000001
 72
     1
 11
8396064.020002931
 21
5678972.43999948
 31
0.0
100
AcDbText
 73
     3
  0
TEXT
  5
6F1
330
16
100
AcDbEntity
  8
0
370
    20
100
AcDbText
 10
8396016.985717212
 20
5678970.949999482
 30
0.0
 40
1.0
  1
60/8
 41
0.6600000000000001
 72
     1
 11
8396018.180002926
 21
5678971.949999481
 31
0.0
100
AcDbText
 73
     3
  0
TEXT
  5
6F3
330
16
100
AcDbEntity
  8
0
370
    20
100
AcDbText
 10
8395973.282145783
 20
5679170.59499948
 30
0.0
 40
1.0
  1
60/1
 41
0.6600000000000001
 72
     1
 11
8395974.335002925
 21
5679171.59499948
 31
0.0
100
AcDbText
 73
     3
  0
TEXT
  5
6F5
330
16
100
AcDbEntity
  8
0
370
    20
100
AcDbText
 10
8396413.100448755
 20
5678839.529999481
 30
0.0
 40
1.0
  1
45
 41
0.6600000000000001
 72
     1
 11
8396413.63473447
 21
5678840.529999481
 31
0.0
100
AcDbText
 73
     3
  0
TEXT
  5
6F6
330
16
100
AcDbEntity
  8
0
370
    20
100
AcDbText
 10
8396093.350717217
 20
5678938.78999948
 30
0.0
 40
1.0
  1
62/3
 41
0.6600000000000001
 72
     1
 11
8396094.545002931
 21
5678939.789999481
 31
0.0
100
AcDbText
 73
     3
  0
TEXT
  5
6F7
330
16
100
AcDbEntity
  8
0
370
    20
100
AcDbText
 10
8396136.550717221
 20
5678923.864999481
 30
0.0
 40
1.0
  1
2/42
 41
0.6600000000000001
 72
     1
 11
8396137.745002937
 21
5678924.864999482
 31
0.0
100
AcDbText
 73
     3
  0
TEXT
  5
6F8
330
16
100
AcDbEntity
  8
0
370
    20
100
AcDbText
 10
8396172.060717223
 20
5678916.394999482
 30
0.0
 40
1.0
  1
2/101
 41
0.6600000000000001
 72
     1
 11
8396173.365002939
 21
5678917.394999482
 31
0.0
100
AcDbText
 73
     3
  0
LINE
  5
1000036
330
16
100
AcDbEntity
  8
0
  6
Continuous
370
    18
100
AcDbLine
 10
8396132.400002937
 20
5678967.649999482
 30
0.0
 11
8396227.630002941
 21
5679106.419999484
 31
0.0
  0
LINE
  5
1000037
330
16
100
AcDbEntity
  8
0
  6
Continuous
370
    18
100
AcDbLine
 10
8396227.630002941
 20
5679106.419999484
 30
0.0
 11
8396220.44000294
 21
5679110.629999481
 31
0.0
  0
LINE
  5
1000038
330
16
100
AcDbEntity
  8
0
  6
Continuous
370
    18
100
AcDbLine
 10
8396220.44000294
 20
5679110.629999481
 30
0.0
 11
8396225.240002943
 21
5679127.799999482
 31
0.0
  0
LINE
  5
1000039
330
16
100
AcDbEntity
  8
0
  6
Continuous
370
    18
100
AcDbLine
 10
8396225.240002943
 20
5679127.799999482
 30
0.0
 11
8396231.040002941
 21
5679148.609999483
 31
0.0
  0
LINE
  5
100003A
330
16
100
AcDbEntity
  8
0
  6
Continuous
370
    18
100
AcDbLine
 10
8396231.040002941
 20
5679148.609999483
 30
0.0
 11
8396231.52000294
 21
5679150.309999482
 31
0.0
  0
LINE
  5
100003B
330
16
100
AcDbEntity
  8
0
  6
Continuous
370
    18
100
AcDbLine
 10
8396231.52000294
 20
5679150.309999482
 30
0.0
 11
8396285.540002944
 21
5679153.299999483
 31
0.0
  0
LINE
  5
100003C
330
16
100
AcDbEntity
  8
0
  6
Continuous
370
    18
100
AcDbLine
 10
8396285.540002944
 20
5679153.299999483
 30
0.0
 11
8396322.170002944
 21
5679141.369999481
 31
0.0
  0
LINE
  5
100003D
330
16
100
AcDbEntity
  8
0
  6
Continuous
370
    18
100
AcDbLine
 10
8396322.170002944
 20
5679141.369999481
 30
0.0
 11
8396371.240002951
 21
5679116.209999484
 31
0.0
  0
LINE
  5
100003E
330
16
100
AcDbEntity
  8
0
  6
Continuous
370
    18
100
AcDbLine
 10
8396371.240002951
 20
5679116.209999484
 30
0.0
 11
8396397.070002953
 21
5679109.759999485
 31
0.0
  0
LINE
  5
100003F
330
16
100
AcDbEntity
  8
0
  6
Continuous
370
    18
100
AcDbLine
 10
8396397.070002953
 20
5679109.759999485
 30
0.0
 11
8396466.250002957
 21
5679073.729999486
 31
0.0
  0
LINE
  5
1000040
330
16
100
AcDbEntity
  8
0
  6
Continuous
370
    18
100
AcDbLine
 10
8396466.250002957
 20
5679073.729999486
 30
0.0
 11
8396456.880002958
 21
5679055.849999484
 31
0.0
  0
LINE
  5
1000041
330
16
100
AcDbEntity
  8
0
  6
Continuous
370
    18
100
AcDbLine
 10
8396456.880002958
 20
5679055.849999484
 30
0.0
 11
8396457.500002956
 21
5679054.429999484
 31
0.0
  0
LINE
  5
1000042
330
16
100
AcDbEntity
  8
0
  6
Continuous
370
    18
100
AcDbLine
 10
8396457.500002956
 20
5679054.429999484
 30
0.0
 11
8396465.500002957
 21
5679036.199999483
 31
0.0
  0
LINE
  5
1000043
330
16
100
AcDbEntity
  8
0
  6
Continuous
370
    18
100
AcDbLine
 10
8396465.500002957
 20
5679036.199999483
 30
0.0
 11
8396558.89000296
 21
5679009.909999485
 31
0.0
  0
LINE
  5
1000044
330
16
100
AcDbEntity
  8
0
  6
Continuous
370
    18
100
AcDbLine
 10
8396558.89000296
 20
5679009.909999485
 30
0.0
 11
8396559.190002962
 21
5679009.429999482
 31
0.0
  0
LINE
  5
1000045
330
16
100
AcDbEntity
  8
0
  6
Continuous
370
    18
100
AcDbLine
 10
8396559.190002962
 20
5679009.429999482
 30
0.0
 11
8396586.480002966
 21
5678997.339999484
 31
0.0
  0
LINE
  5
1000046
330
16
100
AcDbEntity
  8
0
  6
Continuous
370
    18
100
AcDbLine
 10
8396586.480002966
 20
5678997.339999484
 30
0.0
 11
8396608.480002965
 21
5678986.129999485
 31
0.0
  0
LINE
  5
1000047
330
16
100
AcDbEntity
  8
0
  6
Continuous
370
    18
100
AcDbLine
 10
8396608.480002965
 20
5678986.129999485
 30
0.0
 11
8396601.050002967
 21
5678974.569999486
 31
0.0
  0
LINE
  5
1000048
330
16
100
AcDbEntity
  8
0
  6
Continuous
370
    18
100
AcDbLine
 10
8396601.050002967
 20
5678974.569999486
 30
0.0
 11
8396589.790002961
 21
5678957.539999485
 31
0.0
  0
LINE
  5
1000049
330
16
100
AcDbEntity
  8
0
  6
Continuous
370
    18
100
AcDbLine
 10
8396589.790002961
 20
5678957.539999485
 30
0.0
 11
8396587.230002966
 21
5678952.739999483
 31
0.0
  0
LINE
  5
100004A
330
16
100
AcDbEntity
  8
0
  6
Continuous
370
    18
100
AcDbLine
 10
8396587.230002966
 20
5678952.739999483
 30
0.0
 11
8396592.150002964
 21
5678940.789999485
 31
0.0
  0
LINE
  5
100004B
330
16
100
AcDbEntity
  8
0
  6
Continuous
370
    18
100
AcDbLine
 10
8396592.150002964
 20
5678940.789999485
 30
0.0
 11
8396599.660002966
 21
5678931.049999484
 31
0.0
  0
LINE
  5
100004C
330
16
100
AcDbEntity
  8
0
  6
Continuous
370
    18
100
AcDbLine
 10
8396599.660002966
 20
5678931.049999484
 30
0.0
 11
8396607.750002965
 21
5678923.299999483
 31
0.0
  0
LINE
  5
100004D
330
16
100
AcDbEntity
  8
0
  6
Continuous
370
    18
100
AcDbLine
 10
8396607.750002965
 20
5678923.299999483
 30
0.0
 11
8396608.720002966
 21
5678922.259999483
 31
0.0
  0
LINE
  5
100004E
330
16
100
AcDbEntity
  8
0
  6
Continuous
370
    18
100
AcDbLine
 10
8396608.720002966
 20
5678922.259999483
 30
0.0
 11
8396613.280002965
 21
5678915.199999484
 31
0.0
  0
LINE
  5
100004F
330
16
100
AcDbEntity
  8
0
  6
Continuous
370
    18
100
AcDbLine
 10
8396613.280002965
 20
5678915.199999484
 30
0.0
 11
8396620.070002965
 21
5678898.199999486
 31
0.0
  0
LINE
  5
1000050
330
16
100
AcDbEntity
  8
0
  6
Continuous
370
    18
100
AcDbLine
 10
8396620.070002965
 20
5678898.199999486
 30
0.0
 11
8396645.760002966
 21
5678887.659999485
 31
0.0
  0
LINE
  5
1000051
330
16
100
AcDbEntity
  8
0
  6
Continuous
370
    18
100
AcDbLine
 10
8396645.760002966
 20
5678887.659999485
 30
0.0
 11
8396662.760002971
 21
5678880.939999486
 31
0.0
  0
LINE
  5
1000052
330
16
100
AcDbEntity
  8
0
  6
Continuous
370
    18
100
AcDbLine
 10
8396662.760002971
 20
5678880.939999486
 30
0.0
 11
8396681.460002973
 21
5678873.169999487
 31
0.0
  0
LINE
  5
1000053
330
16
100
AcDbEntity
  8
0
  6
Continuous
370
    18
100
AcDbLine
 10
8396681.460002973
 20
5678873.169999487
 30
0.0
 11
8396694.220002972
 21
5678867.539999485
 31
0.0
  0
LINE
  5
1000054
330
16
100
AcDbEntity
  8
0
  6
Continuous
370
    18
100
AcDbLine
 10
8396694.220002972
 20
5678867.539999485
 30
0.0
 11
8396707.910002971
 21
5678861.499999485
 31
0.0
  0
LINE
  5
1000055
330
16
100
AcDbEntity
  8
0
  6
Continuous
370
    18
100
AcDbLine
 10
8396707.910002971
 20
5678861.499999485
 30
0.0
 11
8396726.170002974
 21
5678853.439999487
 31
0.0
  0
LINE
  5
1000056
330
16
100
AcDbEntity
  8
0
  6
Continuous
370
    18
100
AcDbLine
 10
8396726.170002974
 20
5678853.439999487
 30
0.0
 11
8396741.930002974
 21
5678838.109999486
 31
0.0
  0
LINE
  5
1000057
330
16
100
AcDbEntity
  8
0
  6
Continuous
370
    18
100
AcDbLine
 10
8396741.930002974
 20
5678838.109999486
 30
0.0
 11
8396770.580002975
 21
5678819.469999484
 31
0.0
  0
LINE
  5
1000058
330
16
100
AcDbEntity
  8
0
  6
Continuous
370
    18
100
AcDbLine
 10
8396770.580002975
 20
5678819.469999484
 30
0.0
 11
8396780.310002977
 21
5678817.589999488
 31
0.0
  0
LINE
  5
1000059
330
16
100
AcDbEntity
  8
0
  6
Continuous
370
    18
100
AcDbLine
 10
8396780.310002977
 20
5678817.589999488
 30
0.0
 11
8396783.090002976
 21
5678819.049999484
 31
0.0
  0
LINE
  5
100005A
330
16
100
AcDbEntity
  8
0
  6
Continuous
370
    18
100
AcDbLine
 10
8396783.090002976
 20
5678819.049999484
 30
0.0
 11
8396792.570002977
 21
5678823.989999487
 31
0.0
  0
LINE
  5
100005B
330
16
100
AcDbEntity
  8
0
  6
Continuous
370
    18
100
AcDbLine
 10
8396792.570002977
 20
5678823.989999487
 30
0.0
 11
8396801.970002979
 21
5678820.939999487
 31
0.0
  0
LINE
  5
100005C
330
16
100
AcDbEntity
  8
0
  6
Continuous
370
    18
100
AcDbLine
 10
8396801.970002979
 20
5678820.939999487
 30
0.0
 11
8396810.660002977
 21
5678816.449999486
 31
0.0
  0
LINE
  5
100005D
330
16
100
AcDbEntity
  8
0
  6
Continuous
370
    18
100
AcDbLine
 10
8396810.660002977
 20
5678816.449999486
 30
0.0
 11
8396810.790002978
 21
5678810.559999484
 31
0.0
  0
LINE
  5
100005E
330
16
100
AcDbEntity
  8
0
  6
Continuous
370
    18
100
AcDbLine
 10
8396810.790002978
 20
5678810.559999484
 30
0.0
 11
8396812.010002978
 21
5678804.979999486
 31
0.0
  0
LINE
  5
100005F
330
16
100
AcDbEntity
  8
0
  6
Continuous
370
    18
100
AcDbLine
 10
8396812.010002978
 20
5678804.979999486
 30
0.0
 11
8396814.020002977
 21
5678800.979999485
 31
0.0
  0
LINE
  5
1000060
330
16
100
AcDbEntity
  8
0
  6
Continuous
370
    18
100
AcDbLine
 10
8396814.020002977
 20
5678800.979999485
 30
0.0
 11
8396817.000002979
 21
5678797.519999488
 31
0.0
  0
LINE
  5
1000061
330
16
100
AcDbEntity
  8
0
  6
Continuous
370
    18
100
AcDbLine
 10
8396817.000002979
 20
5678797.519999488
 30
0.0
 11
8396821.400002977
 21
5678794.039999488
 31
0.0
  0
LINE
  5
1000062
330
16
100
AcDbEntity
  8
0
  6
Continuous
370
    18
100
AcDbLine
 10
8396821.400002977
 20
5678794.039999488
 30
0.0
 11
8396824.570002976
 21
5678792.029999486
 31
0.0
  0
LINE
  5
1000063
330
16
100
AcDbEntity
  8
0
  6
Continuous
370
    18
100
AcDbLine
 10
8396824.570002976
 20
5678792.029999486
 30
0.0
 11
8396851.780002981
 21
5678773.279999484
 31
0.0
  0
LINE
  5
1000064
330
16
100
AcDbEntity
  8
0
  6
Continuous
370
    18
100
AcDbLine
 10
8396851.780002981
 20
5678773.279999484
 30
0.0
 11
8396863.520002977
 21
5678763.969999485
 31
0.0
  0
LINE
  5
1000065
330
16
100
AcDbEntity
  8
0
  6
Continuous
370
    18
100
AcDbLine
 10
8396863.520002977
 20
5678763.969999485
 30
0.0
 11
8396817.21000298
 21
5678694.009999484
 31
0.0
  0
LINE
  5
1000066
330
16
100
AcDbEntity
  8
0
  6
Continuous
370
    18
100
AcDbLine
 10
8396817.21000298
 20
5678694.009999484
 30
0.0
 11
8396808.510002978
 21
5678680.769999486
 31
0.0
  0
LINE
  5
1000067
330
16
100
AcDbEntity
  8
0
  6
Continuous
370
    18
100
AcDbLine
 10
8396808.510002978
 20
5678680.769999486
 30
0.0
 11
8396770.560002977
 21
5678711.459999484
 31
0.0
  0
LINE
  5
1000068
330
16
100
AcDbEntity
  8
0
  6
Continuous
370
    18
100
AcDbLine
 10
8396770.560002977
 20
5678711.459999484
 30
0.0
 11
8396742.320002976
 21
5678734.289999485
 31
0.0
  0
LINE
  5
1000069
330
16
100
AcDbEntity
  8
0
  6
Continuous
370
    18
100
AcDbLine
 10
8396742.320002976
 20
5678734.289999485
 30
0.0
 11
8396698.060002972
 21
5678669.989999486
 31
0.0
  0
LINE
  5
100006A
330
16
100
AcDbEntity
  8
0
  6
Continuous
370
    18
100
AcDbLine
 10
8396698.060002972
 20
5678669.989999486
 30
0.0
 11
8396664.200002968
 21
5678698.149999485
 31
0.0
  0
LINE
  5
100006B
330
16
100
AcDbEntity
  8
0
  6
Continuous
370
    18
100
AcDbLine
 10
8396664.200002968
 20
5678698.149999485
 30
0.0
 11
8396638.700002968
 21
5678719.359999485
 31
0.0
  0
LINE
  5
100006C
330
16
100
AcDbEntity
  8
0
  6
Continuous
370
    18
100
AcDbLine
 10
8396638.700002968
 20
5678719.359999485
 30
0.0
 11
8396620.520002963
 21
5678734.469999485
 31
0.0
  0
LINE
  5
100006D
330
16
100
AcDbEntity
  8
0
  6
Continuous
370
    18
100
AcDbLine
 10
8396620.520002963
 20
5678734.469999485
 30
0.0
 11
8396601.010002965
 21
5678750.699999483
 31
0.0
  0
LINE
  5
100006E
330
16
100
AcDbEntity
  8
0
  6
Continuous
370
    18
100
AcDbLine
 10
8396601.010002965
 20
5678750.699999483
 30
0.0
 11
8396559.300002964
 21
5678753.719999483
 31
0.0
  0
LINE
  5
100006F
330
16
100
AcDbEntity
  8
0
  6
Continuous
370
    18
100
AcDbLine
 10
8396559.300002964
 20
5678753.719999483
 30
0.0
 11
8396549.660002964
 21
5678754.419999484
 31
0.0
  0
LINE
  5
1000070
330
16
100
AcDbEntity
  8
0
  6
Continuous
370
    18
100
AcDbLine
 10
8396549.660002964
 20
5678754.419999484
 30
0.0
 11
8396514.600002959
 21
5678740.929999482
 31
0.0
  0
LINE
  5
1000071
330
16
100
AcDbEntity
  8
0
  6
Continuous
370
    18
100
AcDbLine
 10
8396514.600002959
 20
5678740.929999482
 30
0.0
 11
8396509.96000296
 21
5678722.609999482
 31
0.0
  0
LINE
  5
1000072
330
16
100
AcDbEntity
  8
0
  6
Continuous
370
    18
100
AcDbLine
 10
8396509.96000296
 20
5678722.609999482
 30
0.0
 11
8396499.020002959
 21
5678724.789999481
 31
0.0
  0
LINE
  5
1000073
330
16
100
AcDbEntity
  8
0
  6
Continuous
370
    18
100
AcDbLine
 10
8396499.020002959
 20
5678724.789999481
 30
0.0
 11
8396488.220002961
 21
5678726.949999484
 31
0.0
  0
LINE
  5
1000074
330
16
100
AcDbEntity
  8
0
  6
Continuous
370
    18
100
AcDbLine
 10
8396488.220002961
 20
5678726.949999484
 30
0.0
 11
8396471.130002959
 21
5678730.369999481
 31
0.0
  0
LINE
  5
1000075
330
16
100
AcDbEntity
  8
0
  6
Continuous
370
    18
100
AcDbLine
 10
8396471.130002959
 20
5678730.369999481
 30
0.0
 11
8396481.920002955
 21
5678771.509999481
 31
0.0
  0
LINE
  5
1000076
330
16
100
AcDbEntity
  8
0
  6
Continuous
370
    18
100
AcDbLine
 10
8396481.920002955
 20
5678771.509999481
 30
0.0
 11
8396487.57000296
 21
5678793.079999484
 31
0.0
  0
LINE
  5
1000077
330
16
100
AcDbEntity
  8
0
  6
Continuous
370
    18
100
AcDbLine
 10
8396487.57000296
 20
5678793.079999484
 30
0.0
 11
8396492.060002961
 21
5678791.759999483
 31
0.0
  0
LINE
  5
1000078
330
16
100
AcDbEntity
  8
0
  6
Continuous
370
    18
100
AcDbLine
 10
8396492.060002961
 20
5678791.759999483
 30
0.0
 11
8396503.500002959
 21
5678835.909999482
 31
0.0
  0
LINE
  5
1000079
330
16
100
AcDbEntity
  8
0
  6
Continuous
370
    18
100
AcDbLine
 10
8396503.500002959
 20
5678835.909999482
 30
0.0
 11
8396509.64000296
 21
5678839.539999485
 31
0.0
  0
LINE
  5
100007A
330
16
100
AcDbEntity
  8
0
  6
Continuous
370
    18
100
AcDbLine
 10
8396509.64000296
 20
5678839.539999485
 30
0.0
 11
8396512.58000296
 21
5678850.959999481
 31
0.0
  0
LINE
  5
100007B
330
16
100
AcDbEntity
  8
0
  6
Continuous
370
    18
100
AcDbLine
 10
8396512.58000296
 20
5678850.959999481
 30
0.0
 11
8396501.340002959
 21
5678853.939999482
 31
0.0
  0
LINE
  5
100007C
330
16
100
AcDbEntity
  8
0
  6
Continuous
370
    18
100
AcDbLine
 10
8396501.340002959
 20
5678853.939999482
 30
0.0
 11
8396500.000002957
 21
5678849.099999481
 31
0.0
  0
LINE
  5
100007D
330
16
100
AcDbEntity
  8
0
  6
Continuous
370
    18
100
AcDbLine
 10
8396500.000002957
 20
5678849.099999481
 30
0.0
 11
8396468.530002955
 21
5678857.609999483
 31
0.0
  0
LINE
  5
100007E
330
16
100
AcDbEntity
  8
0
  6
Continuous
370
    18
100
AcDbLine
 10
8396468.530002955
 20
5678857.609999483
 30
0.0
 11
8396465.600002956
 21
5678859.479999486
 31
0.0
  0
LINE
  5
100007F
330
16
100
AcDbEntity
  8
0
  6
Continuous
370
    18
100
AcDbLine
 10
8396465.600002956
 20
5678859.479999486
 30
0.0
 11
8396473.470002955
 21
5678891.709999485
 31
0.0
  0
LINE
  5
1000080
330
16
100
AcDbEntity
  8
0
  6
Continuous
370
    18
100
AcDbLine
 10
8396473.470002955
 20
5678891.709999485
 30
0.0
 11
8396465.620002956
 21
5678894.259999484
 31
0.0
  0
LINE
  5
1000081
330
16
100
AcDbEntity
  8
0
  6
Continuous
370
    18
100
AcDbLine
 10
8396465.620002956
 20
5678894.259999484
 30
0.0
 11
8396459.980002957
 21
5678897.769999481
 31
0.0
  0
LINE
  5
1000082
330
16
100
AcDbEntity
  8
0
  6
Continuous
370
    18
100
AcDbLine
 10
8396459.980002957
 20
5678897.769999481
 30
0.0
 11
8396449.350002956
 21
5678906.379999481
 31
0.0
  0
LINE
  5
1000083
330
16
100
AcDbEntity
  8
0
  6
Continuous
370
    18
100
AcDbLine
 10
8396449.350002956
 20
5678906.379999481
 30
0.0
 11
8396439.340002954
 21
5678916.089999481
 31
0.0
  0
LINE
  5
1000084
330
16
100
AcDbEntity
  8
0
  6
Continuous
370
    18
100
AcDbLine
 10
8396439.340002954
 20
5678916.089999481
 30
0.0
 11
8396432.760002955
 21
5678927.519999485
 31
0.0
  0
LINE
  5
1000085
330
16
100
AcDbEntity
  8
0
  6
Continuous
370
    18
100
AcDbLine
 10
8396432.760002955
 20
5678927.519999485
 30
0.0
 11
8396428.410002954
 21
5678945.399999483
 31
0.0
  0
LINE
  5
1000086
330
16
100
AcDbEntity
  8
0
  6
Continuous
370
    18
100
AcDbLine
 10
8396428.410002954
 20
5678945.399999483
 30
0.0
 11
8396424.050002956
 21
5678952.289999484
 31
0.0
  0
LINE
  5
1000087
330
16
100
AcDbEntity
  8
0
  6
Continuous
370
    18
100
AcDbLine
 10
8396424.050002956
 20
5678952.289999484
 30
0.0
 11
8396417.340002953
 21
5678967.41999948
 31
0.0
  0
LINE
  5
1000088
330
16
100
AcDbEntity
  8
0
  6
Continuous
370
    18
100
AcDbLine
 10
8396417.340002953
 20
5678967.41999948
 30
0.0
 11
8396398.800002952
 21
5678969.349999481
 31
0.0
  0
LINE
  5
1000089
330
16
100
AcDbEntity
  8
0
  6
Continuous
370
    18
100
AcDbLine
 10
8396398.800002952
 20
5678969.349999481
 30
0.0
 11
8396354.55000295
 21
5678973.949999483
 31
0.0
  0
LINE
  5
100008A
330
16
100
AcDbEntity
  8
0
  6
Continuous
370
    18
100
AcDbLine
 10
8396354.55000295
 20
5678973.949999483
 30
0.0
 11
8396340.990002947
 21
5678971.009999481
 31
0.0
  0
LINE
  5
100008B
330
16
100
AcDbEntity
  8
0
  6
Continuous
370
    18
100
AcDbLine
 10
8396340.990002947
 20
5678971.009999481
 30
0.0
 11
8396339.470002949
 21
5678971.259999478
 31
0.0
  0
LINE
  5
100008C
330
16
100
AcDbEntity
  8
0
  6
Continuous
370
    18
100
AcDbLine
 10
8396339.470002949
 20
5678971.259999478
 30
0.0
 11
8396335.31000295
 21
5678971.929999483
 31
0.0
  0
LINE
  5
100008D
330
16
100
AcDbEntity
  8
0
  6
Continuous
370
    18
100
AcDbLine
 10
8396335.31000295
 20
5678971.929999483
 30
0.0
 11
8396329.250002946
 21
5678974.149999485
 31
0.0
  0
LINE
  5
100008E
330
16
100
AcDbEntity
  8
0
  6
Continuous
370
    18
100
AcDbLine
 10
8396329.250002946
 20
5678974.149999485
 30
0.0
 11
8396320.160002947
 21
5678979.719999481
 31
0.0
  0
LINE
  5
100008F
330
16
100
AcDbEntity
  8
0
  6
Continuous
370
    18
100
AcDbLine
 10
8396320.160002947
 20
5678979.719999481
 30
0.0
 11
8396312.120002948
 21
5678983.089999482
 31
0.0
  0
LINE
  5
1000090
330
16
100
AcDbEntity
  8
0
  6
Continuous
370
    18
100
AcDbLine
 10
8396312.120002948
 20
5678983.089999482
 30
0.0
 11
8396306.330002945
 21
5678983.799999481
 31
0.0
  0
LINE
  5
1000091
330
16
100
AcDbEntity
  8
0
  6
Continuous
370
    18
100
AcDbLine
 10
8396306.330002945
 20
5678983.799999481
 30
0.0
 11
8396292.030002944
 21
5678983.46999948
 31
0.0
  0
LINE
  5
1000092
330
16
100
AcDbEntity
  8
0
  6
Continuous
370
    18
100
AcDbLine
 10
8396292.030002944
 20
5678983.46999948
 30
0.0
 11
8396278.140002946
 21
5678979.299999483
 31
0.0
  0
LINE
  5
1000093
330
16
100
AcDbEntity
  8
0
  6
Continuous
370
    18
100
AcDbLine
 10
8396278.140002946
 20
5678979.299999483
 30
0.0
 11
8396272.930002945
 21
5678978.63999948
 31
0.0
  0
LINE
  5
1000094
330
16
100
AcDbEntity
  8
0
  6
Continuous
370
    18
100
AcDbLine
 10
8396272.930002945
 20
5678978.63999948
 30
0.0
 11
8396269.150002947
 21
5678979.34999948
 31
0.0
  0
LINE
  5
1000095
330
16
100
AcDbEntity
  8
0
  6
Continuous
370
    18
100
AcDbLine
 10
8396269.150002947
 20
5678979.34999948
 30
0.0
 11
8396283.300002945
 21
5679000.959999484
 31
0.0
  0
LINE
  5
1000096
330
16
100
AcDbEntity
  8
0
  6
Continuous
370
    18
100
AcDbLine
 10
8396283.300002945
 20
5679000.959999484
 30
0.0
 11
8396329.760002949
 21
5679071.849999485
 31
0.0
  0
LINE
  5
1000097
330
16
100
AcDbEntity
  8
0
  6
Continuous
370
    18
100
AcDbLine
 10
8396329.760002949
 20
5679071.849999485
 30
0.0
 11
8396278.330002946
 21
5679083.759999485
 31
0.0
  0
LINE
  5
1000098
330
16
100
AcDbEntity
  8
0
  6
Continuous
370
    18
100
AcDbLine
 10
8396278.330002946
 20
5679083.759999485
 30
0.0
 11
8396228.490002942
 21
5679010.81999948
 31
0.0
  0
LINE
  5
1000099
330
16
100
AcDbEntity
  8
0
  6
Continuous
370
    18
100
AcDbLine
 10
8396228.490002942
 20
5679010.81999948
 30
0.0
 11
8396214.220002942
 21
5678989.949999482
 31
0.0
  0
LINE
  5
100009A
330
16
100
AcDbEntity
  8
0
  6
Continuous
370
    18
100
AcDbLine
 10
8396214.220002942
 20
5678989.949999482
 30
0.0
 11
8396202.580002942
 21
5678992.419999481
 31
0.0
  0
LINE
  5
100009B
330
16
100
AcDbEntity
  8
0
  6
Continuous
370
    18
100
AcDbLine
 10
8396202.580002942
 20
5678992.419999481
 30
0.0
 11
8396201.780002941
 21
5678989.529999482
 31
0.0
  0
LINE
  5
100009C
330
16
100
AcDbEntity
  8
0
  6
Continuous
370
    18
100
AcDbLine
 10
8396201.780002941
 20
5678989.529999482
 30
0.0
 11
8396191.570002942
 21
5678992.229999484
 31
0.0
  0
LINE
  5
100009D
330
16
100
AcDbEntity
  8
0
  6
Continuous
370
    18
100
AcDbLine
 10
8396191.570002942
 20
5678992.229999484
 30
0.0
 11
8396188.890002942
 21
5678981.45999948
 31
0.0
  0
LINE
  5
100009E
330
16
100
AcDbEntity
  8
0
  6
Continuous
370
    18
100
AcDbLine
 10
8396188.890002942
 20
5678981.45999948
 30
0.0
 11
8396194.74000294
 21
5678979.899999482
 31
0.0
  0
LINE
  5
100009F
330
16
100
AcDbEntity
  8
0
  6
Continuous
370
    18
100
AcDbLine
 10
8396194.74000294
 20
5678979.899999482
 30
0.0
 11
8396186.920002939
 21
5678950.699999481
 31
0.0
  0
LINE
  5
10000A0
330
16
100
AcDbEntity
  8
0
  6
Continuous
370
    18
100
AcDbLine
 10
8396186.920002939
 20
5678950.699999481
 30
0.0
 11
8396186.600002938
 21
5678949.549999479
 31
0.0
  0
LINE
  5
10000A1
330
16
100
AcDbEntity
  8
0
  6
Continuous
370
    18
100
AcDbLine
 10
8396186.600002938
 20
5678949.549999479
 30
0.0
 11
8396171.430002938
 21
5678927.329999484
 31
0.0
  0
LINE
  5
10000A2
330
16
100
AcDbEntity
  8
0
  6
Continuous
370
    18
100
AcDbLine
 10
8396171.430002938
 20
5678927.329999484
 30
0.0
 11
8396178.500002939
 21
5678953.229999482
 31
0.0
  0
LINE
  5
10000A3
330
16
100
AcDbEntity
  8
0
  6
Continuous
370
    18
100
AcDbLine
 10
8396178.500002939
 20
5678953.229999482
 30
0.0
 11
8396132.400002937
 21
5678967.649999482
 31
0.0
  0
LINE
  5
10000A4
330
16
100
AcDbEntity
  8
0
  6
Continuous
370
    18
100
AcDbLine
 10
8396250.840002943
 20
5679124.359999483
 30
0.0
 11
8396271.360002943
 21
5679120.219999481
 31
0.0
  0
LINE
  5
10000A5
330
16
100
AcDbEntity
  8
0
  6
Continuous
370
    18
100
AcDbLine
 10
8396271.360002943
 20
5679120.219999481
 30
0.0
 11
8396305.470002948
 21
5679112.029999483
 31
0.0
  0
LINE
  5
10000A6
330
16
100
AcDbEntity
  8
0
  6
Continuous
370
    18
100
AcDbLine
 10
8396305.470002948
 20
5679112.029999483
 30
0.0
 11
8396322.880002948
 21
5679108.309999485
 31
0.0
  0
LINE
  5
10000A7
330
16
100
AcDbEntity
  8
0
  6
Continuous
370
    18
100
AcDbLine
 10
8396322.880002948
 20
5679108.309999485
 30
0.0
 11
8396326.640002948
 21
5679126.559999483
 31
0.0
  0
LINE
  5
10000A8
330
16
100
AcDbEntity
  8
0
  6
Continuous
370
    18
100
AcDbLine
 10
8396326.640002948
 20
5679126.559999483
 30
0.0
 11
8396285.540002944
 21
5679136.349999481
 31
0.0
  0
LINE
  5
10000A9
330
16
100
AcDbEntity
  8
0
  6
Continuous
370
    18
100
AcDbLine
 10
8396285.540002944
 20
5679136.349999481
 30
0.0
 11
8396276.500002944
 21
5679139.219999484
 31
0.0
  0
LINE
  5
10000AA
330
16
100
AcDbEntity
  8
0
  6
Continuous
370
    18
100
AcDbLine
 10
8396276.500002944
 20
5679139.219999484
 30
0.0
 11
8396268.080002943
 21
5679143.499999484
 31
0.0
  0
LINE
  5
10000AB
330
16
100
AcDbEntity
  8
0
  6
Continuous
370
    18
100
AcDbLine
 10
8396268.080002943
 20
5679143.499999484
 30
0.0
 11
8396259.970002942
 21
5679144.989999481
 31
0.0
  0
LINE
  5
10000AC
330
16
100
AcDbEntity
  8
0
  6
Continuous
370
    18
100
AcDbLine
 10
8396259.970002942
 20
5679144.989999481
 30
0.0
 11
8396246.670002943
 21
5679124.939999485
 31
0.0
  0
LINE
  5
10000AD
330
16
100
AcDbEntity
  8
0
  6
Continuous
370
    18
100
AcDbLine
 10
8396246.670002943
 20
5679124.939999485
 30
0.0
 11
8396250.840002943
 21
5679124.359999483
 31
0.0
  0
LINE
  5
10000AE
330
16
100
AcDbEntity
  8
0
  6
Continuous
370
    18
100
AcDbLine
 10
8396231.040002941
 20
5679148.609999483
 30
0.0
 11
8396225.240002943
 21
5679127.799999482
 31
0.0
  0
LINE
  5
10000AF
330
16
100
AcDbEntity
  8
0
  6
Continuous
370
    18
100
AcDbLine
 10
8396225.240002943
 20
5679127.799999482
 30
0.0
 11
8396220.44000294
 21
5679110.629999481
 31
0.0
  0
LINE
  5
10000B0
330
16
100
AcDbEntity
  8
0
  6
Continuous
370
    18
100
AcDbLine
 10
8396220.44000294
 20
5679110.629999481
 30
0.0
 11
8396151.560002937
 21
5679124.829999481
 31
0.0
  0
LINE
  5
10000B1
330
16
100
AcDbEntity
  8
0
  6
Continuous
370
    18
100
AcDbLine
 10
8396151.560002937
 20
5679124.829999481
 30
0.0
 11
8396151.200002934
 21
5679132.619999485
 31
0.0
  0
LINE
  5
10000B2
330
16
100
AcDbEntity
  8
0
  6
Continuous
370
    18
100
AcDbLine
 10
8396151.200002934
 20
5679132.619999485
 30
0.0
 11
8396176.590002939
 21
5679133.749999481
 31
0.0
  0
LINE
  5
10000B3
330
16
100
AcDbEntity
  8
0
  6
Continuous
370
    18
100
AcDbLine
 10
8396176.590002939
 20
5679133.749999481
 30
0.0
 11
8396181.390002942
 21
5679133.969999482
 31
0.0
  0
LINE
  5
10000B4
330
16
100
AcDbEntity
  8
0
  6
Continuous
370
    18
100
AcDbLine
 10
8396181.390002942
 20
5679133.969999482
 30
0.0
 11
8396220.610002941
 21
5679149.709999484
 31
0.0
  0
LINE
  5
10000B5
330
16
100
AcDbEntity
  8
0
  6
Continuous
370
    18
100
AcDbLine
 10
8396220.610002941
 20
5679149.709999484
 30
0.0
 11
8396231.52000294
 21
5679150.309999482
 31
0.0
  0
LINE
  5
10000B6
330
16
100
AcDbEntity
  8
0
  6
Continuous
370
    18
100
AcDbLine
 10
8396231.52000294
 20
5679150.309999482
 30
0.0
 11
8396231.040002941
 21
5679148.609999483
 31
0.0
  0
LINE
  5
10000B7
330
16
100
AcDbEntity
  8
0
  6
Continuous
370
    18
100
AcDbLine
 10
8396250.840002943
 20
5679124.359999483
 30
0.0
 11
8396246.670002943
 21
5679124.939999485
 31
0.0
  0
LINE
  5
10000B8
330
16
100
AcDbEntity
  8
0
  6
Continuous
370
    18
100
AcDbLine
 10
8396246.670002943
 20
5679124.939999485
 30
0.0
 11
8396259.970002942
 21
5679144.989999481
 31
0.0
  0
LINE
  5
10000B9
330
16
100
AcDbEntity
  8
0
  6
Continuous
370
    18
100
AcDbLine
 10
8396259.970002942
 20
5679144.989999481
 30
0.0
 11
8396268.080002943
 21
5679143.499999484
 31
0.0
  0
LINE
  5
10000BA
330
16
100
AcDbEntity
  8
0
  6
Continuous
370
    18
100
AcDbLine
 10
8396268.080002943
 20
5679143.499999484
 30
0.0
 11
8396276.500002944
 21
5679139.219999484
 31
0.0
  0
LINE
  5
10000BB
330
16
100
AcDbEntity
  8
0
  6
Continuous
370
    18
100
AcDbLine
 10
8396276.500002944
 20
5679139.219999484
 30
0.0
 11
8396285.540002944
 21
5679136.349999481
 31
0.0
  0
LINE
  5
10000BC
330
16
100
AcDbEntity
  8
0
  6
Continuous
370
    18
100
AcDbLine
 10
8396285.540002944
 20
5679136.349999481
 30
0.0
 11
8396326.640002948
 21
5679126.559999483
 31
0.0
  0
LINE
  5
10000BD
330
16
100
AcDbEntity
  8
0
  6
Continuous
370
    18
100
AcDbLine
 10
8396326.640002948
 20
5679126.559999483
 30
0.0
 11
8396322.880002948
 21
5679108.309999485
 31
0.0
  0
LINE
  5
10000BE
330
16
100
AcDbEntity
  8
0
  6
Continuous
370
    18
100
AcDbLine
 10
8396322.880002948
 20
5679108.309999485
 30
0.0
 11
8396305.470002948
 21
5679112.029999483
 31
0.0
  0
LINE
  5
10000BF
330
16
100
AcDbEntity
  8
0
  6
Continuous
370
    18
100
AcDbLine
 10
8396305.470002948
 20
5679112.029999483
 30
0.0
 11
8396271.360002943
 21
5679120.219999481
 31
0.0
  0
LINE
  5
10000C0
330
16
100
AcDbEntity
  8
0
  6
Continuous
370
    18
100
AcDbLine
 10
8396271.360002943
 20
5679120.219999481
 30
0.0
 11
8396250.840002943
 21
5679124.359999483
 31
0.0
  0
LINE
  5
10000C1
330
16
100
AcDbEntity
  8
0
  6
Continuous
370
    18
100
AcDbLine
 10
8396278.330002946
 20
5679083.759999485
 30
0.0
 11
8396329.760002949
 21
5679071.849999485
 31
0.0
  0
LINE
  5
10000C2
330
16
100
AcDbEntity
  8
0
  6
Continuous
370
    18
100
AcDbLine
 10
8396329.760002949
 20
5679071.849999485
 30
0.0
 11
8396283.300002945
 21
5679000.959999484
 31
0.0
  0
LINE
  5
10000C3
330
16
100
AcDbEntity
  8
0
  6
Continuous
370
    18
100
AcDbLine
 10
8396283.300002945
 20
5679000.959999484
 30
0.0
 11
8396239.220002941
 21
5679008.529999483
 31
0.0
  0
LINE
  5
10000C4
330
16
100
AcDbEntity
  8
0
  6
Continuous
370
    18
100
AcDbLine
 10
8396239.220002941
 20
5679008.529999483
 30
0.0
 11
8396228.490002942
 21
5679010.81999948
 31
0.0
  0
LINE
  5
10000C5
330
16
100
AcDbEntity
  8
0
  6
Continuous
370
    18
100
AcDbLine
 10
8396228.490002942
 20
5679010.81999948
 30
0.0
 11
8396278.330002946
 21
5679083.759999485
 31
0.0
  0
LINE
  5
10000C6
330
16
100
AcDbEntity
  8
0
  6
Continuous
370
    18
100
AcDbLine
 10
8396151.560002937
 20
5679124.829999481
 30
0.0
 11
8396220.44000294
 21
5679110.629999481
 31
0.0
  0
LINE
  5
10000C7
330
16
100
AcDbEntity
  8
0
  6
Continuous
370
    18
100
AcDbLine
 10
8396220.44000294
 20
5679110.629999481
 30
0.0
 11
8396227.630002941
 21
5679106.419999484
 31
0.0
  0
LINE
  5
10000C8
330
16
100
AcDbEntity
  8
0
  6
Continuous
370
    18
100
AcDbLine
 10
8396227.630002941
 20
5679106.419999484
 30
0.0
 11
8396132.400002937
 21
5678967.649999482
 31
0.0
  0
LINE
  5
10000C9
330
16
100
AcDbEntity
  8
0
  6
Continuous
370
    18
100
AcDbLine
 10
8396132.400002937
 20
5678967.649999482
 30
0.0
 11
8396104.230002936
 21
5678976.459999478
 31
0.0
  0
LINE
  5
10000CA
330
16
100
AcDbEntity
  8
0
  6
Continuous
370
    18
100
AcDbLine
 10
8396104.230002936
 20
5678976.459999478
 30
0.0
 11
8396101.740002935
 21
5678977.239999482
 31
0.0
  0
LINE
  5
10000CB
330
16
100
AcDbEntity
  8
0
  6
Continuous
370
    18
100
AcDbLine
 10
8396101.740002935
 20
5678977.239999482
 30
0.0
 11
8396075.040002932
 21
5678985.599999481
 31
0.0
  0
LINE
  5
10000CC
330
16
100
AcDbEntity
  8
0
  6
Continuous
370
    18
100
AcDbLine
 10
8396075.040002932
 20
5678985.599999481
 30
0.0
 11
8396056.920002932
 21
5678991.25999948
 31
0.0
  0
LINE
  5
10000CD
330
16
100
AcDbEntity
  8
0
  6
Continuous
370
    18
100
AcDbLine
 10
8396056.920002932
 20
5678991.25999948
 30
0.0
 11
8396037.64000293
 21
5679065.999999478
 31
0.0
  0
LINE
  5
10000CE
330
16
100
AcDbEntity
  8
0
  6
Continuous
370
    18
100
AcDbLine
 10
8396037.64000293
 20
5679065.999999478
 30
0.0
 11
8396035.65000293
 21
5679073.719999482
 31
0.0
  0
LINE
  5
10000CF
330
16
100
AcDbEntity
  8
0
  6
Continuous
370
    18
100
AcDbLine
 10
8396035.65000293
 20
5679073.719999482
 30
0.0
 11
8396030.97000293
 21
5679091.849999481
 31
0.0
  0
LINE
  5
10000D0
330
16
100
AcDbEntity
  8
0
  6
Continuous
370
    18
100
AcDbLine
 10
8396030.97000293
 20
5679091.849999481
 30
0.0
 11
8396027.500002931
 21
5679101.939999482
 31
0.0
  0
LINE
  5
10000D1
330
16
100
AcDbEntity
  8
0
  6
Continuous
370
    18
100
AcDbLine
 10
8396027.500002931
 20
5679101.939999482
 30
0.0
 11
8396042.19000293
 21
5679102.649999481
 31
0.0
  0
LINE
  5
10000D2
330
16
100
AcDbEntity
  8
0
  6
Continuous
370
    18
100
AcDbLine
 10
8396042.19000293
 20
5679102.649999481
 30
0.0
 11
8396117.090002931
 21
5679106.219999481
 31
0.0
  0
LINE
  5
10000D3
330
16
100
AcDbEntity
  8
0
  6
Continuous
370
    18
100
AcDbLine
 10
8396117.090002931
 20
5679106.219999481
 30
0.0
 11
8396130.410002935
 21
5679110.119999482
 31
0.0
  0
LINE
  5
10000D4
330
16
100
AcDbEntity
  8
0
  6
Continuous
370
    18
100
AcDbLine
 10
8396130.410002935
 20
5679110.119999482
 30
0.0
 11
8396144.140002938
 21
5679119.679999482
 31
0.0
  0
LINE
  5
10000D5
330
16
100
AcDbEntity
  8
0
  6
Continuous
370
    18
100
AcDbLine
 10
8396144.140002938
 20
5679119.679999482
 30
0.0
 11
8396151.560002937
 21
5679124.829999481
 31
0.0
  0
LINE
  5
10000D6
330
16
100
AcDbEntity
  8
0
  6
Continuous
370
    18
100
AcDbLine
 10
8396130.410002935
 20
5679110.119999482
 30
0.0
 11
8396117.090002931
 21
5679106.219999481
 31
0.0
  0
LINE
  5
10000D7
330
16
100
AcDbEntity
  8
0
  6
Continuous
370
    18
100
AcDbLine
 10
8396117.090002931
 20
5679106.219999481
 30
0.0
 11
8396042.19000293
 21
5679102.649999481
 31
0.0
  0
LINE
  5
10000D8
330
16
100
AcDbEntity
  8
0
  6
Continuous
370
    18
100
AcDbLine
 10
8396042.19000293
 20
5679102.649999481
 30
0.0
 11
8396039.06000293
 21
5679126.599999481
 31
0.0
  0
LINE
  5
10000D9
330
16
100
AcDbEntity
  8
0
  6
Continuous
370
    18
100
AcDbLine
 10
8396039.06000293
 20
5679126.599999481
 30
0.0
 11
8396015.190002925
 21
5679138.879999481
 31
0.0
  0
LINE
  5
10000DA
330
16
100
AcDbEntity
  8
0
  6
Continuous
370
    18
100
AcDbLine
 10
8396015.190002925
 20
5679138.879999481
 30
0.0
 11
8396031.620002929
 21
5679169.799999479
 31
0.0
  0
LINE
  5
10000DB
330
16
100
AcDbEntity
  8
0
  6
Continuous
370
    18
100
AcDbLine
 10
8396031.620002929
 20
5679169.799999479
 30
0.0
 11
8396037.330002929
 21
5679171.82999948
 31
0.0
  0
LINE
  5
10000DC
330
16
100
AcDbEntity
  8
0
  6
Continuous
370
    18
100
AcDbLine
 10
8396037.330002929
 20
5679171.82999948
 30
0.0
 11
8396039.820002931
 21
5679171.919999482
 31
0.0
  0
LINE
  5
10000DD
330
16
100
AcDbEntity
  8
0
  6
Continuous
370
    18
100
AcDbLine
 10
8396039.820002931
 20
5679171.919999482
 30
0.0
 11
8396043.490002931
 21
5679172.029999481
 31
0.0
  0
LINE
  5
10000DE
330
16
100
AcDbEntity
  8
0
  6
Continuous
370
    18
100
AcDbLine
 10
8396043.490002931
 20
5679172.029999481
 30
0.0
 11
8396108.460002935
 21
5679174.079999482
 31
0.0
  0
LINE
  5
10000DF
330
16
100
AcDbEntity
  8
0
  6
Continuous
370
    18
100
AcDbLine
 10
8396108.460002935
 20
5679174.079999482
 30
0.0
 11
8396111.990002935
 21
5679170.899999482
 31
0.0
  0
LINE
  5
10000E0
330
16
100
AcDbEntity
  8
0
  6
Continuous
370
    18
100
AcDbLine
 10
8396111.990002935
 20
5679170.899999482
 30
0.0
 11
8396127.120002935
 21
5679171.66999948
 31
0.0
  0
LINE
  5
10000E1
330
16
100
AcDbEntity
  8
0
  6
Continuous
370
    18
100
AcDbLine
 10
8396127.120002935
 20
5679171.66999948
 30
0.0
 11
8396131.230002936
 21
5679161.59999948
 31
0.0
  0
LINE
  5
10000E2
330
16
100
AcDbEntity
  8
0
  6
Continuous
370
    18
100
AcDbLine
 10
8396131.230002936
 20
5679161.59999948
 30
0.0
 11
8396137.180002936
 21
5679148.099999481
 31
0.0
  0
LINE
  5
10000E3
330
16
100
AcDbEntity
  8
0
  6
Continuous
370
    18
100
AcDbLine
 10
8396137.180002936
 20
5679148.099999481
 30
0.0
 11
8396140.100002934
 21
5679139.84999948
 31
0.0
  0
LINE
  5
10000E4
330
16
100
AcDbEntity
  8
0
  6
Continuous
370
    18
100
AcDbLine
 10
8396140.100002934
 20
5679139.84999948
 30
0.0
 11
8396141.760002935
 21
5679135.769999479
 31
0.0
  0
LINE
  5
10000E5
330
16
100
AcDbEntity
  8
0
  6
Continuous
370
    18
100
AcDbLine
 10
8396141.760002935
 20
5679135.769999479
 30
0.0
 11
8396143.200002937
 21
5679132.259999481
 31
0.0
  0
LINE
  5
10000E6
330
16
100
AcDbEntity
  8
0
  6
Continuous
370
    18
100
AcDbLine
 10
8396143.200002937
 20
5679132.259999481
 30
0.0
 11
8396151.200002934
 21
5679132.619999485
 31
0.0
  0
LINE
  5
10000E7
330
16
100
AcDbEntity
  8
0
  6
Continuous
370
    18
100
AcDbLine
 10
8396151.200002934
 20
5679132.619999485
 30
0.0
 11
8396151.560002937
 21
5679124.829999481
 31
0.0
  0
LINE
  5
10000E8
330
16
100
AcDbEntity
  8
0
  6
Continuous
370
    18
100
AcDbLine
 10
8396151.560002937
 20
5679124.829999481
 30
0.0
 11
8396144.140002938
 21
5679119.679999482
 31
0.0
  0
LINE
  5
10000E9
330
16
100
AcDbEntity
  8
0
  6
Continuous
370
    18
100
AcDbLine
 10
8396144.140002938
 20
5679119.679999482
 30
0.0
 11
8396130.410002935
 21
5679110.119999482
 31
0.0
  0
LINE
  5
10000EA
330
16
100
AcDbEntity
  8
0
  6
Continuous
370
    18
100
AcDbLine
 10
8396227.690002941
 20
5679172.649999485
 30
0.0
 11
8396236.480002942
 21
5679168.119999484
 31
0.0
  0
LINE
  5
10000EB
330
16
100
AcDbEntity
  8
0
  6
Continuous
370
    18
100
AcDbLine
 10
8396236.480002942
 20
5679168.119999484
 30
0.0
 11
8396231.52000294
 21
5679150.309999482
 31
0.0
  0
LINE
  5
10000EC
330
16
100
AcDbEntity
  8
0
  6
Continuous
370
    18
100
AcDbLine
 10
8396231.52000294
 20
5679150.309999482
 30
0.0
 11
8396220.610002941
 21
5679149.709999484
 31
0.0
  0
LINE
  5
10000ED
330
16
100
AcDbEntity
  8
0
  6
Continuous
370
    18
100
AcDbLine
 10
8396220.610002941
 20
5679149.709999484
 30
0.0
 11
8396181.390002942
 21
5679133.969999482
 31
0.0
  0
LINE
  5
10000EE
330
16
100
AcDbEntity
  8
0
  6
Continuous
370
    18
100
AcDbLine
 10
8396181.390002942
 20
5679133.969999482
 30
0.0
 11
8396176.590002939
 21
5679133.749999481
 31
0.0
  0
LINE
  5
10000EF
330
16
100
AcDbEntity
  8
0
  6
Continuous
370
    18
100
AcDbLine
 10
8396176.590002939
 20
5679133.749999481
 30
0.0
 11
8396151.200002934
 21
5679132.619999485
 31
0.0
  0
LINE
  5
10000F0
330
16
100
AcDbEntity
  8
0
  6
Continuous
370
    18
100
AcDbLine
 10
8396151.200002934
 20
5679132.619999485
 30
0.0
 11
8396149.140002936
 21
5679177.779999482
 31
0.0
  0
LINE
  5
10000F1
330
16
100
AcDbEntity
  8
0
  6
Continuous
370
    18
100
AcDbLine
 10
8396149.140002936
 20
5679177.779999482
 30
0.0
 11
8396156.780002936
 21
5679182.239999481
 31
0.0
  0
LINE
  5
10000F2
330
16
100
AcDbEntity
  8
0
  6
Continuous
370
    18
100
AcDbLine
 10
8396156.780002936
 20
5679182.239999481
 30
0.0
 11
8396163.890002938
 21
5679182.659999484
 31
0.0
  0
LINE
  5
10000F3
330
16
100
AcDbEntity
  8
0
  6
Continuous
370
    18
100
AcDbLine
 10
8396163.890002938
 20
5679182.659999484
 30
0.0
 11
8396203.91000294
 21
5679184.729999482
 31
0.0
  0
LINE
  5
10000F4
330
16
100
AcDbEntity
  8
0
  6
Continuous
370
    18
100
AcDbLine
 10
8396203.91000294
 20
5679184.729999482
 30
0.0
 11
8396204.40000294
 21
5679171.099999481
 31
0.0
  0
LINE
  5
10000F5
330
16
100
AcDbEntity
  8
0
  6
Continuous
370
    18
100
AcDbLine
 10
8396204.40000294
 20
5679171.099999481
 30
0.0
 11
8396227.690002941
 21
5679172.649999485
 31
0.0
  0
LINE
  5
10000F6
330
16
100
AcDbEntity
  8
0
  6
Continuous
370
    18
100
AcDbLine
 10
8396466.210002959
 20
5679102.799999485
 30
0.0
 11
8396465.340002956
 21
5679101.279999485
 31
0.0
  0
LINE
  5
10000F7
330
16
100
AcDbEntity
  8
0
  6
Continuous
370
    18
100
AcDbLine
 10
8396465.340002956
 20
5679101.279999485
 30
0.0
 11
8396477.730002956
 21
5679095.599999484
 31
0.0
  0
LINE
  5
10000F8
330
16
100
AcDbEntity
  8
0
  6
Continuous
370
    18
100
AcDbLine
 10
8396477.730002956
 20
5679095.599999484
 30
0.0
 11
8396466.250002957
 21
5679073.729999486
 31
0.0
  0
LINE
  5
10000F9
330
16
100
AcDbEntity
  8
0
  6
Continuous
370
    18
100
AcDbLine
 10
8396466.250002957
 20
5679073.729999486
 30
0.0
 11
8396397.070002953
 21
5679109.759999485
 31
0.0
  0
LINE
  5
10000FA
330
16
100
AcDbEntity
  8
0
  6
Continuous
370
    18
100
AcDbLine
 10
8396397.070002953
 20
5679109.759999485
 30
0.0
 11
8396371.240002951
 21
5679116.209999484
 31
0.0
  0
LINE
  5
10000FB
330
16
100
AcDbEntity
  8
0
  6
Continuous
370
    18
100
AcDbLine
 10
8396371.240002951
 20
5679116.209999484
 30
0.0
 11
8396322.170002944
 21
5679141.369999481
 31
0.0
  0
LINE
  5
10000FC
330
16
100
AcDbEntity
  8
0
  6
Continuous
370
    18
100
AcDbLine
 10
8396322.170002944
 20
5679141.369999481
 30
0.0
 11
8396285.540002944
 21
5679153.299999483
 31
0.0
  0
LINE
  5
10000FD
330
16
100
AcDbEntity
  8
0
  6
Continuous
370
    18
100
AcDbLine
 10
8396285.540002944
 20
5679153.299999483
 30
0.0
 11
8396231.52000294
 21
5679150.309999482
 31
0.0
  0
LINE
  5
10000FE
330
16
100
AcDbEntity
  8
0
  6
Continuous
370
    18
100
AcDbLine
 10
8396231.52000294
 20
5679150.309999482
 30
0.0
 11
8396236.480002942
 21
5679168.119999484
 31
0.0
  0
LINE
  5
10000FF
330
16
100
AcDbEntity
  8
0
  6
Continuous
370
    18
100
AcDbLine
 10
8396236.480002942
 20
5679168.119999484
 30
0.0
 11
8396227.690002941
 21
5679172.649999485
 31
0.0
  0
LINE
  5
1000100
330
16
100
AcDbEntity
  8
0
  6
Continuous
370
    18
100
AcDbLine
 10
8396227.690002941
 20
5679172.649999485
 30
0.0
 11
8396237.560002941
 21
5679188.449999482
 31
0.0
  0
LINE
  5
1000101
330
16
100
AcDbEntity
  8
0
  6
Continuous
370
    18
100
AcDbLine
 10
8396237.560002941
 20
5679188.449999482
 30
0.0
 11
8396246.970002941
 21
5679207.649999482
 31
0.0
  0
LINE
  5
1000102
330
16
100
AcDbEntity
  8
0
  6
Continuous
370
    18
100
AcDbLine
 10
8396246.970002941
 20
5679207.649999482
 30
0.0
 11
8396264.140002941
 21
5679198.829999484
 31
0.0
  0
LINE
  5
1000103
330
16
100
AcDbEntity
  8
0
  6
Continuous
370
    18
100
AcDbLine
 10
8396264.140002941
 20
5679198.829999484
 30
0.0
 11
8396312.610002944
 21
5679173.74999948
 31
0.0
  0
LINE
  5
1000104
330
16
100
AcDbEntity
  8
0
  6
Continuous
370
    18
100
AcDbLine
 10
8396312.610002944
 20
5679173.74999948
 30
0.0
 11
8396338.730002948
 21
5679165.42999948
 31
0.0
  0
LINE
  5
1000105
330
16
100
AcDbEntity
  8
0
  6
Continuous
370
    18
100
AcDbLine
 10
8396338.730002948
 20
5679165.42999948
 30
0.0
 11
8396381.560002954
 21
5679143.709999484
 31
0.0
  0
LINE
  5
1000106
330
16
100
AcDbEntity
  8
0
  6
Continuous
370
    18
100
AcDbLine
 10
8396381.560002954
 20
5679143.709999484
 30
0.0
 11
8396387.020002949
 21
5679141.389999482
 31
0.0
  0
LINE
  5
1000107
330
16
100
AcDbEntity
  8
0
  6
Continuous
370
    18
100
AcDbLine
 10
8396387.020002949
 20
5679141.389999482
 30
0.0
 11
8396391.200002948
 21
5679140.029999486
 31
0.0
  0
LINE
  5
1000108
330
16
100
AcDbEntity
  8
0
  6
Continuous
370
    18
100
AcDbLine
 10
8396391.200002948
 20
5679140.029999486
 30
0.0
 11
8396414.730002952
 21
5679134.499999483
 31
0.0
  0
LINE
  5
1000109
330
16
100
AcDbEntity
  8
0
  6
Continuous
370
    18
100
AcDbLine
 10
8396414.730002952
 20
5679134.499999483
 30
0.0
 11
8396466.990002958
 21
5679107.459999484
 31
0.0
  0
LINE
  5
100010A
330
16
100
AcDbEntity
  8
0
  6
Continuous
370
    18
100
AcDbLine
 10
8396466.990002958
 20
5679107.459999484
 30
0.0
 11
8396467.380002956
 21
5679105.629999485
 31
0.0
  0
LINE
  5
100010B
330
16
100
AcDbEntity
  8
0
  6
Continuous
370
    18
100
AcDbLine
 10
8396467.380002956
 20
5679105.629999485
 30
0.0
 11
8396466.210002959
 21
5679102.799999485
 31
0.0
  0
LINE
  5
100010C
330
16
100
AcDbEntity
  8
0
  6
Continuous
370
    18
100
AcDbLine
 10
8396203.91000294
 20
5679184.729999482
 30
0.0
 11
8396163.890002938
 21
5679182.659999484
 31
0.0
  0
LINE
  5
100010D
330
16
100
AcDbEntity
  8
0
  6
Continuous
370
    18
100
AcDbLine
 10
8396163.890002938
 20
5679182.659999484
 30
0.0
 11
8396163.390002937
 21
5679191.639999483
 31
0.0
  0
LINE
  5
100010E
330
16
100
AcDbEntity
  8
0
  6
Continuous
370
    18
100
AcDbLine
 10
8396163.390002937
 20
5679191.639999483
 30
0.0
 11
8396231.300002943
 21
5679194.759999485
 31
0.0
  0
LINE
  5
100010F
330
16
100
AcDbEntity
  8
0
  6
Continuous
370
    18
100
AcDbLine
 10
8396231.300002943
 20
5679194.759999485
 30
0.0
 11
8396240.340002943
 21
5679211.049999481
 31
0.0
  0
LINE
  5
1000110
330
16
100
AcDbEntity
  8
0
  6
Continuous
370
    18
100
AcDbLine
 10
8396240.340002943
 20
5679211.049999481
 30
0.0
 11
8396243.270002941
 21
5679216.339999481
 31
0.0
  0
LINE
  5
1000111
330
16
100
AcDbEntity
  8
0
  6
Continuous
370
    18
100
AcDbLine
 10
8396243.270002941
 20
5679216.339999481
 30
0.0
 11
8396243.850002942
 21
5679213.459999484
 31
0.0
  0
LINE
  5
1000112
330
16
100
AcDbEntity
  8
0
  6
Continuous
370
    18
100
AcDbLine
 10
8396243.850002942
 20
5679213.459999484
 30
0.0
 11
8396248.560002941
 21
5679210.87999948
 31
0.0
  0
LINE
  5
1000113
330
16
100
AcDbEntity
  8
0
  6
Continuous
370
    18
100
AcDbLine
 10
8396248.560002941
 20
5679210.87999948
 30
0.0
 11
8396246.970002941
 21
5679207.649999482
 31
0.0
  0
LINE
  5
1000114
330
16
100
AcDbEntity
  8
0
  6
Continuous
370
    18
100
AcDbLine
 10
8396246.970002941
 20
5679207.649999482
 30
0.0
 11
8396237.560002941
 21
5679188.449999482
 31
0.0
  0
LINE
  5
1000115
330
16
100
AcDbEntity
  8
0
  6
Continuous
370
    18
100
AcDbLine
 10
8396237.560002941
 20
5679188.449999482
 30
0.0
 11
8396227.690002941
 21
5679172.649999485
 31
0.0
  0
LINE
  5
1000116
330
16
100
AcDbEntity
  8
0
  6
Continuous
370
    18
100
AcDbLine
 10
8396227.690002941
 20
5679172.649999485
 30
0.0
 11
8396204.40000294
 21
5679171.099999481
 31
0.0
  0
LINE
  5
1000117
330
16
100
AcDbEntity
  8
0
  6
Continuous
370
    18
100
AcDbLine
 10
8396204.40000294
 20
5679171.099999481
 30
0.0
 11
8396203.91000294
 21
5679184.729999482
 31
0.0
  0
LINE
  5
1000118
330
16
100
AcDbEntity
  8
0
  6
Continuous
370
    18
100
AcDbLine
 10
8396466.250002957
 20
5679073.729999486
 30
0.0
 11
8396477.730002956
 21
5679095.599999484
 31
0.0
  0
LINE
  5
1000119
330
16
100
AcDbEntity
  8
0
  6
Continuous
370
    18
100
AcDbLine
 10
8396477.730002956
 20
5679095.599999484
 30
0.0
 11
8396487.730002956
 21
5679114.649999486
 31
0.0
  0
LINE
  5
100011A
330
16
100
AcDbEntity
  8
0
  6
Continuous
370
    18
100
AcDbLine
 10
8396487.730002956
 20
5679114.649999486
 30
0.0
 11
8396505.110002957
 21
5679126.169999485
 31
0.0
  0
LINE
  5
100011B
330
16
100
AcDbEntity
  8
0
  6
Continuous
370
    18
100
AcDbLine
 10
8396505.110002957
 20
5679126.169999485
 30
0.0
 11
8396513.110002954
 21
5679121.799999484
 31
0.0
  0
LINE
  5
100011C
330
16
100
AcDbEntity
  8
0
  6
Continuous
370
    18
100
AcDbLine
 10
8396513.110002954
 20
5679121.799999484
 30
0.0
 11
8396528.38000296
 21
5679148.489999485
 31
0.0
  0
LINE
  5
100011D
330
16
100
AcDbEntity
  8
0
  6
Continuous
370
    18
100
AcDbLine
 10
8396528.38000296
 20
5679148.489999485
 30
0.0
 11
8396530.220002961
 21
5679147.529999483
 31
0.0
  0
LINE
  5
100011E
330
16
100
AcDbEntity
  8
0
  6
Continuous
370
    18
100
AcDbLine
 10
8396530.220002961
 20
5679147.529999483
 30
0.0
 11
8396589.800002963
 21
5679116.409999486
 31
0.0
  0
LINE
  5
100011F
330
16
100
AcDbEntity
  8
0
  6
Continuous
370
    18
100
AcDbLine
 10
8396589.800002963
 20
5679116.409999486
 30
0.0
 11
8396603.320002963
 21
5679109.349999484
 31
0.0
  0
LINE
  5
1000120
330
16
100
AcDbEntity
  8
0
  6
Continuous
370
    18
100
AcDbLine
 10
8396603.320002963
 20
5679109.349999484
 30
0.0
 11
8396613.070002965
 21
5679104.249999485
 31
0.0
  0
LINE
  5
1000121
330
16
100
AcDbEntity
  8
0
  6
Continuous
370
    18
100
AcDbLine
 10
8396613.070002965
 20
5679104.249999485
 30
0.0
 11
8396613.730002966
 21
5679100.249999484
 31
0.0
  0
LINE
  5
1000122
330
16
100
AcDbEntity
  8
0
  6
Continuous
370
    18
100
AcDbLine
 10
8396613.730002966
 20
5679100.249999484
 30
0.0
 11
8396617.230002966
 21
5679079.099999484
 31
0.0
  0
LINE
  5
1000123
330
16
100
AcDbEntity
  8
0
  6
Continuous
370
    18
100
AcDbLine
 10
8396617.230002966
 20
5679079.099999484
 30
0.0
 11
8396608.310002966
 21
5679062.299999485
 31
0.0
  0
LINE
  5
1000124
330
16
100
AcDbEntity
  8
0
  6
Continuous
370
    18
100
AcDbLine
 10
8396608.310002966
 20
5679062.299999485
 30
0.0
 11
8396594.900002963
 21
5679056.589999484
 31
0.0
  0
LINE
  5
1000125
330
16
100
AcDbEntity
  8
0
  6
Continuous
370
    18
100
AcDbLine
 10
8396594.900002963
 20
5679056.589999484
 30
0.0
 11
8396559.370002961
 21
5679010.539999484
 31
0.0
  0
LINE
  5
1000126
330
16
100
AcDbEntity
  8
0
  6
Continuous
370
    18
100
AcDbLine
 10
8396559.370002961
 20
5679010.539999484
 30
0.0
 11
8396558.89000296
 21
5679009.909999485
 31
0.0
  0
LINE
  5
1000127
330
16
100
AcDbEntity
  8
0
  6
Continuous
370
    18
100
AcDbLine
 10
8396558.89000296
 20
5679009.909999485
 30
0.0
 11
8396465.500002957
 21
5679036.199999483
 31
0.0
  0
LINE
  5
1000128
330
16
100
AcDbEntity
  8
0
  6
Continuous
370
    18
100
AcDbLine
 10
8396465.500002957
 20
5679036.199999483
 30
0.0
 11
8396457.500002956
 21
5679054.429999484
 31
0.0
  0
LINE
  5
1000129
330
16
100
AcDbEntity
  8
0
  6
Continuous
370
    18
100
AcDbLine
 10
8396457.500002956
 20
5679054.429999484
 30
0.0
 11
8396456.880002958
 21
5679055.849999484
 31
0.0
  0
LINE
  5
100012A
330
16
100
AcDbEntity
  8
0
  6
Continuous
370
    18
100
AcDbLine
 10
8396456.880002958
 20
5679055.849999484
 30
0.0
 11
8396466.250002957
 21
5679073.729999486
 31
0.0
  0
LINE
  5
100012B
330
16
100
AcDbEntity
  8
0
  6
Continuous
370
    18
100
AcDbLine
 10
8396233.990002944
 20
5678894.409999482
 30
0.0
 11
8396232.190002942
 21
5678894.54999948
 31
0.0
  0
LINE
  5
100012C
330
16
100
AcDbEntity
  8
0
  6
Continuous
370
    18
100
AcDbLine
 10
8396232.190002942
 20
5678894.54999948
 30
0.0
 11
8396179.530002937
 21
5678908.059999481
 31
0.0
  0
LINE
  5
100012D
330
16
100
AcDbEntity
  8
0
  6
Continuous
370
    18
100
AcDbLine
 10
8396179.530002937
 20
5678908.059999481
 30
0.0
 11
8396193.690002938
 21
5678959.909999481
 31
0.0
  0
LINE
  5
100012E
330
16
100
AcDbEntity
  8
0
  6
Continuous
370
    18
100
AcDbLine
 10
8396193.690002938
 20
5678959.909999481
 30
0.0
 11
8396201.780002941
 21
5678989.529999482
 31
0.0
  0
LINE
  5
100012F
330
16
100
AcDbEntity
  8
0
  6
Continuous
370
    18
100
AcDbLine
 10
8396201.780002941
 20
5678989.529999482
 30
0.0
 11
8396202.580002942
 21
5678992.419999481
 31
0.0
  0
LINE
  5
1000130
330
16
100
AcDbEntity
  8
0
  6
Continuous
370
    18
100
AcDbLine
 10
8396202.580002942
 20
5678992.419999481
 30
0.0
 11
8396214.220002942
 21
5678989.949999482
 31
0.0
  0
LINE
  5
1000131
330
16
100
AcDbEntity
  8
0
  6
Continuous
370
    18
100
AcDbLine
 10
8396214.220002942
 20
5678989.949999482
 30
0.0
 11
8396227.980002944
 21
5678987.029999483
 31
0.0
  0
LINE
  5
1000132
330
16
100
AcDbEntity
  8
0
  6
Continuous
370
    18
100
AcDbLine
 10
8396227.980002944
 20
5678987.029999483
 30
0.0
 11
8396256.510002945
 21
5678981.70999948
 31
0.0
  0
LINE
  5
1000133
330
16
100
AcDbEntity
  8
0
  6
Continuous
370
    18
100
AcDbLine
 10
8396256.510002945
 20
5678981.70999948
 30
0.0
 11
8396233.990002944
 21
5678894.409999482
 31
0.0
  0
LINE
  5
1000134
330
16
100
AcDbEntity
  8
0
  6
Continuous
370
    18
100
AcDbLine
 10
8396227.980002944
 20
5678987.029999483
 30
0.0
 11
8396214.220002942
 21
5678989.949999482
 31
0.0
  0
LINE
  5
1000135
330
16
100
AcDbEntity
  8
0
  6
Continuous
370
    18
100
AcDbLine
 10
8396214.220002942
 20
5678989.949999482
 30
0.0
 11
8396228.490002942
 21
5679010.81999948
 31
0.0
  0
LINE
  5
1000136
330
16
100
AcDbEntity
  8
0
  6
Continuous
370
    18
100
AcDbLine
 10
8396228.490002942
 20
5679010.81999948
 30
0.0
 11
8396239.220002941
 21
5679008.529999483
 31
0.0
  0
LINE
  5
1000137
330
16
100
AcDbEntity
  8
0
  6
Continuous
370
    18
100
AcDbLine
 10
8396239.220002941
 20
5679008.529999483
 30
0.0
 11
8396283.300002945
 21
5679000.959999484
 31
0.0
  0
LINE
  5
1000138
330
16
100
AcDbEntity
  8
0
  6
Continuous
370
    18
100
AcDbLine
 10
8396283.300002945
 20
5679000.959999484
 30
0.0
 11
8396269.150002947
 21
5678979.34999948
 31
0.0
  0
LINE
  5
1000139
330
16
100
AcDbEntity
  8
0
  6
Continuous
370
    18
100
AcDbLine
 10
8396269.150002947
 20
5678979.34999948
 30
0.0
 11
8396256.510002945
 21
5678981.70999948
 31
0.0
  0
LINE
  5
100013A
330
16
100
AcDbEntity
  8
0
  6
Continuous
370
    18
100
AcDbLine
 10
8396256.510002945
 20
5678981.70999948
 30
0.0
 11
8396227.980002944
 21
5678987.029999483
 31
0.0
  0
LINE
  5
100013B
330
16
100
AcDbEntity
  8
0
  6
Continuous
370
    18
100
AcDbLine
 10
8396278.450002947
 20
5678890.819999479
 30
0.0
 11
8396233.990002944
 21
5678894.409999482
 31
0.0
  0
LINE
  5
100013C
330
16
100
AcDbEntity
  8
0
  6
Continuous
370
    18
100
AcDbLine
 10
8396233.990002944
 20
5678894.409999482
 30
0.0
 11
8396256.510002945
 21
5678981.70999948
 31
0.0
  0
LINE
  5
100013D
330
16
100
AcDbEntity
  8
0
  6
Continuous
370
    18
100
AcDbLine
 10
8396256.510002945
 20
5678981.70999948
 30
0.0
 11
8396269.150002947
 21
5678979.34999948
 31
0.0
  0
LINE
  5
100013E
330
16
100
AcDbEntity
  8
0
  6
Continuous
370
    18
100
AcDbLine
 10
8396269.150002947
 20
5678979.34999948
 30
0.0
 11
8396272.930002945
 21
5678978.63999948
 31
0.0
  0
LINE
  5
100013F
330
16
100
AcDbEntity
  8
0
  6
Continuous
370
    18
100
AcDbLine
 10
8396272.930002945
 20
5678978.63999948
 30
0.0
 11
8396278.140002946
 21
5678979.299999483
 31
0.0
  0
LINE
  5
1000140
330
16
100
AcDbEntity
  8
0
  6
Continuous
370
    18
100
AcDbLine
 10
8396278.140002946
 20
5678979.299999483
 30
0.0
 11
8396292.030002944
 21
5678983.46999948
 31
0.0
  0
LINE
  5
1000141
330
16
100
AcDbEntity
  8
0
  6
Continuous
370
    18
100
AcDbLine
 10
8396292.030002944
 20
5678983.46999948
 30
0.0
 11
8396306.330002945
 21
5678983.799999481
 31
0.0
  0
LINE
  5
1000142
330
16
100
AcDbEntity
  8
0
  6
Continuous
370
    18
100
AcDbLine
 10
8396306.330002945
 20
5678983.799999481
 30
0.0
 11
8396312.120002948
 21
5678983.089999482
 31
0.0
  0
LINE
  5
1000143
330
16
100
AcDbEntity
  8
0
  6
Continuous
370
    18
100
AcDbLine
 10
8396312.120002948
 20
5678983.089999482
 30
0.0
 11
8396320.160002947
 21
5678979.719999481
 31
0.0
  0
LINE
  5
1000144
330
16
100
AcDbEntity
  8
0
  6
Continuous
370
    18
100
AcDbLine
 10
8396320.160002947
 20
5678979.719999481
 30
0.0
 11
8396329.250002946
 21
5678974.149999485
 31
0.0
  0
LINE
  5
1000145
330
16
100
AcDbEntity
  8
0
  6
Continuous
370
    18
100
AcDbLine
 10
8396329.250002946
 20
5678974.149999485
 30
0.0
 11
8396335.31000295
 21
5678971.929999483
 31
0.0
  0
LINE
  5
1000146
330
16
100
AcDbEntity
  8
0
  6
Continuous
370
    18
100
AcDbLine
 10
8396335.31000295
 20
5678971.929999483
 30
0.0
 11
8396339.470002949
 21
5678971.259999478
 31
0.0
  0
LINE
  5
1000147
330
16
100
AcDbEntity
  8
0
  6
Continuous
370
    18
100
AcDbLine
 10
8396339.470002949
 20
5678971.259999478
 30
0.0
 11
8396317.820002947
 21
5678899.279999483
 31
0.0
  0
LINE
  5
1000148
330
16
100
AcDbEntity
  8
0
  6
Continuous
370
    18
100
AcDbLine
 10
8396317.820002947
 20
5678899.279999483
 30
0.0
 11
8396314.420002946
 21
5678895.339999481
 31
0.0
  0
LINE
  5
1000149
330
16
100
AcDbEntity
  8
0
  6
Continuous
370
    18
100
AcDbLine
 10
8396314.420002946
 20
5678895.339999481
 30
0.0
 11
8396296.820002948
 21
5678892.799999483
 31
0.0
  0
LINE
  5
100014A
330
16
100
AcDbEntity
  8
0
  6
Continuous
370
    18
100
AcDbLine
 10
8396296.820002948
 20
5678892.799999483
 30
0.0
 11
8396278.450002947
 21
5678890.819999479
 31
0.0
  0
LINE
  5
100014B
330
16
100
AcDbEntity
  8
0
  6
Continuous
370
    18
100
AcDbLine
 10
8396317.820002947
 20
5678899.279999483
 30
0.0
 11
8396339.470002949
 21
5678971.259999478
 31
0.0
  0
LINE
  5
100014C
330
16
100
AcDbEntity
  8
0
  6
Continuous
370
    18
100
AcDbLine
 10
8396339.470002949
 20
5678971.259999478
 30
0.0
 11
8396340.990002947
 21
5678971.009999481
 31
0.0
  0
LINE
  5
100014D
330
16
100
AcDbEntity
  8
0
  6
Continuous
370
    18
100
AcDbLine
 10
8396340.990002947
 20
5678971.009999481
 30
0.0
 11
8396354.55000295
 21
5678973.949999483
 31
0.0
  0
LINE
  5
100014E
330
16
100
AcDbEntity
  8
0
  6
Continuous
370
    18
100
AcDbLine
 10
8396354.55000295
 20
5678973.949999483
 30
0.0
 11
8396398.800002952
 21
5678969.349999481
 31
0.0
  0
LINE
  5
100014F
330
16
100
AcDbEntity
  8
0
  6
Continuous
370
    18
100
AcDbLine
 10
8396398.800002952
 20
5678969.349999481
 30
0.0
 11
8396379.490002953
 21
5678893.419999485
 31
0.0
  0
LINE
  5
1000150
330
16
100
AcDbEntity
  8
0
  6
Continuous
370
    18
100
AcDbLine
 10
8396379.490002953
 20
5678893.419999485
 30
0.0
 11
8396379.03000295
 21
5678893.939999482
 31
0.0
  0
LINE
  5
1000151
330
16
100
AcDbEntity
  8
0
  6
Continuous
370
    18
100
AcDbLine
 10
8396379.03000295
 20
5678893.939999482
 30
0.0
 11
8396375.12000295
 21
5678897.759999481
 31
0.0
  0
LINE
  5
1000152
330
16
100
AcDbEntity
  8
0
  6
Continuous
370
    18
100
AcDbLine
 10
8396375.12000295
 20
5678897.759999481
 30
0.0
 11
8396369.90000295
 21
5678900.399999483
 31
0.0
  0
LINE
  5
1000153
330
16
100
AcDbEntity
  8
0
  6
Continuous
370
    18
100
AcDbLine
 10
8396369.90000295
 20
5678900.399999483
 30
0.0
 11
8396359.930002949
 21
5678902.229999482
 31
0.0
  0
LINE
  5
1000154
330
16
100
AcDbEntity
  8
0
  6
Continuous
370
    18
100
AcDbLine
 10
8396359.930002949
 20
5678902.229999482
 30
0.0
 11
8396354.220002949
 21
5678902.32999948
 31
0.0
  0
LINE
  5
1000155
330
16
100
AcDbEntity
  8
0
  6
Continuous
370
    18
100
AcDbLine
 10
8396354.220002949
 20
5678902.32999948
 30
0.0
 11
8396332.260002948
 21
5678898.609999484
 31
0.0
  0
LINE
  5
1000156
330
16
100
AcDbEntity
  8
0
  6
Continuous
370
    18
100
AcDbLine
 10
8396332.260002948
 20
5678898.609999484
 30
0.0
 11
8396325.070002946
 21
5678900.689999482
 31
0.0
  0
LINE
  5
1000157
330
16
100
AcDbEntity
  8
0
  6
Continuous
370
    18
100
AcDbLine
 10
8396325.070002946
 20
5678900.689999482
 30
0.0
 11
8396326.55000295
 21
5678905.459999481
 31
0.0
  0
LINE
  5
1000158
330
16
100
AcDbEntity
  8
0
  6
Continuous
370
    18
100
AcDbLine
 10
8396326.55000295
 20
5678905.459999481
 30
0.0
 11
8396321.770002948
 21
5678906.939999483
 31
0.0
  0
LINE
  5
1000159
330
16
100
AcDbEntity
  8
0
  6
Continuous
370
    18
100
AcDbLine
 10
8396321.770002948
 20
5678906.939999483
 30
0.0
 11
8396320.290002947
 21
5678902.159999482
 31
0.0
  0
LINE
  5
100015A
330
16
100
AcDbEntity
  8
0
  6
Continuous
370
    18
100
AcDbLine
 10
8396320.290002947
 20
5678902.159999482
 30
0.0
 11
8396317.820002947
 21
5678899.279999483
 31
0.0
  0
LINE
  5
100015B
330
16
100
AcDbEntity
  8
0
  6
Continuous
370
    18
100
AcDbLine
 10
8396465.620002956
 20
5678894.259999484
 30
0.0
 11
8396473.470002955
 21
5678891.709999485
 31
0.0
  0
LINE
  5
100015C
330
16
100
AcDbEntity
  8
0
  6
Continuous
370
    18
100
AcDbLine
 10
8396473.470002955
 20
5678891.709999485
 30
0.0
 11
8396465.600002956
 21
5678859.479999486
 31
0.0
  0
LINE
  5
100015D
330
16
100
AcDbEntity
  8
0
  6
Continuous
370
    18
100
AcDbLine
 10
8396465.600002956
 20
5678859.479999486
 30
0.0
 11
8396464.770002955
 21
5678856.069999483
 31
0.0
  0
LINE
  5
100015E
330
16
100
AcDbEntity
  8
0
  6
Continuous
370
    18
100
AcDbLine
 10
8396464.770002955
 20
5678856.069999483
 30
0.0
 11
8396464.350002956
 21
5678854.369999483
 31
0.0
  0
LINE
  5
100015F
330
16
100
AcDbEntity
  8
0
  6
Continuous
370
    18
100
AcDbLine
 10
8396464.350002956
 20
5678854.369999483
 30
0.0
 11
8396443.330002956
 21
5678859.989999483
 31
0.0
  0
LINE
  5
1000160
330
16
100
AcDbEntity
  8
0
  6
Continuous
370
    18
100
AcDbLine
 10
8396443.330002956
 20
5678859.989999483
 30
0.0
 11
8396441.600002956
 21
5678853.139999482
 31
0.0
  0
LINE
  5
1000161
330
16
100
AcDbEntity
  8
0
  6
Continuous
370
    18
100
AcDbLine
 10
8396441.600002956
 20
5678853.139999482
 30
0.0
 11
8396406.080002956
 21
5678863.129999484
 31
0.0
  0
LINE
  5
1000162
330
16
100
AcDbEntity
  8
0
  6
Continuous
370
    18
100
AcDbLine
 10
8396406.080002956
 20
5678863.129999484
 30
0.0
 11
8396379.490002953
 21
5678893.419999485
 31
0.0
  0
LINE
  5
1000163
330
16
100
AcDbEntity
  8
0
  6
Continuous
370
    18
100
AcDbLine
 10
8396379.490002953
 20
5678893.419999485
 30
0.0
 11
8396398.800002952
 21
5678969.349999481
 31
0.0
  0
LINE
  5
1000164
330
16
100
AcDbEntity
  8
0
  6
Continuous
370
    18
100
AcDbLine
 10
8396398.800002952
 20
5678969.349999481
 30
0.0
 11
8396417.340002953
 21
5678967.41999948
 31
0.0
  0
LINE
  5
1000165
330
16
100
AcDbEntity
  8
0
  6
Continuous
370
    18
100
AcDbLine
 10
8396417.340002953
 20
5678967.41999948
 30
0.0
 11
8396424.050002956
 21
5678952.289999484
 31
0.0
  0
LINE
  5
1000166
330
16
100
AcDbEntity
  8
0
  6
Continuous
370
    18
100
AcDbLine
 10
8396424.050002956
 20
5678952.289999484
 30
0.0
 11
8396428.410002954
 21
5678945.399999483
 31
0.0
  0
LINE
  5
1000167
330
16
100
AcDbEntity
  8
0
  6
Continuous
370
    18
100
AcDbLine
 10
8396428.410002954
 20
5678945.399999483
 30
0.0
 11
8396432.760002955
 21
5678927.519999485
 31
0.0
  0
LINE
  5
1000168
330
16
100
AcDbEntity
  8
0
  6
Continuous
370
    18
100
AcDbLine
 10
8396432.760002955
 20
5678927.519999485
 30
0.0
 11
8396439.340002954
 21
5678916.089999481
 31
0.0
  0
LINE
  5
1000169
330
16
100
AcDbEntity
  8
0
  6
Continuous
370
    18
100
AcDbLine
 10
8396439.340002954
 20
5678916.089999481
 30
0.0
 11
8396449.350002956
 21
5678906.379999481
 31
0.0
  0
LINE
  5
100016A
330
16
100
AcDbEntity
  8
0
  6
Continuous
370
    18
100
AcDbLine
 10
8396449.350002956
 20
5678906.379999481
 30
0.0
 11
8396459.980002957
 21
5678897.769999481
 31
0.0
  0
LINE
  5
100016B
330
16
100
AcDbEntity
  8
0
  6
Continuous
370
    18
100
AcDbLine
 10
8396459.980002957
 20
5678897.769999481
 30
0.0
 11
8396465.620002956
 21
5678894.259999484
 31
0.0
  0
LINE
  5
1000170
330
16
100
AcDbEntity
  8
0
  6
Continuous
370
    18
100
AcDbLine
 10
8396246.970002941
 20
5679207.649999482
 30
0.0
 11
8396248.560002941
 21
5679210.87999948
 31
0.0
  0
LINE
  5
1000171
330
16
100
AcDbEntity
  8
0
  6
Continuous
370
    18
100
AcDbLine
 10
8396248.560002941
 20
5679210.87999948
 30
0.0
 11
8396314.770002945
 21
5679177.179999481
 31
0.0
  0
LINE
  5
1000172
330
16
100
AcDbEntity
  8
0
  6
Continuous
370
    18
100
AcDbLine
 10
8396314.770002945
 20
5679177.179999481
 30
0.0
 11
8396340.690002945
 21
5679169.289999484
 31
0.0
  0
LINE
  5
1000173
330
16
100
AcDbEntity
  8
0
  6
Continuous
370
    18
100
AcDbLine
 10
8396340.690002945
 20
5679169.289999484
 30
0.0
 11
8396383.420002951
 21
5679147.399999485
 31
0.0
  0
LINE
  5
1000174
330
16
100
AcDbEntity
  8
0
  6
Continuous
370
    18
100
AcDbLine
 10
8396383.420002951
 20
5679147.399999485
 30
0.0
 11
8396388.62000295
 21
5679145.209999485
 31
0.0
  0
LINE
  5
1000175
330
16
100
AcDbEntity
  8
0
  6
Continuous
370
    18
100
AcDbLine
 10
8396388.62000295
 20
5679145.209999485
 30
0.0
 11
8396392.450002949
 21
5679143.999999483
 31
0.0
  0
LINE
  5
1000176
330
16
100
AcDbEntity
  8
0
  6
Continuous
370
    18
100
AcDbLine
 10
8396392.450002949
 20
5679143.999999483
 30
0.0
 11
8396412.790002949
 21
5679138.979999484
 31
0.0
  0
LINE
  5
1000177
330
16
100
AcDbEntity
  8
0
  6
Continuous
370
    18
100
AcDbLine
 10
8396412.790002949
 20
5679138.979999484
 30
0.0
 11
8396416.490002952
 21
5679137.889999481
 31
0.0
  0
LINE
  5
1000178
330
16
100
AcDbEntity
  8
0
  6
Continuous
370
    18
100
AcDbLine
 10
8396416.490002952
 20
5679137.889999481
 30
0.0
 11
8396462.710002959
 21
5679113.989999483
 31
0.0
  0
LINE
  5
1000179
330
16
100
AcDbEntity
  8
0
  6
Continuous
370
    18
100
AcDbLine
 10
8396462.710002959
 20
5679113.989999483
 30
0.0
 11
8396464.250002956
 21
5679111.359999483
 31
0.0
  0
LINE
  5
100017A
330
16
100
AcDbEntity
  8
0
  6
Continuous
370
    18
100
AcDbLine
 10
8396464.250002956
 20
5679111.359999483
 30
0.0
 11
8396466.910002956
 21
5679107.809999484
 31
0.0
  0
LINE
  5
100017B
330
16
100
AcDbEntity
  8
0
  6
Continuous
370
    18
100
AcDbLine
 10
8396466.910002956
 20
5679107.809999484
 30
0.0
 11
8396466.990002958
 21
5679107.459999484
 31
0.0
  0
LINE
  5
100017C
330
16
100
AcDbEntity
  8
0
  6
Continuous
370
    18
100
AcDbLine
 10
8396466.990002958
 20
5679107.459999484
 30
0.0
 11
8396414.730002952
 21
5679134.499999483
 31
0.0
  0
LINE
  5
100017D
330
16
100
AcDbEntity
  8
0
  6
Continuous
370
    18
100
AcDbLine
 10
8396414.730002952
 20
5679134.499999483
 30
0.0
 11
8396391.200002948
 21
5679140.029999486
 31
0.0
  0
LINE
  5
100017E
330
16
100
AcDbEntity
  8
0
  6
Continuous
370
    18
100
AcDbLine
 10
8396391.200002948
 20
5679140.029999486
 30
0.0
 11
8396387.020002949
 21
5679141.389999482
 31
0.0
  0
LINE
  5
100017F
330
16
100
AcDbEntity
  8
0
  6
Continuous
370
    18
100
AcDbLine
 10
8396387.020002949
 20
5679141.389999482
 30
0.0
 11
8396381.560002954
 21
5679143.709999484
 31
0.0
  0
LINE
  5
1000180
330
16
100
AcDbEntity
  8
0
  6
Continuous
370
    18
100
AcDbLine
 10
8396381.560002954
 20
5679143.709999484
 30
0.0
 11
8396338.730002948
 21
5679165.42999948
 31
0.0
  0
LINE
  5
1000181
330
16
100
AcDbEntity
  8
0
  6
Continuous
370
    18
100
AcDbLine
 10
8396338.730002948
 20
5679165.42999948
 30
0.0
 11
8396312.610002944
 21
5679173.74999948
 31
0.0
  0
LINE
  5
1000182
330
16
100
AcDbEntity
  8
0
  6
Continuous
370
    18
100
AcDbLine
 10
8396312.610002944
 20
5679173.74999948
 30
0.0
 11
8396264.140002941
 21
5679198.829999484
 31
0.0
  0
LINE
  5
1000183
330
16
100
AcDbEntity
  8
0
  6
Continuous
370
    18
100
AcDbLine
 10
8396264.140002941
 20
5679198.829999484
 30
0.0
 11
8396246.970002941
 21
5679207.649999482
 31
0.0
  0
LINE
  5
10001B7
330
16
100
AcDbEntity
  8
0
  6
Continuous
370
    18
100
AcDbLine
 10
8396532.620002961
 20
5679152.149999485
 30
0.0
 11
8396530.220002961
 21
5679147.529999483
 31
0.0
  0
LINE
  5
10001B8
330
16
100
AcDbEntity
  8
0
  6
Continuous
370
    18
100
AcDbLine
 10
8396530.220002961
 20
5679147.529999483
 30
0.0
 11
8396528.38000296
 21
5679148.489999485
 31
0.0
  0
LINE
  5
10001B9
330
16
100
AcDbEntity
  8
0
  6
Continuous
370
    18
100
AcDbLine
 10
8396528.38000296
 20
5679148.489999485
 30
0.0
 11
8396521.220002959
 21
5679151.549999483
 31
0.0
  0
LINE
  5
10001C1
330
16
100
AcDbEntity
  8
0
  6
Continuous
370
    18
100
AcDbLine
 10
8396532.620002961
 20
5679152.149999485
 30
0.0
 11
8396567.80000296
 21
5679138.269999486
 31
0.0
  0
LINE
  5
10001C2
330
16
100
AcDbEntity
  8
0
  6
Continuous
370
    18
100
AcDbLine
 10
8396567.80000296
 20
5679138.269999486
 30
0.0
 11
8396570.410002961
 21
5679137.239999485
 31
0.0
  0
LINE
  5
10001C3
330
16
100
AcDbEntity
  8
0
  6
Continuous
370
    18
100
AcDbLine
 10
8396570.410002961
 20
5679137.239999485
 30
0.0
 11
8396590.730002962
 21
5679129.219999484
 31
0.0
  0
LINE
  5
10001C4
330
16
100
AcDbEntity
  8
0
  6
Continuous
370
    18
100
AcDbLine
 10
8396590.730002962
 20
5679129.219999484
 30
0.0
 11
8396594.580002963
 21
5679127.589999485
 31
0.0
  0
LINE
  5
10001C5
330
16
100
AcDbEntity
  8
0
  6
Continuous
370
    18
100
AcDbLine
 10
8396594.580002963
 20
5679127.589999485
 30
0.0
 11
8396589.800002963
 21
5679116.409999486
 31
0.0
  0
LINE
  5
10001C6
330
16
100
AcDbEntity
  8
0
  6
Continuous
370
    18
100
AcDbLine
 10
8396589.800002963
 20
5679116.409999486
 30
0.0
 11
8396530.220002961
 21
5679147.529999483
 31
0.0
  0
LINE
  5
10001C7
330
16
100
AcDbEntity
  8
0
  6
Continuous
370
    18
100
AcDbLine
 10
8396530.220002961
 20
5679147.529999483
 30
0.0
 11
8396532.620002961
 21
5679152.149999485
 31
0.0
  0
LINE
  5
10001C8
330
16
100
AcDbEntity
  8
0
  6
Continuous
370
    18
100
AcDbLine
 10
8396558.89000296
 20
5679009.909999485
 30
0.0
 11
8396559.370002961
 21
5679010.539999484
 31
0.0
  0
LINE
  5
10001C9
330
16
100
AcDbEntity
  8
0
  6
Continuous
370
    18
100
AcDbLine
 10
8396559.370002961
 20
5679010.539999484
 30
0.0
 11
8396594.900002963
 21
5679056.589999484
 31
0.0
  0
LINE
  5
10001CA
330
16
100
AcDbEntity
  8
0
  6
Continuous
370
    18
100
AcDbLine
 10
8396594.900002963
 20
5679056.589999484
 30
0.0
 11
8396608.310002966
 21
5679062.299999485
 31
0.0
  0
LINE
  5
10001CB
330
16
100
AcDbEntity
  8
0
  6
Continuous
370
    18
100
AcDbLine
 10
8396608.310002966
 20
5679062.299999485
 30
0.0
 11
8396617.230002966
 21
5679079.099999484
 31
0.0
  0
LINE
  5
10001CC
330
16
100
AcDbEntity
  8
0
  6
Continuous
370
    18
100
AcDbLine
 10
8396617.230002966
 20
5679079.099999484
 30
0.0
 11
8396613.730002966
 21
5679100.249999484
 31
0.0
  0
LINE
  5
10001CD
330
16
100
AcDbEntity
  8
0
  6
Continuous
370
    18
100
AcDbLine
 10
8396613.730002966
 20
5679100.249999484
 30
0.0
 11
8396663.440002967
 21
5679078.249999484
 31
0.0
  0
LINE
  5
10001CE
330
16
100
AcDbEntity
  8
0
  6
Continuous
370
    18
100
AcDbLine
 10
8396663.440002967
 20
5679078.249999484
 30
0.0
 11
8396664.690002968
 21
5679077.499999488
 31
0.0
  0
LINE
  5
10001CF
330
16
100
AcDbEntity
  8
0
  6
Continuous
370
    18
100
AcDbLine
 10
8396664.690002968
 20
5679077.499999488
 30
0.0
 11
8396674.470002967
 21
5679090.549999484
 31
0.0
  0
LINE
  5
10001D0
330
16
100
AcDbEntity
  8
0
  6
Continuous
370
    18
100
AcDbLine
 10
8396674.470002967
 20
5679090.549999484
 30
0.0
 11
8396660.080002964
 21
5679099.019999486
 31
0.0
  0
LINE
  5
10001D1
330
16
100
AcDbEntity
  8
0
  6
Continuous
370
    18
100
AcDbLine
 10
8396660.080002964
 20
5679099.019999486
 30
0.0
 11
8396634.420002964
 21
5679110.289999484
 31
0.0
  0
LINE
  5
10001D2
330
16
100
AcDbEntity
  8
0
  6
Continuous
370
    18
100
AcDbLine
 10
8396634.420002964
 20
5679110.289999484
 30
0.0
 11
8396683.860002966
 21
5679124.299999483
 31
0.0
  0
LINE
  5
10001D3
330
16
100
AcDbEntity
  8
0
  6
Continuous
370
    18
100
AcDbLine
 10
8396683.860002966
 20
5679124.299999483
 30
0.0
 11
8396713.07000297
 21
5679145.729999486
 31
0.0
  0
LINE
  5
10001D4
330
16
100
AcDbEntity
  8
0
  6
Continuous
370
    18
100
AcDbLine
 10
8396713.07000297
 20
5679145.729999486
 30
0.0
 11
8396733.690002971
 21
5679135.679999484
 31
0.0
  0
LINE
  5
10001D5
330
16
100
AcDbEntity
  8
0
  6
Continuous
370
    18
100
AcDbLine
 10
8396733.690002971
 20
5679135.679999484
 30
0.0
 11
8396705.08000297
 21
5679077.019999485
 31
0.0
  0
LINE
  5
10001D6
330
16
100
AcDbEntity
  8
0
  6
Continuous
370
    18
100
AcDbLine
 10
8396705.08000297
 20
5679077.019999485
 30
0.0
 11
8396692.87000297
 21
5679082.619999486
 31
0.0
  0
LINE
  5
10001D7
330
16
100
AcDbEntity
  8
0
  6
Continuous
370
    18
100
AcDbLine
 10
8396692.87000297
 20
5679082.619999486
 30
0.0
 11
8396691.39000297
 21
5679078.989999488
 31
0.0
  0
LINE
  5
10001D8
330
16
100
AcDbEntity
  8
0
  6
Continuous
370
    18
100
AcDbLine
 10
8396691.39000297
 20
5679078.989999488
 30
0.0
 11
8396688.240002969
 21
5679071.319999487
 31
0.0
  0
LINE
  5
10001D9
330
16
100
AcDbEntity
  8
0
  6
Continuous
370
    18
100
AcDbLine
 10
8396688.240002969
 20
5679071.319999487
 30
0.0
 11
8396686.670002971
 21
5679063.749999484
 31
0.0
  0
LINE
  5
10001DA
330
16
100
AcDbEntity
  8
0
  6
Continuous
370
    18
100
AcDbLine
 10
8396686.670002971
 20
5679063.749999484
 30
0.0
 11
8396707.690002971
 21
5679051.979999488
 31
0.0
  0
LINE
  5
10001DB
330
16
100
AcDbEntity
  8
0
  6
Continuous
370
    18
100
AcDbLine
 10
8396707.690002971
 20
5679051.979999488
 30
0.0
 11
8396729.890002971
 21
5679005.589999485
 31
0.0
  0
LINE
  5
10001DC
330
16
100
AcDbEntity
  8
0
  6
Continuous
370
    18
100
AcDbLine
 10
8396729.890002971
 20
5679005.589999485
 30
0.0
 11
8396692.280002969
 21
5678989.129999488
 31
0.0
  0
LINE
  5
10001DD
330
16
100
AcDbEntity
  8
0
  6
Continuous
370
    18
100
AcDbLine
 10
8396692.280002969
 20
5678989.129999488
 30
0.0
 11
8396688.02000297
 21
5678979.969999487
 31
0.0
  0
LINE
  5
10001DE
330
16
100
AcDbEntity
  8
0
  6
Continuous
370
    18
100
AcDbLine
 10
8396688.02000297
 20
5678979.969999487
 30
0.0
 11
8396683.580002969
 21
5678970.669999483
 31
0.0
  0
LINE
  5
10001DF
330
16
100
AcDbEntity
  8
0
  6
Continuous
370
    18
100
AcDbLine
 10
8396683.580002969
 20
5678970.669999483
 30
0.0
 11
8396665.870002969
 21
5678978.899999487
 31
0.0
  0
LINE
  5
10001E0
330
16
100
AcDbEntity
  8
0
  6
Continuous
370
    18
100
AcDbLine
 10
8396665.870002969
 20
5678978.899999487
 30
0.0
 11
8396653.140002966
 21
5678985.359999485
 31
0.0
  0
LINE
  5
10001E1
330
16
100
AcDbEntity
  8
0
  6
Continuous
370
    18
100
AcDbLine
 10
8396653.140002966
 20
5678985.359999485
 30
0.0
 11
8396623.000002966
 21
5679002.409999488
 31
0.0
  0
LINE
  5
10001E2
330
16
100
AcDbEntity
  8
0
  6
Continuous
370
    18
100
AcDbLine
 10
8396623.000002966
 20
5679002.409999488
 30
0.0
 11
8396620.080002966
 21
5679003.869999485
 31
0.0
  0
LINE
  5
10001E3
330
16
100
AcDbEntity
  8
0
  6
Continuous
370
    18
100
AcDbLine
 10
8396620.080002966
 20
5679003.869999485
 30
0.0
 11
8396608.480002965
 21
5678986.129999485
 31
0.0
  0
LINE
  5
10001E4
330
16
100
AcDbEntity
  8
0
  6
Continuous
370
    18
100
AcDbLine
 10
8396608.480002965
 20
5678986.129999485
 30
0.0
 11
8396586.480002966
 21
5678997.339999484
 31
0.0
  0
LINE
  5
10001E5
330
16
100
AcDbEntity
  8
0
  6
Continuous
370
    18
100
AcDbLine
 10
8396586.480002966
 20
5678997.339999484
 30
0.0
 11
8396559.190002962
 21
5679009.429999482
 31
0.0
  0
LINE
  5
10001E6
330
16
100
AcDbEntity
  8
0
  6
Continuous
370
    18
100
AcDbLine
 10
8396559.190002962
 20
5679009.429999482
 30
0.0
 11
8396558.89000296
 21
5679009.909999485
 31
0.0
  0
LINE
  5
10001E7
330
16
100
AcDbEntity
  8
0
  6
Continuous
370
    18
100
AcDbLine
 10
8396680.31000297
 20
5679068.139999484
 30
0.0
 11
8396684.870002967
 21
5679065.619999488
 31
0.0
  0
LINE
  5
10001E8
330
16
100
AcDbEntity
  8
0
  6
Continuous
370
    18
100
AcDbLine
 10
8396684.870002967
 20
5679065.619999488
 30
0.0
 11
8396686.730002969
 21
5679072.889999485
 31
0.0
  0
LINE
  5
10001E9
330
16
100
AcDbEntity
  8
0
  6
Continuous
370
    18
100
AcDbLine
 10
8396686.730002969
 20
5679072.889999485
 30
0.0
 11
8396687.830002969
 21
5679075.489999486
 31
0.0
  0
LINE
  5
10001EA
330
16
100
AcDbEntity
  8
0
  6
Continuous
370
    18
100
AcDbLine
 10
8396687.830002969
 20
5679075.489999486
 30
0.0
 11
8396690.410002969
 21
5679081.159999485
 31
0.0
  0
LINE
  5
10001EB
330
16
100
AcDbEntity
  8
0
  6
Continuous
370
    18
100
AcDbLine
 10
8396690.410002969
 20
5679081.159999485
 30
0.0
 11
8396681.410002969
 21
5679086.469999488
 31
0.0
  0
LINE
  5
10001EC
330
16
100
AcDbEntity
  8
0
  6
Continuous
370
    18
100
AcDbLine
 10
8396681.410002969
 20
5679086.469999488
 30
0.0
 11
8396671.590002966
 21
5679073.369999485
 31
0.0
  0
LINE
  5
10001ED
330
16
100
AcDbEntity
  8
0
  6
Continuous
370
    18
100
AcDbLine
 10
8396671.590002966
 20
5679073.369999485
 30
0.0
 11
8396680.31000297
 21
5679068.139999484
 31
0.0
  0
LINE
  5
10001EE
330
16
100
AcDbEntity
  8
0
  6
Continuous
370
    18
100
AcDbLine
 10
8396634.420002964
 20
5679110.289999484
 30
0.0
 11
8396660.080002964
 21
5679099.019999486
 31
0.0
  0
LINE
  5
10001EF
330
16
100
AcDbEntity
  8
0
  6
Continuous
370
    18
100
AcDbLine
 10
8396660.080002964
 20
5679099.019999486
 30
0.0
 11
8396674.470002967
 21
5679090.549999484
 31
0.0
  0
LINE
  5
10001F0
330
16
100
AcDbEntity
  8
0
  6
Continuous
370
    18
100
AcDbLine
 10
8396674.470002967
 20
5679090.549999484
 30
0.0
 11
8396664.690002968
 21
5679077.499999488
 31
0.0
  0
LINE
  5
10001F1
330
16
100
AcDbEntity
  8
0
  6
Continuous
370
    18
100
AcDbLine
 10
8396664.690002968
 20
5679077.499999488
 30
0.0
 11
8396663.440002967
 21
5679078.249999484
 31
0.0
  0
LINE
  5
10001F2
330
16
100
AcDbEntity
  8
0
  6
Continuous
370
    18
100
AcDbLine
 10
8396663.440002967
 20
5679078.249999484
 30
0.0
 11
8396613.730002966
 21
5679100.249999484
 31
0.0
  0
LINE
  5
10001F3
330
16
100
AcDbEntity
  8
0
  6
Continuous
370
    18
100
AcDbLine
 10
8396613.730002966
 20
5679100.249999484
 30
0.0
 11
8396613.070002965
 21
5679104.249999485
 31
0.0
  0
LINE
  5
10001F4
330
16
100
AcDbEntity
  8
0
  6
Continuous
370
    18
100
AcDbLine
 10
8396613.070002965
 20
5679104.249999485
 30
0.0
 11
8396634.420002964
 21
5679110.289999484
 31
0.0
  0
LINE
  5
10001F5
330
16
100
AcDbEntity
  8
0
  6
Continuous
370
    18
100
AcDbLine
 10
8396684.870002967
 20
5679065.619999488
 30
0.0
 11
8396680.31000297
 21
5679068.139999484
 31
0.0
  0
LINE
  5
10001F6
330
16
100
AcDbEntity
  8
0
  6
Continuous
370
    18
100
AcDbLine
 10
8396680.31000297
 20
5679068.139999484
 30
0.0
 11
8396671.590002966
 21
5679073.369999485
 31
0.0
  0
LINE
  5
10001F7
330
16
100
AcDbEntity
  8
0
  6
Continuous
370
    18
100
AcDbLine
 10
8396671.590002966
 20
5679073.369999485
 30
0.0
 11
8396681.410002969
 21
5679086.469999488
 31
0.0
  0
LINE
  5
10001F8
330
16
100
AcDbEntity
  8
0
  6
Continuous
370
    18
100
AcDbLine
 10
8396681.410002969
 20
5679086.469999488
 30
0.0
 11
8396690.410002969
 21
5679081.159999485
 31
0.0
  0
LINE
  5
10001F9
330
16
100
AcDbEntity
  8
0
  6
Continuous
370
    18
100
AcDbLine
 10
8396690.410002969
 20
5679081.159999485
 30
0.0
 11
8396687.830002969
 21
5679075.489999486
 31
0.0
  0
LINE
  5
10001FA
330
16
100
AcDbEntity
  8
0
  6
Continuous
370
    18
100
AcDbLine
 10
8396687.830002969
 20
5679075.489999486
 30
0.0
 11
8396686.730002969
 21
5679072.889999485
 31
0.0
  0
LINE
  5
10001FB
330
16
100
AcDbEntity
  8
0
  6
Continuous
370
    18
100
AcDbLine
 10
8396686.730002969
 20
5679072.889999485
 30
0.0
 11
8396684.870002967
 21
5679065.619999488
 31
0.0
  0
LINE
  5
10001FC
330
16
100
AcDbEntity
  8
0
  6
Continuous
370
    18
100
AcDbLine
 10
8396675.31000297
 20
5678953.349999484
 30
0.0
 11
8396667.900002968
 21
5678937.829999484
 31
0.0
  0
LINE
  5
10001FD
330
16
100
AcDbEntity
  8
0
  6
Continuous
370
    18
100
AcDbLine
 10
8396667.900002968
 20
5678937.829999484
 30
0.0
 11
8396673.190002967
 21
5678916.849999484
 31
0.0
  0
LINE
  5
10001FE
330
16
100
AcDbEntity
  8
0
  6
Continuous
370
    18
100
AcDbLine
 10
8396673.190002967
 20
5678916.849999484
 30
0.0
 11
8396653.960002968
 21
5678925.649999485
 31
0.0
  0
LINE
  5
10001FF
330
16
100
AcDbEntity
  8
0
  6
Continuous
370
    18
100
AcDbLine
 10
8396653.960002968
 20
5678925.649999485
 30
0.0
 11
8396589.790002961
 21
5678957.539999485
 31
0.0
  0
LINE
  5
1000200
330
16
100
AcDbEntity
  8
0
  6
Continuous
370
    18
100
AcDbLine
 10
8396589.790002961
 20
5678957.539999485
 30
0.0
 11
8396601.050002967
 21
5678974.569999486
 31
0.0
  0
LINE
  5
1000201
330
16
100
AcDbEntity
  8
0
  6
Continuous
370
    18
100
AcDbLine
 10
8396601.050002967
 20
5678974.569999486
 30
0.0
 11
8396608.480002965
 21
5678986.129999485
 31
0.0
  0
LINE
  5
1000202
330
16
100
AcDbEntity
  8
0
  6
Continuous
370
    18
100
AcDbLine
 10
8396608.480002965
 20
5678986.129999485
 30
0.0
 11
8396609.800002966
 21
5678985.709999484
 31
0.0
  0
LINE
  5
1000203
330
16
100
AcDbEntity
  8
0
  6
Continuous
370
    18
100
AcDbLine
 10
8396609.800002966
 20
5678985.709999484
 30
0.0
 11
8396642.010002967
 21
5678969.719999485
 31
0.0
  0
LINE
  5
1000204
330
16
100
AcDbEntity
  8
0
  6
Continuous
370
    18
100
AcDbLine
 10
8396642.010002967
 20
5678969.719999485
 30
0.0
 11
8396658.060002966
 21
5678961.109999484
 31
0.0
  0
LINE
  5
1000205
330
16
100
AcDbEntity
  8
0
  6
Continuous
370
    18
100
AcDbLine
 10
8396658.060002966
 20
5678961.109999484
 30
0.0
 11
8396675.31000297
 21
5678953.349999484
 31
0.0
  0
LINE
  5
1000206
330
16
100
AcDbEntity
  8
0
  6
Continuous
370
    18
100
AcDbLine
 10
8396642.010002967
 20
5678969.719999485
 30
0.0
 11
8396609.800002966
 21
5678985.709999484
 31
0.0
  0
LINE
  5
1000207
330
16
100
AcDbEntity
  8
0
  6
Continuous
370
    18
100
AcDbLine
 10
8396609.800002966
 20
5678985.709999484
 30
0.0
 11
8396608.480002965
 21
5678986.129999485
 31
0.0
  0
LINE
  5
1000208
330
16
100
AcDbEntity
  8
0
  6
Continuous
370
    18
100
AcDbLine
 10
8396608.480002965
 20
5678986.129999485
 30
0.0
 11
8396620.080002966
 21
5679003.869999485
 31
0.0
  0
LINE
  5
1000209
330
16
100
AcDbEntity
  8
0
  6
Continuous
370
    18
100
AcDbLine
 10
8396620.080002966
 20
5679003.869999485
 30
0.0
 11
8396623.000002966
 21
5679002.409999488
 31
0.0
  0
LINE
  5
100020A
330
16
100
AcDbEntity
  8
0
  6
Continuous
370
    18
100
AcDbLine
 10
8396623.000002966
 20
5679002.409999488
 30
0.0
 11
8396653.140002966
 21
5678985.359999485
 31
0.0
  0
LINE
  5
100020B
330
16
100
AcDbEntity
  8
0
  6
Continuous
370
    18
100
AcDbLine
 10
8396653.140002966
 20
5678985.359999485
 30
0.0
 11
8396665.870002969
 21
5678978.899999487
 31
0.0
  0
LINE
  5
100020C
330
16
100
AcDbEntity
  8
0
  6
Continuous
370
    18
100
AcDbLine
 10
8396665.870002969
 20
5678978.899999487
 30
0.0
 11
8396683.580002969
 21
5678970.669999483
 31
0.0
  0
LINE
  5
100020D
330
16
100
AcDbEntity
  8
0
  6
Continuous
370
    18
100
AcDbLine
 10
8396683.580002969
 20
5678970.669999483
 30
0.0
 11
8396675.31000297
 21
5678953.349999484
 31
0.0
  0
LINE
  5
100020E
330
16
100
AcDbEntity
  8
0
  6
Continuous
370
    18
100
AcDbLine
 10
8396675.31000297
 20
5678953.349999484
 30
0.0
 11
8396658.060002966
 21
5678961.109999484
 31
0.0
  0
LINE
  5
100020F
330
16
100
AcDbEntity
  8
0
  6
Continuous
370
    18
100
AcDbLine
 10
8396658.060002966
 20
5678961.109999484
 30
0.0
 11
8396642.010002967
 21
5678969.719999485
 31
0.0
  0
LINE
  5
1000210
330
16
100
AcDbEntity
  8
0
  6
Continuous
370
    18
100
AcDbLine
 10
8396592.150002964
 20
5678940.789999485
 30
0.0
 11
8396587.230002966
 21
5678952.739999483
 31
0.0
  0
LINE
  5
1000211
330
16
100
AcDbEntity
  8
0
  6
Continuous
370
    18
100
AcDbLine
 10
8396587.230002966
 20
5678952.739999483
 30
0.0
 11
8396589.790002961
 21
5678957.539999485
 31
0.0
  0
LINE
  5
1000212
330
16
100
AcDbEntity
  8
0
  6
Continuous
370
    18
100
AcDbLine
 10
8396589.790002961
 20
5678957.539999485
 30
0.0
 11
8396653.960002968
 21
5678925.649999485
 31
0.0
  0
LINE
  5
1000213
330
16
100
AcDbEntity
  8
0
  6
Continuous
370
    18
100
AcDbLine
 10
8396653.960002968
 20
5678925.649999485
 30
0.0
 11
8396673.190002967
 21
5678916.849999484
 31
0.0
  0
LINE
  5
1000214
330
16
100
AcDbEntity
  8
0
  6
Continuous
370
    18
100
AcDbLine
 10
8396673.190002967
 20
5678916.849999484
 30
0.0
 11
8396673.930002968
 21
5678913.919999488
 31
0.0
  0
LINE
  5
1000215
330
16
100
AcDbEntity
  8
0
  6
Continuous
370
    18
100
AcDbLine
 10
8396673.930002968
 20
5678913.919999488
 30
0.0
 11
8396726.170002974
 21
5678853.439999487
 31
0.0
  0
LINE
  5
1000216
330
16
100
AcDbEntity
  8
0
  6
Continuous
370
    18
100
AcDbLine
 10
8396726.170002974
 20
5678853.439999487
 30
0.0
 11
8396707.910002971
 21
5678861.499999485
 31
0.0
  0
LINE
  5
1000217
330
16
100
AcDbEntity
  8
0
  6
Continuous
370
    18
100
AcDbLine
 10
8396707.910002971
 20
5678861.499999485
 30
0.0
 11
8396694.220002972
 21
5678867.539999485
 31
0.0
  0
LINE
  5
1000218
330
16
100
AcDbEntity
  8
0
  6
Continuous
370
    18
100
AcDbLine
 10
8396694.220002972
 20
5678867.539999485
 30
0.0
 11
8396681.460002973
 21
5678873.169999487
 31
0.0
  0
LINE
  5
1000219
330
16
100
AcDbEntity
  8
0
  6
Continuous
370
    18
100
AcDbLine
 10
8396681.460002973
 20
5678873.169999487
 30
0.0
 11
8396662.760002971
 21
5678880.939999486
 31
0.0
  0
LINE
  5
100021A
330
16
100
AcDbEntity
  8
0
  6
Continuous
370
    18
100
AcDbLine
 10
8396662.760002971
 20
5678880.939999486
 30
0.0
 11
8396645.760002966
 21
5678887.659999485
 31
0.0
  0
LINE
  5
100021B
330
16
100
AcDbEntity
  8
0
  6
Continuous
370
    18
100
AcDbLine
 10
8396645.760002966
 20
5678887.659999485
 30
0.0
 11
8396620.070002965
 21
5678898.199999486
 31
0.0
  0
LINE
  5
100021C
330
16
100
AcDbEntity
  8
0
  6
Continuous
370
    18
100
AcDbLine
 10
8396620.070002965
 20
5678898.199999486
 30
0.0
 11
8396613.280002965
 21
5678915.199999484
 31
0.0
  0
LINE
  5
100021D
330
16
100
AcDbEntity
  8
0
  6
Continuous
370
    18
100
AcDbLine
 10
8396613.280002965
 20
5678915.199999484
 30
0.0
 11
8396608.720002966
 21
5678922.259999483
 31
0.0
  0
LINE
  5
100021E
330
16
100
AcDbEntity
  8
0
  6
Continuous
370
    18
100
AcDbLine
 10
8396608.720002966
 20
5678922.259999483
 30
0.0
 11
8396607.750002965
 21
5678923.299999483
 31
0.0
  0
LINE
  5
100021F
330
16
100
AcDbEntity
  8
0
  6
Continuous
370
    18
100
AcDbLine
 10
8396607.750002965
 20
5678923.299999483
 30
0.0
 11
8396599.660002966
 21
5678931.049999484
 31
0.0
  0
LINE
  5
1000220
330
16
100
AcDbEntity
  8
0
  6
Continuous
370
    18
100
AcDbLine
 10
8396599.660002966
 20
5678931.049999484
 30
0.0
 11
8396592.150002964
 21
5678940.789999485
 31
0.0
  0
LINE
  5
1000221
330
16
100
AcDbEntity
  8
0
  6
Continuous
370
    18
100
AcDbLine
 10
8396132.400002937
 20
5678967.649999482
 30
0.0
 11
8396178.500002939
 21
5678953.229999482
 31
0.0
  0
LINE
  5
1000222
330
16
100
AcDbEntity
  8
0
  6
Continuous
370
    18
100
AcDbLine
 10
8396178.500002939
 20
5678953.229999482
 30
0.0
 11
8396171.430002938
 21
5678927.329999484
 31
0.0
  0
LINE
  5
1000223
330
16
100
AcDbEntity
  8
0
  6
Continuous
370
    18
100
AcDbLine
 10
8396171.430002938
 20
5678927.329999484
 30
0.0
 11
8396113.770002935
 21
5678940.029999481
 31
0.0
  0
LINE
  5
1000224
330
16
100
AcDbEntity
  8
0
  6
Continuous
370
    18
100
AcDbLine
 10
8396113.770002935
 20
5678940.029999481
 30
0.0
 11
8396123.090002935
 21
5678954.079999479
 31
0.0
  0
LINE
  5
1000225
330
16
100
AcDbEntity
  8
0
  6
Continuous
370
    18
100
AcDbLine
 10
8396123.090002935
 20
5678954.079999479
 30
0.0
 11
8396132.400002937
 21
5678967.649999482
 31
0.0
  0
LINE
  5
1000226
330
16
100
AcDbEntity
  8
0
  6
Continuous
370
    18
100
AcDbLine
 10
8396171.430002938
 20
5678927.329999484
 30
0.0
 11
8396186.600002938
 21
5678949.549999479
 31
0.0
  0
LINE
  5
1000227
330
16
100
AcDbEntity
  8
0
  6
Continuous
370
    18
100
AcDbLine
 10
8396186.600002938
 20
5678949.549999479
 30
0.0
 11
8396180.110002937
 21
5678925.45999948
 31
0.0
  0
LINE
  5
1000228
330
16
100
AcDbEntity
  8
0
  6
Continuous
370
    18
100
AcDbLine
 10
8396180.110002937
 20
5678925.45999948
 30
0.0
 11
8396171.430002938
 21
5678927.329999484
 31
0.0
  0
LINE
  5
1000229
330
16
100
AcDbEntity
  8
0
  6
Continuous
370
    18
100
AcDbLine
 10
8396186.600002938
 20
5678949.549999479
 30
0.0
 11
8396186.920002939
 21
5678950.699999481
 31
0.0
  0
LINE
  5
100022A
330
16
100
AcDbEntity
  8
0
  6
Continuous
370
    18
100
AcDbLine
 10
8396186.920002939
 20
5678950.699999481
 30
0.0
 11
8396194.74000294
 21
5678979.899999482
 31
0.0
  0
LINE
  5
100022B
330
16
100
AcDbEntity
  8
0
  6
Continuous
370
    18
100
AcDbLine
 10
8396194.74000294
 20
5678979.899999482
 30
0.0
 11
8396188.890002942
 21
5678981.45999948
 31
0.0
  0
LINE
  5
100022C
330
16
100
AcDbEntity
  8
0
  6
Continuous
370
    18
100
AcDbLine
 10
8396188.890002942
 20
5678981.45999948
 30
0.0
 11
8396191.570002942
 21
5678992.229999484
 31
0.0
  0
LINE
  5
100022D
330
16
100
AcDbEntity
  8
0
  6
Continuous
370
    18
100
AcDbLine
 10
8396191.570002942
 20
5678992.229999484
 30
0.0
 11
8396201.780002941
 21
5678989.529999482
 31
0.0
  0
LINE
  5
100022E
330
16
100
AcDbEntity
  8
0
  6
Continuous
370
    18
100
AcDbLine
 10
8396201.780002941
 20
5678989.529999482
 30
0.0
 11
8396193.690002938
 21
5678959.909999481
 31
0.0
  0
LINE
  5
100022F
330
16
100
AcDbEntity
  8
0
  6
Continuous
370
    18
100
AcDbLine
 10
8396193.690002938
 20
5678959.909999481
 30
0.0
 11
8396179.530002937
 21
5678908.059999481
 31
0.0
  0
LINE
  5
1000230
330
16
100
AcDbEntity
  8
0
  6
Continuous
370
    18
100
AcDbLine
 10
8396179.530002937
 20
5678908.059999481
 30
0.0
 11
8396179.09000294
 21
5678906.469999481
 31
0.0
  0
LINE
  5
1000231
330
16
100
AcDbEntity
  8
0
  6
Continuous
370
    18
100
AcDbLine
 10
8396179.09000294
 20
5678906.469999481
 30
0.0
 11
8396175.260002939
 21
5678907.459999481
 31
0.0
  0
LINE
  5
1000232
330
16
100
AcDbEntity
  8
0
  6
Continuous
370
    18
100
AcDbLine
 10
8396175.260002939
 20
5678907.459999481
 30
0.0
 11
8396180.110002937
 21
5678925.45999948
 31
0.0
  0
LINE
  5
1000233
330
16
100
AcDbEntity
  8
0
  6
Continuous
370
    18
100
AcDbLine
 10
8396180.110002937
 20
5678925.45999948
 30
0.0
 11
8396186.600002938
 21
5678949.549999479
 31
0.0
  0
LINE
  5
1000234
330
16
100
AcDbEntity
  8
0
  6
Continuous
370
    18
100
AcDbLine
 10
8396072.630002935
 20
5678933.979999482
 30
0.0
 11
8396097.110002934
 21
5678970.399999482
 31
0.0
  0
LINE
  5
1000235
330
16
100
AcDbEntity
  8
0
  6
Continuous
370
    18
100
AcDbLine
 10
8396097.110002934
 20
5678970.399999482
 30
0.0
 11
8396099.160002936
 21
5678968.95999948
 31
0.0
  0
LINE
  5
1000236
330
16
100
AcDbEntity
  8
0
  6
Continuous
370
    18
100
AcDbLine
 10
8396099.160002936
 20
5678968.95999948
 30
0.0
 11
8396099.590002934
 21
5678968.669999481
 31
0.0
  0
LINE
  5
1000237
330
16
100
AcDbEntity
  8
0
  6
Continuous
370
    18
100
AcDbLine
 10
8396099.590002934
 20
5678968.669999481
 30
0.0
 11
8396089.450002934
 21
5678953.719999481
 31
0.0
  0
LINE
  5
1000238
330
16
100
AcDbEntity
  8
0
  6
Continuous
370
    18
100
AcDbLine
 10
8396089.450002934
 20
5678953.719999481
 30
0.0
 11
8396076.060002934
 21
5678933.089999481
 31
0.0
  0
LINE
  5
1000239
330
16
100
AcDbEntity
  8
0
  6
Continuous
370
    18
100
AcDbLine
 10
8396076.060002934
 20
5678933.089999481
 30
0.0
 11
8396072.630002935
 21
5678933.979999482
 31
0.0
  0
LINE
  5
100023A
330
16
100
AcDbEntity
  8
0
  6
Continuous
370
    18
100
AcDbLine
 10
8396089.450002934
 20
5678953.719999481
 30
0.0
 11
8396099.590002934
 21
5678968.669999481
 31
0.0
  0
LINE
  5
100023B
330
16
100
AcDbEntity
  8
0
  6
Continuous
370
    18
100
AcDbLine
 10
8396099.590002934
 20
5678968.669999481
 30
0.0
 11
8396123.090002935
 21
5678954.079999479
 31
0.0
  0
LINE
  5
100023C
330
16
100
AcDbEntity
  8
0
  6
Continuous
370
    18
100
AcDbLine
 10
8396123.090002935
 20
5678954.079999479
 30
0.0
 11
8396113.770002935
 21
5678940.029999481
 31
0.0
  0
LINE
  5
100023D
330
16
100
AcDbEntity
  8
0
  6
Continuous
370
    18
100
AcDbLine
 10
8396113.770002935
 20
5678940.029999481
 30
0.0
 11
8396113.030002934
 21
5678939.189999481
 31
0.0
  0
LINE
  5
100023E
330
16
100
AcDbEntity
  8
0
  6
Continuous
370
    18
100
AcDbLine
 10
8396113.030002934
 20
5678939.189999481
 30
0.0
 11
8396089.450002934
 21
5678953.719999481
 31
0.0
  0
LINE
  5
100023F
330
16
100
AcDbEntity
  8
0
  6
Continuous
370
    18
100
AcDbLine
 10
8396099.590002934
 20
5678968.669999481
 30
0.0
 11
8396099.160002936
 21
5678968.95999948
 31
0.0
  0
LINE
  5
1000240
330
16
100
AcDbEntity
  8
0
  6
Continuous
370
    18
100
AcDbLine
 10
8396099.160002936
 20
5678968.95999948
 30
0.0
 11
8396104.230002936
 21
5678976.459999478
 31
0.0
  0
LINE
  5
1000241
330
16
100
AcDbEntity
  8
0
  6
Continuous
370
    18
100
AcDbLine
 10
8396104.230002936
 20
5678976.459999478
 30
0.0
 11
8396132.400002937
 21
5678967.649999482
 31
0.0
  0
LINE
  5
1000242
330
16
100
AcDbEntity
  8
0
  6
Continuous
370
    18
100
AcDbLine
 10
8396132.400002937
 20
5678967.649999482
 30
0.0
 11
8396123.090002935
 21
5678954.079999479
 31
0.0
  0
LINE
  5
1000243
330
16
100
AcDbEntity
  8
0
  6
Continuous
370
    18
100
AcDbLine
 10
8396123.090002935
 20
5678954.079999479
 30
0.0
 11
8396099.590002934
 21
5678968.669999481
 31
0.0
  0
LINE
  5
1000244
330
16
100
AcDbEntity
  8
0
  6
Continuous
370
    18
100
AcDbLine
 10
8396053.000002932
 20
5678953.61999948
 30
0.0
 11
8396075.040002932
 21
5678985.599999481
 31
0.0
  0
LINE
  5
1000245
330
16
100
AcDbEntity
  8
0
  6
Continuous
370
    18
100
AcDbLine
 10
8396075.040002932
 20
5678985.599999481
 30
0.0
 11
8396101.740002935
 21
5678977.239999482
 31
0.0
  0
LINE
  5
1000246
330
16
100
AcDbEntity
  8
0
  6
Continuous
370
    18
100
AcDbLine
 10
8396101.740002935
 20
5678977.239999482
 30
0.0
 11
8396097.110002934
 21
5678970.399999482
 31
0.0
  0
LINE
  5
1000247
330
16
100
AcDbEntity
  8
0
  6
Continuous
370
    18
100
AcDbLine
 10
8396097.110002934
 20
5678970.399999482
 30
0.0
 11
8396072.630002935
 21
5678933.979999482
 31
0.0
  0
LINE
  5
1000248
330
16
100
AcDbEntity
  8
0
  6
Continuous
370
    18
100
AcDbLine
 10
8396072.630002935
 20
5678933.979999482
 30
0.0
 11
8396051.520002931
 21
5678939.429999481
 31
0.0
  0
LINE
  5
1000249
330
16
100
AcDbEntity
  8
0
  6
Continuous
370
    18
100
AcDbLine
 10
8396051.520002931
 20
5678939.429999481
 30
0.0
 11
8396053.000002932
 21
5678953.61999948
 31
0.0
  0
LINE
  5
100024A
330
16
100
AcDbEntity
  8
0
  6
Continuous
370
    18
100
AcDbLine
 10
8396104.230002936
 20
5678976.459999478
 30
0.0
 11
8396099.160002936
 21
5678968.95999948
 31
0.0
  0
LINE
  5
100024B
330
16
100
AcDbEntity
  8
0
  6
Continuous
370
    18
100
AcDbLine
 10
8396099.160002936
 20
5678968.95999948
 30
0.0
 11
8396097.110002934
 21
5678970.399999482
 31
0.0
  0
LINE
  5
100024C
330
16
100
AcDbEntity
  8
0
  6
Continuous
370
    18
100
AcDbLine
 10
8396097.110002934
 20
5678970.399999482
 30
0.0
 11
8396101.740002935
 21
5678977.239999482
 31
0.0
  0
LINE
  5
100024D
330
16
100
AcDbEntity
  8
0
  6
Continuous
370
    18
100
AcDbLine
 10
8396101.740002935
 20
5678977.239999482
 30
0.0
 11
8396104.230002936
 21
5678976.459999478
 31
0.0
  0
LINE
  5
100024E
330
16
100
AcDbEntity
  8
0
  6
Continuous
370
    18
100
AcDbLine
 10
8396075.040002932
 20
5678985.599999481
 30
0.0
 11
8396053.000002932
 21
5678953.61999948
 31
0.0
  0
LINE
  5
100024F
330
16
100
AcDbEntity
  8
0
  6
Continuous
370
    18
100
AcDbLine
 10
8396053.000002932
 20
5678953.61999948
 30
0.0
 11
8396056.920002932
 21
5678991.25999948
 31
0.0
  0
LINE
  5
1000250
330
16
100
AcDbEntity
  8
0
  6
Continuous
370
    18
100
AcDbLine
 10
8396056.920002932
 20
5678991.25999948
 30
0.0
 11
8396075.040002932
 21
5678985.599999481
 31
0.0
  0
LINE
  5
1000251
330
16
100
AcDbEntity
  8
0
  6
Continuous
370
    18
100
AcDbLine
 10
8395966.820002927
 20
5679128.419999479
 30
0.0
 11
8395973.440002926
 21
5679096.609999482
 31
0.0
  0
LINE
  5
1000252
330
16
100
AcDbEntity
  8
0
  6
Continuous
370
    18
100
AcDbLine
 10
8395973.440002926
 20
5679096.609999482
 30
0.0
 11
8395988.460002927
 21
5679099.54999948
 31
0.0
  0
LINE
  5
1000253
330
16
100
AcDbEntity
  8
0
  6
Continuous
370
    18
100
AcDbLine
 10
8395988.460002927
 20
5679099.54999948
 30
0.0
 11
8395989.250002926
 21
5679095.50999948
 31
0.0
  0
LINE
  5
1000254
330
16
100
AcDbEntity
  8
0
  6
Continuous
370
    18
100
AcDbLine
 10
8395989.250002926
 20
5679095.50999948
 30
0.0
 11
8395998.110002926
 21
5679097.239999481
 31
0.0
  0
LINE
  5
1000255
330
16
100
AcDbEntity
  8
0
  6
Continuous
370
    18
100
AcDbLine
 10
8395998.110002926
 20
5679097.239999481
 30
0.0
 11
8395993.100002925
 21
5679121.729999482
 31
0.0
  0
LINE
  5
1000256
330
16
100
AcDbEntity
  8
0
  6
Continuous
370
    18
100
AcDbLine
 10
8395993.100002925
 20
5679121.729999482
 30
0.0
 11
8396016.780002925
 21
5679131.449999481
 31
0.0
  0
LINE
  5
1000257
330
16
100
AcDbEntity
  8
0
  6
Continuous
370
    18
100
AcDbLine
 10
8396016.780002925
 20
5679131.449999481
 30
0.0
 11
8396018.890002928
 21
5679126.85999948
 31
0.0
  0
LINE
  5
1000258
330
16
100
AcDbEntity
  8
0
  6
Continuous
370
    18
100
AcDbLine
 10
8396018.890002928
 20
5679126.85999948
 30
0.0
 11
8396027.500002931
 21
5679101.939999482
 31
0.0
  0
LINE
  5
1000259
330
16
100
AcDbEntity
  8
0
  6
Continuous
370
    18
100
AcDbLine
 10
8396027.500002931
 20
5679101.939999482
 30
0.0
 11
8396030.97000293
 21
5679091.849999481
 31
0.0
  0
LINE
  5
100025A
330
16
100
AcDbEntity
  8
0
  6
Continuous
370
    18
100
AcDbLine
 10
8396030.97000293
 20
5679091.849999481
 30
0.0
 11
8396035.65000293
 21
5679073.719999482
 31
0.0
  0
LINE
  5
100025B
330
16
100
AcDbEntity
  8
0
  6
Continuous
370
    18
100
AcDbLine
 10
8396035.65000293
 20
5679073.719999482
 30
0.0
 11
8396037.64000293
 21
5679065.999999478
 31
0.0
  0
LINE
  5
100025C
330
16
100
AcDbEntity
  8
0
  6
Continuous
370
    18
100
AcDbLine
 10
8396037.64000293
 20
5679065.999999478
 30
0.0
 11
8396056.920002932
 21
5678991.25999948
 31
0.0
  0
LINE
  5
100025D
330
16
100
AcDbEntity
  8
0
  6
Continuous
370
    18
100
AcDbLine
 10
8396056.920002932
 20
5678991.25999948
 30
0.0
 11
8396053.000002932
 21
5678953.61999948
 31
0.0
  0
LINE
  5
100025E
330
16
100
AcDbEntity
  8
0
  6
Continuous
370
    18
100
AcDbLine
 10
8396053.000002932
 20
5678953.61999948
 30
0.0
 11
8396051.520002931
 21
5678939.429999481
 31
0.0
  0
LINE
  5
100025F
330
16
100
AcDbEntity
  8
0
  6
Continuous
370
    18
100
AcDbLine
 10
8396051.520002931
 20
5678939.429999481
 30
0.0
 11
8396048.930002931
 21
5678930.01999948
 31
0.0
  0
LINE
  5
1000260
330
16
100
AcDbEntity
  8
0
  6
Continuous
370
    18
100
AcDbLine
 10
8396048.930002931
 20
5678930.01999948
 30
0.0
 11
8396043.650002932
 21
5678910.769999482
 31
0.0
  0
LINE
  5
1000261
330
16
100
AcDbEntity
  8
0
  6
Continuous
370
    18
100
AcDbLine
 10
8396043.650002932
 20
5678910.769999482
 30
0.0
 11
8396047.270002933
 21
5678891.149999482
 31
0.0
  0
LINE
  5
1000262
330
16
100
AcDbEntity
  8
0
  6
Continuous
370
    18
100
AcDbLine
 10
8396047.270002933
 20
5678891.149999482
 30
0.0
 11
8396066.010002931
 21
5678826.859999482
 31
0.0
  0
LINE
  5
1000263
330
16
100
AcDbEntity
  8
0
  6
Continuous
370
    18
100
AcDbLine
 10
8396066.010002931
 20
5678826.859999482
 30
0.0
 11
8396082.960002935
 21
5678824.229999482
 31
0.0
  0
LINE
  5
1000264
330
16
100
AcDbEntity
  8
0
  6
Continuous
370
    18
100
AcDbLine
 10
8396082.960002935
 20
5678824.229999482
 30
0.0
 11
8396085.940002933
 21
5678823.069999481
 31
0.0
  0
LINE
  5
1000265
330
16
100
AcDbEntity
  8
0
  6
Continuous
370
    18
100
AcDbLine
 10
8396085.940002933
 20
5678823.069999481
 30
0.0
 11
8396085.210002935
 21
5678812.449999481
 31
0.0
  0
LINE
  5
1000266
330
16
100
AcDbEntity
  8
0
  6
Continuous
370
    18
100
AcDbLine
 10
8396085.210002935
 20
5678812.449999481
 30
0.0
 11
8396077.030002933
 21
5678814.119999481
 31
0.0
  0
LINE
  5
1000267
330
16
100
AcDbEntity
  8
0
  6
Continuous
370
    18
100
AcDbLine
 10
8396077.030002933
 20
5678814.119999481
 30
0.0
 11
8396039.530002932
 21
5678820.289999479
 31
0.0
  0
LINE
  5
1000268
330
16
100
AcDbEntity
  8
0
  6
Continuous
370
    18
100
AcDbLine
 10
8396039.530002932
 20
5678820.289999479
 30
0.0
 11
8396037.220002931
 21
5678820.089999478
 31
0.0
  0
LINE
  5
1000269
330
16
100
AcDbEntity
  8
0
  6
Continuous
370
    18
100
AcDbLine
 10
8396037.220002931
 20
5678820.089999478
 30
0.0
 11
8396034.990002933
 21
5678820.74999948
 31
0.0
  0
LINE
  5
100026A
330
16
100
AcDbEntity
  8
0
  6
Continuous
370
    18
100
AcDbLine
 10
8396034.990002933
 20
5678820.74999948
 30
0.0
 11
8396017.190002929
 21
5678826.80999948
 31
0.0
  0
LINE
  5
100026B
330
16
100
AcDbEntity
  8
0
  6
Continuous
370
    18
100
AcDbLine
 10
8396017.190002929
 20
5678826.80999948
 30
0.0
 11
8395997.640002931
 21
5678829.899999482
 31
0.0
  0
LINE
  5
100026C
330
16
100
AcDbEntity
  8
0
  6
Continuous
370
    18
100
AcDbLine
 10
8395997.640002931
 20
5678829.899999482
 30
0.0
 11
8395988.250002929
 21
5678830.949999478
 31
0.0
  0
LINE
  5
100026D
330
16
100
AcDbEntity
  8
0
  6
Continuous
370
    18
100
AcDbLine
 10
8395988.250002929
 20
5678830.949999478
 30
0.0
 11
8395988.060002927
 21
5678831.93999948
 31
0.0
  0
LINE
  5
100026E
330
16
100
AcDbEntity
  8
0
  6
Continuous
370
    18
100
AcDbLine
 10
8395988.060002927
 20
5678831.93999948
 30
0.0
 11
8395988.140002927
 21
5678834.179999479
 31
0.0
  0
LINE
  5
100026F
330
16
100
AcDbEntity
  8
0
  6
Continuous
370
    18
100
AcDbLine
 10
8395988.140002927
 20
5678834.179999479
 30
0.0
 11
8395987.910002927
 21
5678844.67999948
 31
0.0
  0
LINE
  5
1000270
330
16
100
AcDbEntity
  8
0
  6
Continuous
370
    18
100
AcDbLine
 10
8395987.910002927
 20
5678844.67999948
 30
0.0
 11
8395987.88000293
 21
5678846.289999482
 31
0.0
  0
LINE
  5
1000271
330
16
100
AcDbEntity
  8
0
  6
Continuous
370
    18
100
AcDbLine
 10
8395987.88000293
 20
5678846.289999482
 30
0.0
 11
8395990.720002927
 21
5678855.88999948
 31
0.0
  0
LINE
  5
1000272
330
16
100
AcDbEntity
  8
0
  6
Continuous
370
    18
100
AcDbLine
 10
8395990.720002927
 20
5678855.88999948
 30
0.0
 11
8395997.94000293
 21
5678880.25999948
 31
0.0
  0
LINE
  5
1000273
330
16
100
AcDbEntity
  8
0
  6
Continuous
370
    18
100
AcDbLine
 10
8395997.94000293
 20
5678880.25999948
 30
0.0
 11
8395989.100002926
 21
5678926.53999948
 31
0.0
  0
LINE
  5
1000274
330
16
100
AcDbEntity
  8
0
  6
Continuous
370
    18
100
AcDbLine
 10
8395989.100002926
 20
5678926.53999948
 30
0.0
 11
8395985.790002926
 21
5678943.899999482
 31
0.0
  0
LINE
  5
1000275
330
16
100
AcDbEntity
  8
0
  6
Continuous
370
    18
100
AcDbLine
 10
8395985.790002926
 20
5678943.899999482
 30
0.0
 11
8395981.020002926
 21
5678968.849999481
 31
0.0
  0
LINE
  5
1000276
330
16
100
AcDbEntity
  8
0
  6
Continuous
370
    18
100
AcDbLine
 10
8395981.020002926
 20
5678968.849999481
 30
0.0
 11
8395961.700002924
 21
5679067.999999479
 31
0.0
  0
LINE
  5
1000277
330
16
100
AcDbEntity
  8
0
  6
Continuous
370
    18
100
AcDbLine
 10
8395961.700002924
 20
5679067.999999479
 30
0.0
 11
8395950.420002924
 21
5679129.479999479
 31
0.0
  0
LINE
  5
1000278
330
16
100
AcDbEntity
  8
0
  6
Continuous
370
    18
100
AcDbLine
 10
8395950.420002924
 20
5679129.479999479
 30
0.0
 11
8395966.820002927
 21
5679128.419999479
 31
0.0
  0
LINE
  5
1000279
330
16
100
AcDbEntity
  8
0
  6
Continuous
370
    18
100
AcDbLine
 10
8395962.160002925
 20
5679235.689999481
 30
0.0
 11
8395992.420002926
 21
5679247.679999483
 31
0.0
  0
LINE
  5
100027A
330
16
100
AcDbEntity
  8
0
  6
Continuous
370
    18
100
AcDbLine
 10
8395992.420002926
 20
5679247.679999483
 30
0.0
 11
8395988.060002927
 21
5679228.969999483
 31
0.0
  0
LINE
  5
100027B
330
16
100
AcDbEntity
  8
0
  6
Continuous
370
    18
100
AcDbLine
 10
8395988.060002927
 20
5679228.969999483
 30
0.0
 11
8395994.220002927
 21
5679180.539999481
 31
0.0
  0
LINE
  5
100027C
330
16
100
AcDbEntity
  8
0
  6
Continuous
370
    18
100
AcDbLine
 10
8395994.220002927
 20
5679180.539999481
 30
0.0
 11
8396016.780002925
 21
5679131.449999481
 31
0.0
  0
LINE
  5
100027D
330
16
100
AcDbEntity
  8
0
  6
Continuous
370
    18
100
AcDbLine
 10
8396016.780002925
 20
5679131.449999481
 30
0.0
 11
8395993.100002925
 21
5679121.729999482
 31
0.0
  0
LINE
  5
100027E
330
16
100
AcDbEntity
  8
0
  6
Continuous
370
    18
100
AcDbLine
 10
8395993.100002925
 20
5679121.729999482
 30
0.0
 11
8395998.110002926
 21
5679097.239999481
 31
0.0
  0
LINE
  5
100027F
330
16
100
AcDbEntity
  8
0
  6
Continuous
370
    18
100
AcDbLine
 10
8395998.110002926
 20
5679097.239999481
 30
0.0
 11
8395989.250002926
 21
5679095.50999948
 31
0.0
  0
LINE
  5
1000280
330
16
100
AcDbEntity
  8
0
  6
Continuous
370
    18
100
AcDbLine
 10
8395989.250002926
 20
5679095.50999948
 30
0.0
 11
8395988.460002927
 21
5679099.54999948
 31
0.0
  0
LINE
  5
1000281
330
16
100
AcDbEntity
  8
0
  6
Continuous
370
    18
100
AcDbLine
 10
8395988.460002927
 20
5679099.54999948
 30
0.0
 11
8395973.440002926
 21
5679096.609999482
 31
0.0
  0
LINE
  5
1000282
330
16
100
AcDbEntity
  8
0
  6
Continuous
370
    18
100
AcDbLine
 10
8395973.440002926
 20
5679096.609999482
 30
0.0
 11
8395966.820002927
 21
5679128.419999479
 31
0.0
  0
LINE
  5
1000283
330
16
100
AcDbEntity
  8
0
  6
Continuous
370
    18
100
AcDbLine
 10
8395966.820002927
 20
5679128.419999479
 30
0.0
 11
8395950.420002924
 21
5679129.479999479
 31
0.0
  0
LINE
  5
1000284
330
16
100
AcDbEntity
  8
0
  6
Continuous
370
    18
100
AcDbLine
 10
8395950.420002924
 20
5679129.479999479
 30
0.0
 11
8395946.430002926
 21
5679151.209999478
 31
0.0
  0
LINE
  5
1000285
330
16
100
AcDbEntity
  8
0
  6
Continuous
370
    18
100
AcDbLine
 10
8395946.430002926
 20
5679151.209999478
 30
0.0
 11
8395945.650002925
 21
5679155.079999478
 31
0.0
  0
LINE
  5
1000286
330
16
100
AcDbEntity
  8
0
  6
Continuous
370
    18
100
AcDbLine
 10
8395945.650002925
 20
5679155.079999478
 30
0.0
 11
8395933.110002923
 21
5679217.67999948
 31
0.0
  0
LINE
  5
1000287
330
16
100
AcDbEntity
  8
0
  6
Continuous
370
    18
100
AcDbLine
 10
8395933.110002923
 20
5679217.67999948
 30
0.0
 11
8395931.890002923
 21
5679223.769999481
 31
0.0
  0
LINE
  5
1000288
330
16
100
AcDbEntity
  8
0
  6
Continuous
370
    18
100
AcDbLine
 10
8395931.890002923
 20
5679223.769999481
 30
0.0
 11
8395962.160002925
 21
5679235.689999481
 31
0.0
  0
LINE
  5
1000289
330
16
100
AcDbEntity
  8
0
  6
Continuous
370
    18
100
AcDbLine
 10
8396233.680002943
 20
5678879.689999481
 30
0.0
 11
8396229.670002943
 21
5678880.779999483
 31
0.0
  0
LINE
  5
100028A
330
16
100
AcDbEntity
  8
0
  6
Continuous
370
    18
100
AcDbLine
 10
8396229.670002943
 20
5678880.779999483
 30
0.0
 11
8396101.370002934
 21
5678915.729999479
 31
0.0
  0
LINE
  5
100028B
330
16
100
AcDbEntity
  8
0
  6
Continuous
370
    18
100
AcDbLine
 10
8396101.370002934
 20
5678915.729999479
 30
0.0
 11
8396048.930002931
 21
5678930.01999948
 31
0.0
  0
LINE
  5
100028C
330
16
100
AcDbEntity
  8
0
  6
Continuous
370
    18
100
AcDbLine
 10
8396048.930002931
 20
5678930.01999948
 30
0.0
 11
8396051.520002931
 21
5678939.429999481
 31
0.0
  0
LINE
  5
100028D
330
16
100
AcDbEntity
  8
0
  6
Continuous
370
    18
100
AcDbLine
 10
8396051.520002931
 20
5678939.429999481
 30
0.0
 11
8396072.630002935
 21
5678933.979999482
 31
0.0
  0
LINE
  5
100028E
330
16
100
AcDbEntity
  8
0
  6
Continuous
370
    18
100
AcDbLine
 10
8396072.630002935
 20
5678933.979999482
 30
0.0
 11
8396076.060002934
 21
5678933.089999481
 31
0.0
  0
LINE
  5
100028F
330
16
100
AcDbEntity
  8
0
  6
Continuous
370
    18
100
AcDbLine
 10
8396076.060002934
 20
5678933.089999481
 30
0.0
 11
8396104.060002937
 21
5678925.85999948
 31
0.0
  0
LINE
  5
1000290
330
16
100
AcDbEntity
  8
0
  6
Continuous
370
    18
100
AcDbLine
 10
8396104.060002937
 20
5678925.85999948
 30
0.0
 11
8396166.620002937
 21
5678909.699999482
 31
0.0
  0
LINE
  5
1000291
330
16
100
AcDbEntity
  8
0
  6
Continuous
370
    18
100
AcDbLine
 10
8396166.620002937
 20
5678909.699999482
 30
0.0
 11
8396175.260002939
 21
5678907.459999481
 31
0.0
  0
LINE
  5
1000292
330
16
100
AcDbEntity
  8
0
  6
Continuous
370
    18
100
AcDbLine
 10
8396175.260002939
 20
5678907.459999481
 30
0.0
 11
8396179.09000294
 21
5678906.469999481
 31
0.0
  0
LINE
  5
1000293
330
16
100
AcDbEntity
  8
0
  6
Continuous
370
    18
100
AcDbLine
 10
8396179.09000294
 20
5678906.469999481
 30
0.0
 11
8396231.450002941
 21
5678892.939999482
 31
0.0
  0
LINE
  5
1000294
330
16
100
AcDbEntity
  8
0
  6
Continuous
370
    18
100
AcDbLine
 10
8396231.450002941
 20
5678892.939999482
 30
0.0
 11
8396256.890002941
 21
5678890.039999481
 31
0.0
  0
LINE
  5
1000295
330
16
100
AcDbEntity
  8
0
  6
Continuous
370
    18
100
AcDbLine
 10
8396256.890002941
 20
5678890.039999481
 30
0.0
 11
8396272.670002943
 21
5678889.12999948
 31
0.0
  0
LINE
  5
1000296
330
16
100
AcDbEntity
  8
0
  6
Continuous
370
    18
100
AcDbLine
 10
8396272.670002943
 20
5678889.12999948
 30
0.0
 11
8396280.890002946
 21
5678889.569999482
 31
0.0
  0
LINE
  5
1000297
330
16
100
AcDbEntity
  8
0
  6
Continuous
370
    18
100
AcDbLine
 10
8396280.890002946
 20
5678889.569999482
 30
0.0
 11
8396300.630002947
 21
5678891.279999482
 31
0.0
  0
LINE
  5
1000298
330
16
100
AcDbEntity
  8
0
  6
Continuous
370
    18
100
AcDbLine
 10
8396300.630002947
 20
5678891.279999482
 30
0.0
 11
8396346.340002949
 21
5678899.08999948
 31
0.0
  0
LINE
  5
1000299
330
16
100
AcDbEntity
  8
0
  6
Continuous
370
    18
100
AcDbLine
 10
8396346.340002949
 20
5678899.08999948
 30
0.0
 11
8396356.40000295
 21
5678899.689999483
 31
0.0
  0
LINE
  5
100029A
330
16
100
AcDbEntity
  8
0
  6
Continuous
370
    18
100
AcDbLine
 10
8396356.40000295
 20
5678899.689999483
 30
0.0
 11
8396365.280002948
 21
5678898.41999948
 31
0.0
  0
LINE
  5
100029B
330
16
100
AcDbEntity
  8
0
  6
Continuous
370
    18
100
AcDbLine
 10
8396365.280002948
 20
5678898.41999948
 30
0.0
 11
8396372.570002951
 21
5678895.609999482
 31
0.0
  0
LINE
  5
100029C
330
16
100
AcDbEntity
  8
0
  6
Continuous
370
    18
100
AcDbLine
 10
8396372.570002951
 20
5678895.609999482
 30
0.0
 11
8396377.800002948
 21
5678891.769999482
 31
0.0
  0
LINE
  5
100029D
330
16
100
AcDbEntity
  8
0
  6
Continuous
370
    18
100
AcDbLine
 10
8396377.800002948
 20
5678891.769999482
 30
0.0
 11
8396410.760002956
 21
5678854.649999485
 31
0.0
  0
LINE
  5
100029E
330
16
100
AcDbEntity
  8
0
  6
Continuous
370
    18
100
AcDbLine
 10
8396410.760002956
 20
5678854.649999485
 30
0.0
 11
8396421.750002954
 21
5678836.119999484
 31
0.0
  0
LINE
  5
100029F
330
16
100
AcDbEntity
  8
0
  6
Continuous
370
    18
100
AcDbLine
 10
8396421.750002954
 20
5678836.119999484
 30
0.0
 11
8396423.120002953
 21
5678831.219999481
 31
0.0
  0
LINE
  5
10002A0
330
16
100
AcDbEntity
  8
0
  6
Continuous
370
    18
100
AcDbLine
 10
8396423.120002953
 20
5678831.219999481
 30
0.0
 11
8396423.820002954
 21
5678825.259999483
 31
0.0
  0
LINE
  5
10002A1
330
16
100
AcDbEntity
  8
0
  6
Continuous
370
    18
100
AcDbLine
 10
8396423.820002954
 20
5678825.259999483
 30
0.0
 11
8396422.820002955
 21
5678814.479999482
 31
0.0
  0
LINE
  5
10002A2
330
16
100
AcDbEntity
  8
0
  6
Continuous
370
    18
100
AcDbLine
 10
8396422.820002955
 20
5678814.479999482
 30
0.0
 11
8396404.220002953
 21
5678741.629999485
 31
0.0
  0
LINE
  5
10002A3
330
16
100
AcDbEntity
  8
0
  6
Continuous
370
    18
100
AcDbLine
 10
8396404.220002953
 20
5678741.629999485
 30
0.0
 11
8396392.650002953
 21
5678742.899999482
 31
0.0
  0
LINE
  5
10002A4
330
16
100
AcDbEntity
  8
0
  6
Continuous
370
    18
100
AcDbLine
 10
8396392.650002953
 20
5678742.899999482
 30
0.0
 11
8396397.410002954
 21
5678760.989999481
 31
0.0
  0
LINE
  5
10002A5
330
16
100
AcDbEntity
  8
0
  6
Continuous
370
    18
100
AcDbLine
 10
8396397.410002954
 20
5678760.989999481
 30
0.0
 11
8396410.630002955
 21
5678811.259999482
 31
0.0
  0
LINE
  5
10002A6
330
16
100
AcDbEntity
  8
0
  6
Continuous
370
    18
100
AcDbLine
 10
8396410.630002955
 20
5678811.259999482
 30
0.0
 11
8396411.640002954
 21
5678814.049999483
 31
0.0
  0
LINE
  5
10002A7
330
16
100
AcDbEntity
  8
0
  6
Continuous
370
    18
100
AcDbLine
 10
8396411.640002954
 20
5678814.049999483
 30
0.0
 11
8396412.150002955
 21
5678817.369999482
 31
0.0
  0
LINE
  5
10002A8
330
16
100
AcDbEntity
  8
0
  6
Continuous
370
    18
100
AcDbLine
 10
8396412.150002955
 20
5678817.369999482
 30
0.0
 11
8396412.660002955
 21
5678828.279999481
 31
0.0
  0
LINE
  5
10002A9
330
16
100
AcDbEntity
  8
0
  6
Continuous
370
    18
100
AcDbLine
 10
8396412.660002955
 20
5678828.279999481
 30
0.0
 11
8396411.510002955
 21
5678834.369999484
 31
0.0
  0
LINE
  5
10002AA
330
16
100
AcDbEntity
  8
0
  6
Continuous
370
    18
100
AcDbLine
 10
8396411.510002955
 20
5678834.369999484
 30
0.0
 11
8396408.760002955
 21
5678839.62999948
 31
0.0
  0
LINE
  5
10002AB
330
16
100
AcDbEntity
  8
0
  6
Continuous
370
    18
100
AcDbLine
 10
8396408.760002955
 20
5678839.62999948
 30
0.0
 11
8396404.760002956
 21
5678845.389999485
 31
0.0
  0
LINE
  5
10002AC
330
16
100
AcDbEntity
  8
0
  6
Continuous
370
    18
100
AcDbLine
 10
8396404.760002956
 20
5678845.389999485
 30
0.0
 11
8396401.720002954
 21
5678848.399999483
 31
0.0
  0
LINE
  5
10002AD
330
16
100
AcDbEntity
  8
0
  6
Continuous
370
    18
100
AcDbLine
 10
8396401.720002954
 20
5678848.399999483
 30
0.0
 11
8396397.340002954
 21
5678853.299999483
 31
0.0
  0
LINE
  5
10002AE
330
16
100
AcDbEntity
  8
0
  6
Continuous
370
    18
100
AcDbLine
 10
8396397.340002954
 20
5678853.299999483
 30
0.0
 11
8396380.080002952
 21
5678872.349999485
 31
0.0
  0
LINE
  5
10002AF
330
16
100
AcDbEntity
  8
0
  6
Continuous
370
    18
100
AcDbLine
 10
8396380.080002952
 20
5678872.349999485
 30
0.0
 11
8396371.58000295
 21
5678881.819999483
 31
0.0
  0
LINE
  5
10002B0
330
16
100
AcDbEntity
  8
0
  6
Continuous
370
    18
100
AcDbLine
 10
8396371.58000295
 20
5678881.819999483
 30
0.0
 11
8396369.380002949
 21
5678884.999999484
 31
0.0
  0
LINE
  5
10002B1
330
16
100
AcDbEntity
  8
0
  6
Continuous
370
    18
100
AcDbLine
 10
8396369.380002949
 20
5678884.999999484
 30
0.0
 11
8396367.600002951
 21
5678885.989999484
 31
0.0
  0
LINE
  5
10002B2
330
16
100
AcDbEntity
  8
0
  6
Continuous
370
    18
100
AcDbLine
 10
8396367.600002951
 20
5678885.989999484
 30
0.0
 11
8396361.77000295
 21
5678888.149999482
 31
0.0
  0
LINE
  5
10002B3
330
16
100
AcDbEntity
  8
0
  6
Continuous
370
    18
100
AcDbLine
 10
8396361.77000295
 20
5678888.149999482
 30
0.0
 11
8396323.800002949
 21
5678883.879999481
 31
0.0
  0
LINE
  5
10002B4
330
16
100
AcDbEntity
  8
0
  6
Continuous
370
    18
100
AcDbLine
 10
8396323.800002949
 20
5678883.879999481
 30
0.0
 11
8396319.910002947
 21
5678883.309999481
 31
0.0
  0
LINE
  5
10002B5
330
16
100
AcDbEntity
  8
0
  6
Continuous
370
    18
100
AcDbLine
 10
8396319.910002947
 20
5678883.309999481
 30
0.0
 11
8396317.380002949
 21
5678882.929999483
 31
0.0
  0
LINE
  5
10002B6
330
16
100
AcDbEntity
  8
0
  6
Continuous
370
    18
100
AcDbLine
 10
8396317.380002949
 20
5678882.929999483
 30
0.0
 11
8396316.360002948
 21
5678882.759999485
 31
0.0
  0
LINE
  5
10002B7
330
16
100
AcDbEntity
  8
0
  6
Continuous
370
    18
100
AcDbLine
 10
8396316.360002948
 20
5678882.759999485
 30
0.0
 11
8396287.310002945
 21
5678878.479999482
 31
0.0
  0
LINE
  5
10002B8
330
16
100
AcDbEntity
  8
0
  6
Continuous
370
    18
100
AcDbLine
 10
8396287.310002945
 20
5678878.479999482
 30
0.0
 11
8396278.740002946
 21
5678877.979999482
 31
0.0
  0
LINE
  5
10002B9
330
16
100
AcDbEntity
  8
0
  6
Continuous
370
    18
100
AcDbLine
 10
8396278.740002946
 20
5678877.979999482
 30
0.0
 11
8396276.690002943
 21
5678878.019999481
 31
0.0
  0
LINE
  5
10002BA
330
16
100
AcDbEntity
  8
0
  6
Continuous
370
    18
100
AcDbLine
 10
8396276.690002943
 20
5678878.019999481
 30
0.0
 11
8396266.140002946
 21
5678878.099999479
 31
0.0
  0
LINE
  5
10002BB
330
16
100
AcDbEntity
  8
0
  6
Continuous
370
    18
100
AcDbLine
 10
8396266.140002946
 20
5678878.099999479
 30
0.0
 11
8396256.670002943
 21
5678878.71999948
 31
0.0
  0
LINE
  5
10002BC
330
16
100
AcDbEntity
  8
0
  6
Continuous
370
    18
100
AcDbLine
 10
8396256.670002943
 20
5678878.71999948
 30
0.0
 11
8396249.760002945
 21
5678879.699999483
 31
0.0
  0
LINE
  5
10002BD
330
16
100
AcDbEntity
  8
0
  6
Continuous
370
    18
100
AcDbLine
 10
8396249.760002945
 20
5678879.699999483
 30
0.0
 11
8396233.680002943
 21
5678879.689999481
 31
0.0
  0
LINE
  5
10002BE
330
16
100
AcDbEntity
  8
0
  6
Continuous
370
    18
100
AcDbLine
 10
8396104.060002937
 20
5678925.85999948
 30
0.0
 11
8396076.060002934
 21
5678933.089999481
 31
0.0
  0
LINE
  5
10002BF
330
16
100
AcDbEntity
  8
0
  6
Continuous
370
    18
100
AcDbLine
 10
8396076.060002934
 20
5678933.089999481
 30
0.0
 11
8396089.450002934
 21
5678953.719999481
 31
0.0
  0
LINE
  5
10002C0
330
16
100
AcDbEntity
  8
0
  6
Continuous
370
    18
100
AcDbLine
 10
8396089.450002934
 20
5678953.719999481
 30
0.0
 11
8396113.030002934
 21
5678939.189999481
 31
0.0
  0
LINE
  5
10002C1
330
16
100
AcDbEntity
  8
0
  6
Continuous
370
    18
100
AcDbLine
 10
8396113.030002934
 20
5678939.189999481
 30
0.0
 11
8396104.060002937
 21
5678925.85999948
 31
0.0
  0
LINE
  5
10002C2
330
16
100
AcDbEntity
  8
0
  6
Continuous
370
    18
100
AcDbLine
 10
8396113.770002935
 20
5678940.029999481
 30
0.0
 11
8396171.430002938
 21
5678927.329999484
 31
0.0
  0
LINE
  5
10002C3
330
16
100
AcDbEntity
  8
0
  6
Continuous
370
    18
100
AcDbLine
 10
8396171.430002938
 20
5678927.329999484
 30
0.0
 11
8396166.620002937
 21
5678909.699999482
 31
0.0
  0
LINE
  5
10002C4
330
16
100
AcDbEntity
  8
0
  6
Continuous
370
    18
100
AcDbLine
 10
8396166.620002937
 20
5678909.699999482
 30
0.0
 11
8396104.060002937
 21
5678925.85999948
 31
0.0
  0
LINE
  5
10002C5
330
16
100
AcDbEntity
  8
0
  6
Continuous
370
    18
100
AcDbLine
 10
8396104.060002937
 20
5678925.85999948
 30
0.0
 11
8396113.030002934
 21
5678939.189999481
 31
0.0
  0
LINE
  5
10002C6
330
16
100
AcDbEntity
  8
0
  6
Continuous
370
    18
100
AcDbLine
 10
8396113.030002934
 20
5678939.189999481
 30
0.0
 11
8396113.770002935
 21
5678940.029999481
 31
0.0
  0
LINE
  5
10002C7
330
16
100
AcDbEntity
  8
0
  6
Continuous
370
    18
100
AcDbLine
 10
8396175.260002939
 20
5678907.459999481
 30
0.0
 11
8396166.620002937
 21
5678909.699999482
 31
0.0
  0
LINE
  5
10002C8
330
16
100
AcDbEntity
  8
0
  6
Continuous
370
    18
100
AcDbLine
 10
8396166.620002937
 20
5678909.699999482
 30
0.0
 11
8396171.430002938
 21
5678927.329999484
 31
0.0
  0
LINE
  5
10002C9
330
16
100
AcDbEntity
  8
0
  6
Continuous
370
    18
100
AcDbLine
 10
8396171.430002938
 20
5678927.329999484
 30
0.0
 11
8396180.110002937
 21
5678925.45999948
 31
0.0
  0
LINE
  5
10002CA
330
16
100
AcDbEntity
  8
0
  6
Continuous
370
    18
100
AcDbLine
 10
8396180.110002937
 20
5678925.45999948
 30
0.0
 11
8396175.260002939
 21
5678907.459999481
 31
0.0
  0
LINE
  5
10002CB
330
16
100
AcDbEntity
  8
zakres
370
    35
100
AcDbLine
 10
8396043.103528258
 20
5679044.820337501
 30
0.0
 11
8396145.599999996
 21
5679050.099999999
 31
0.0
  0
LINE
  5
10002CC
330
16
100
AcDbEntity
  8
zakres
370
    35
100
AcDbLine
 10
8396145.599999996
 20
5679050.099999999
 30
0.0
 11
8396195.453947775
 21
5679051.077757801
 31
0.0
  0
LINE
  5
10002CD
330
16
100
AcDbEntity
  8
zakres
370
    35
100
AcDbLine
 10
8396195.453947775
 20
5679051.077757801
 30
0.0
 11
8396266.899999998
 21
5679037.299999999
 31
0.0
  0
LINE
  5
10002CE
330
16
100
AcDbEntity
  8
zakres
370
    35
100
AcDbLine
 10
8396266.899999998
 20
5679037.299999999
 30
0.0
 11
8396363.3
 21
5679010.399999998
 31
0.0
  0
LINE
  5
10002CF
330
16
100
AcDbEntity
  8
zakres
370
    35
100
AcDbLine
 10
8396363.3
 20
5679010.399999998
 30
0.0
 11
8396436.399999998
 21
5678989.799999999
 31
0.0
  0
LINE
  5
10002D0
330
16
100
AcDbEntity
  8
zakres
370
    35
100
AcDbLine
 10
8396436.399999998
 20
5678989.799999999
 30
0.0
 11
8396569.099999995
 21
5678937.199999998
 31
0.0
  0
LINE
  5
10002D1
330
16
100
AcDbEntity
  8
zakres
370
    35
100
AcDbLine
 10
8396466.545313366
 20
5679035.905736601
 30
0.0
 11
8396446.737041525
 21
5678985.702574343
 31
0.0
  0
LINE
  5
10002D2
330
16
100
AcDbEntity
  8
zakres
370
    35
100
AcDbLine
 10
8396446.737041525
 20
5678985.702574343
 30
0.0
 11
8396572.099999996
 21
5678941.599999999
 31
0.0
  0
LINE
  5
10002D3
330
16
100
AcDbEntity
  8
zakres
370
    35
100
AcDbLine
 10
8396572.099999996
 20
5678941.599999999
 30
0.0
 11
8396588.199999994
 21
5678971.399999999
 31
0.0
  0
LINE
  5
10002D4
330
16
100
AcDbEntity
  8
zakres
370
    35
100
AcDbLine
 10
8396588.199999994
 20
5678971.399999999
 30
0.0
 11
8396569.09242516
 21
5679005.043034135
 31
0.0
  0
LINE
  5
10002D5
330
16
100
AcDbEntity
  8
zakres
370
    35
100
AcDbLine
 10
8396569.09242516
 20
5679005.043034135
 30
0.0
 11
8396466.545313366
 21
5679035.905736601
 31
0.0
  0
LINE
  5
10002D6
330
16
100
AcDbEntity
  8
zakres
370
    35
100
AcDbLine
 10
8396429.22711039
 20
5679093.012087068
 30
0.0
 11
8396397.015142413
 21
5679000.898879154
 31
0.0
  0
LINE
  5
10002D7
330
16
100
AcDbEntity
  8
zakres
370
    35
100
AcDbLine
 10
8396397.015142413
 20
5679000.898879154
 30
0.0
 11
8396365.064341781
 21
5678972.856983468
 31
0.0
  0
LINE
  5
10002D8
330
16
100
AcDbEntity
  8
zakres
370
    35
100
AcDbLine
 10
8396038.3
 20
5679094.599999998
 30
0.0
 11
8396109.599999997
 21
5679097.899999999
 31
0.0
  0
LINE
  5
10002D9
330
16
100
AcDbEntity
  8
zakres
370
    35
100
AcDbLine
 10
8396109.599999997
 20
5679097.899999999
 30
0.0
 11
8396111.800000001
 21
5679053.799999999
 31
0.0
  0
LINE
  5
10002DA
330
16
100
AcDbEntity
  8
zakres
370
    35
100
AcDbLine
 10
8396111.800000001
 20
5679053.799999999
 30
0.0
 11
8396049.699999997
 21
5679049.799999999
 31
0.0
  0
LINE
  5
10002DB
330
16
100
AcDbEntity
  8
zakres
370
    35
100
AcDbLine
 10
8396049.699999997
 20
5679049.799999999
 30
0.0
 11
8396038.3
 21
5679094.599999998
 31
0.0
  0
ENDSEC
  0
SECTION
  2
OBJECTS
  0
DICTIONARY
  5
6F9
330
0
100
AcDbDictionary
281
     1
  3
ACAD_COLOR
350
100001C
  3
ACAD_GROUP
350
6FA
  3
ACAD_LAYOUT
350
6FB
  3
ACAD_MATERIAL
350
FFFFFF
  3
ACAD_MLEADERSTYLE
350
100001F
  3
ACAD_MLINESTYLE
350
6FC
  3
ACAD_PLOTSETTINGS
350
6FD
  3
ACAD_PLOTSTYLENAME
350
6FE
  3
ACAD_SCALELIST
350
1000021
  3
ACAD_TABLESTYLE
350
100001D
  3
ACAD_VISUALSTYLE
350
1000003
  3
ACAD_WIPEOUT_VARS
350
6FF
  3
AcDbVariableDictionary
350
10002DC
  0
DICTIONARY
  5
1000034
330
16
100
AcDbDictionary
280
     1
281
     1
  3
ACAD_SORTENTS
360
1000035
  0
DICTIONARY
  5
100001C
102
{ACAD_REACTORS
330
6F9
102
}
330
6F9
100
AcDbDictionary
281
     1
  0
DICTIONARY
  5
6FA
102
{ACAD_REACTORS
330
6F9
102
}
330
6F9
100
AcDbDictionary
281
     1
  0
DICTIONARY
  5
6FB
102
{ACAD_REACTORS
330
6F9
102
}
330
6F9
100
AcDbDictionary
281
     1
  3
Layout
350
19
  3
Model
350
17
  0
DICTIONARY
  5
FFFFFF
102
{ACAD_REACTORS
330
6F9
102
}
330
6F9
100
AcDbDictionary
281
     1
  3
ByBlock
350
1000001
  3
ByLayer
350
1000000
  3
Global
350
1000002
  0
DICTIONARY
  5
100001F
102
{ACAD_REACTORS
330
6F9
102
}
330
6F9
100
AcDbDictionary
281
     1
  3
Standard
350
1000020
  0
DICTIONARY
  5
6FC
102
{ACAD_REACTORS
330
6F9
102
}
330
6F9
100
AcDbDictionary
281
     1
  3
Standard
350
700
  0
DICTIONARY
  5
6FD
102
{ACAD_REACTORS
330
6F9
102
}
330
6F9
100
AcDbDictionary
281
     1
  0
ACDBDICTIONARYWDFLT
  5
6FE
102
{ACAD_REACTORS
330
6F9
102
}
330
6F9
100
AcDbDictionary
281
     1
  3
Normal
350
A
100
AcDbDictionaryWithDefault
340
A
  0
DICTIONARY
  5
1000021
102
{ACAD_REACTORS
330
6F9
102
}
330
6F9
100
AcDbDictionary
281
     1
  3
A0
350
1000022
  3
A1
350
1000023
  3
A2
350
1000024
  3
A3
350
1000025
  3
A4
350
1000026
  3
A5
350
1000027
  3
A6
350
1000028
  3
A7
350
1000029
  3
A8
350
100002A
  3
A9
350
100002B
  3
B0
350
100002C
  3
B1
350
100002D
  3
B2
350
100002E
  3
B3
350
100002F
  3
B4
350
1000030
  3
B5
350
1000031
  3
B6
350
1000032
  0
DICTIONARY
  5
100001D
102
{ACAD_REACTORS
330
6F9
102
}
330
6F9
100
AcDbDictionary
281
     1
  3
Standard
350
100001E
  0
DICTIONARY
  5
1000003
102
{ACAD_REACTORS
330
6F9
102
}
330
6F9
100
AcDbDictionary
281
     1
  3
2dWireframe
350
1000008
  3
Basic
350
100000B
  3
Brighten
350
100000F
  3
ColorChange
350
1000013
  3
Conceptual
350
100000D
  3
Dim
350
100000E
  3
EdgeColorOff
350
1000016
  3
Facepattern
350
1000012
  3
Flat
350
1000004
  3
FlatWithEdges
350
1000005
  3
Gouraud
350
1000006
  3
GouraudWithEdges
350
1000007
  3
Hidden
350
100000A
  3
JitterOff
350
1000014
  3
Linepattern
350
1000011
  3
OverhangOff
350
1000015
  3
Realistic
350
100000C
  3
Shaded
350
100001B
  3
Shaded with edges
350
100001A
  3
Shades of Gray
350
1000017
  3
Sketchy
350
1000018
  3
Thicken
350
1000010
  3
Wireframe
350
1000009
  3
X-Ray
350
1000019
  0
WIPEOUTVARIABLES
  5
6FF
102
{ACAD_REACTORS
330
6F9
102
}
330
6F9
100
AcDbWipeoutVariables
 70
     0
  0
DICTIONARY
  5
10002DC
102
{ACAD_REACTORS
330
6F9
102
}
330
6F9
100
AcDbDictionary
281
     1
  3
CANNOSCALE
350
10002E0
  3
CMLEADERSTYLE
350
10002DE
  3
CTABLESTYLE
350
10002DD
  3
MSLTSCALE
350
10002DF
  0
SORTENTSTABLE
  5
1000035
102
{ACAD_REACTORS
330
1000034
102
}
330
1000034
100
AcDbSortentsTable
330
16
331
477
  5
1000100
331
478
  5
1000101
331
479
  5
1000102
331
47A
  5
1000103
331
47B
  5
1000104
331
47C
  5
1000105
331
47D
  5
1000106
331
47E
  5
1000107
331
47F
  5
1000108
331
480
  5
1000109
331
481
  5
100010A
331
482
  5
100010B
331
483
  5
100010C
331
484
  5
100010D
331
485
  5
100010E
331
486
  5
100010F
331
487
  5
1000110
331
488
  5
1000111
331
489
  5
1000112
331
48A
  5
1000113
331
48B
  5
1000114
331
48C
  5
1000115
331
48D
  5
1000116
331
48E
  5
1000117
331
48F
  5
1000118
331
490
  5
1000119
331
491
  5
100011A
331
492
  5
100011B
331
493
  5
100011C
331
494
  5
100011D
331
495
  5
100011E
331
496
  5
100011F
331
497
  5
1000120
331
498
  5
1000121
331
499
  5
1000122
331
49A
  5
1000123
331
49B
  5
1000124
331
49C
  5
1000125
331
49D
  5
1000126
331
49E
  5
1000127
331
49F
  5
1000128
331
4A0
  5
1000129
331
4A1
  5
100012A
331
4A2
  5
100012B
331
4A3
  5
100012C
331
4A4
  5
100012D
331
4A5
  5
100012E
331
4A6
  5
100012F
331
4A7
  5
1000130
331
4A8
  5
1000131
331
4A9
  5
1000132
331
4AA
  5
1000133
331
4AB
  5
1000134
331
4AC
  5
1000135
331
4AD
  5
1000136
331
4AE
  5
1000137
331
4AF
  5
1000138
331
4B0
  5
1000139
331
4B1
  5
100013A
331
4B2
  5
100013B
331
4B3
  5
100013C
331
4B4
  5
100013D
331
4B5
  5
100013E
331
4B6
  5
100013F
331
4B7
  5
1000140
331
4B8
  5
1000141
331
4B9
  5
1000142
331
4BA
  5
1000143
331
4BB
  5
1000144
331
4BC
  5
1000145
331
4BD
  5
1000146
331
4BE
  5
1000147
331
4BF
  5
1000148
331
4C0
  5
1000149
331
4C1
  5
100014A
331
4C2
  5
100014B
331
4C3
  5
100014C
331
4C4
  5
100014D
331
4C5
  5
100014E
331
4C6
  5
100014F
331
4C7
  5
1000150
331
4C8
  5
1000151
331
4C9
  5
1000152
331
4CA
  5
1000153
331
4CB
  5
1000154
331
4CC
  5
1000155
331
4CD
  5
1000156
331
4CE
  5
1000157
331
4CF
  5
1000158
331
4D0
  5
1000159
331
4D1
  5
100015A
331
4D2
  5
100015B
331
4D3
  5
100015C
331
4D4
  5
100015D
331
4D5
  5
100015E
331
4D6
  5
100015F
331
4D7
  5
1000160
331
4D8
  5
1000161
331
4D9
  5
1000162
331
4DA
  5
1000163
331
4DB
  5
1000164
331
4DC
  5
1000165
331
4DD
  5
1000166
331
4DE
  5
1000167
331
4DF
  5
1000168
331
4E0
  5
1000169
331
4E1
  5
100016A
331
4E2
  5
100016B
331
4E3
  5
100016C
331
4E4
  5
100016D
331
4E5
  5
100016E
331
4E6
  5
100016F
331
4E7
  5
1000170
331
4E8
  5
1000171
331
4E9
  5
1000172
331
4EA
  5
1000173
331
4EB
  5
1000174
331
4EC
  5
1000175
331
4ED
  5
1000176
331
4EE
  5
1000177
331
4EF
  5
1000178
331
4F0
  5
1000179
331
4F1
  5
100017A
331
4F2
  5
100017B
331
4F3
  5
100017C
331
4F4
  5
100017D
331
4F5
  5
100017E
331
4F6
  5
100017F
331
4F7
  5
1000180
331
4F8
  5
1000181
331
4F9
  5
1000182
331
4FA
  5
1000183
331
4FB
  5
1000184
331
4FC
  5
1000185
331
4FD
  5
1000186
331
4FE
  5
1000187
331
4FF
  5
1000188
331
500
  5
1000189
331
501
  5
100018A
331
502
  5
100018B
331
503
  5
100018C
331
504
  5
100018D
331
505
  5
100018E
331
506
  5
100018F
331
507
  5
1000190
331
508
  5
1000191
331
509
  5
1000192
331
50A
  5
1000193
331
50B
  5
1000194
331
50C
  5
1000195
331
50D
  5
1000196
331
50E
  5
1000197
331
50F
  5
1000198
331
510
  5
1000199
331
511
  5
100019A
331
512
  5
100019B
331
513
  5
100019C
331
514
  5
100019D
331
515
  5
100019E
331
516
  5
100019F
331
517
  5
10001A0
331
518
  5
10001A1
331
519
  5
10001A2
331
51A
  5
10001A3
331
51B
  5
10001A4
331
51C
  5
10001A5
331
51D
  5
10001A6
331
51E
  5
10001A7
331
521
  5
10001A8
331
522
  5
10001A9
331
523
  5
10001AA
331
524
  5
10001AB
331
529
  5
10001AC
331
52A
  5
10001AD
331
541
  5
10001AE
331
542
  5
10001AF
331
543
  5
10001B0
331
544
  5
10001B1
331
545
  5
10001B2
331
546
  5
10001B3
331
547
  5
10001B4
331
548
  5
10001B5
331
549
  5
10001B6
331
54A
  5
10001B7
331
54B
  5
10001B8
331
54C
  5
10001B9
331
54D
  5
10001BA
331
54E
  5
10001BB
331
54F
  5
10001BC
331
550
  5
10001BD
331
551
  5
10001BE
331
552
  5
10001BF
331
553
  5
10001C0
331
554
  5
10001C1
331
555
  5
10001C2
331
556
  5
10001C3
331
557
  5
10001C4
331
558
  5
10001C5
331
559
  5
10001C6
331
55A
  5
10001C7
331
55B
  5
10001C8
331
55C
  5
10001C9
331
55D
  5
10001CA
331
55E
  5
10001CB
331
55F
  5
10001CC
331
560
  5
10001CD
331
561
  5
10001CE
331
562
  5
10001CF
331
563
  5
10001D0
331
564
  5
10001D1
331
565
  5
10001D2
331
566
  5
10001D3
331
567
  5
10001D4
331
579
  5
10001D5
331
57A
  5
10001D6
331
57B
  5
10001D7
331
57C
  5
10001D8
331
57D
  5
10001D9
331
57E
  5
10001DA
331
57F
  5
10001DB
331
580
  5
10001DC
331
581
  5
10001DD
331
582
  5
10001DE
331
583
  5
10001DF
331
584
  5
10001E0
331
585
  5
10001E1
331
5BB
  5
10001E2
331
5BE
  5
10001E3
331
5BF
  5
10001E4
331
5C0
  5
10001E5
331
5C1
  5
10001E6
331
5C2
  5
10001E7
331
5C3
  5
10001E8
331
5C4
  5
10001E9
331
5C5
  5
10001EA
331
5C6
  5
10001EB
331
5C7
  5
10001EC
331
5C8
  5
10001ED
331
5C9
  5
10001EE
331
5CA
  5
10001EF
331
5CB
  5
10001F0
331
5CC
  5
10001F1
331
5CD
  5
10001F2
331
5E1
  5
10001F3
331
5E2
  5
10001F4
331
5E3
  5
10001F5
331
5E4
  5
10001F6
331
5E5
  5
10001F7
331
5E6
  5
10001F8
331
5E7
  5
10001F9
331
5E8
  5
10001FA
331
5E9
  5
10001FB
331
5EA
  5
10001FC
331
5EB
  5
10001FD
331
5EC
  5
10001FE
331
5ED
  5
10001FF
331
5EE
  5
1000200
331
5EF
  5
1000201
331
5F0
  5
1000202
331
5F1
  5
1000203
331
5F2
  5
1000204
331
5F3
  5
1000205
331
5F4
  5
1000206
331
5F5
  5
1000207
331
5F6
  5
1000208
331
5F7
  5
1000209
331
5F8
  5
100020A
331
5F9
  5
100020B
331
5FA
  5
100020C
331
5FB
  5
100020D
331
5FC
  5
100020E
331
5FD
  5
100020F
331
5FE
  5
1000210
331
607
  5
1000211
331
60C
  5
1000212
331
60D
  5
1000213
331
612
  5
1000214
331
613
  5
1000215
331
614
  5
1000216
331
615
  5
1000217
331
616
  5
1000218
331
617
  5
1000219
331
618
  5
100021A
331
619
  5
100021B
331
61A
  5
100021C
331
61B
  5
100021D
331
61C
  5
100021E
331
61D
  5
100021F
331
61E
  5
1000220
331
61F
  5
1000221
331
620
  5
1000222
331
621
  5
1000223
331
622
  5
1000224
331
625
  5
1000225
331
626
  5
1000226
331
627
  5
1000227
331
628
  5
1000228
331
629
  5
1000229
331
62A
  5
100022A
331
62B
  5
100022B
331
62C
  5
100022C
331
62D
  5
100022D
331
62E
  5
100022E
331
62F
  5
100022F
331
631
  5
1000230
331
632
  5
1000231
331
633
  5
1000232
331
634
  5
1000233
331
635
  5
1000234
331
636
  5
1000235
331
637
  5
1000236
331
638
  5
1000237
331
639
  5
1000238
331
63A
  5
1000239
331
63B
  5
100023A
331
63C
  5
100023B
331
63D
  5
100023C
331
63E
  5
100023D
331
63F
  5
100023E
331
640
  5
100023F
331
641
  5
1000240
331
642
  5
1000241
331
643
  5
1000242
331
644
  5
1000243
331
645
  5
1000244
331
646
  5
1000245
331
647
  5
1000246
331
648
  5
1000247
331
649
  5
1000248
331
64A
  5
1000249
331
64B
  5
100024A
331
64C
  5
100024B
331
64D
  5
100024C
331
64E
  5
100024D
331
64F
  5
100024E
331
650
  5
100024F
331
651
  5
1000250
331
652
  5
1000251
331
653
  5
1000252
331
654
  5
1000253
331
655
  5
1000254
331
656
  5
1000255
331
657
  5
1000256
331
658
  5
1000257
331
659
  5
1000258
331
65A
  5
1000259
331
65B
  5
100025A
331
65C
  5
100025B
331
65D
  5
100025C
331
65E
  5
100025D
331
65F
  5
100025E
331
660
  5
100025F
331
661
  5
1000260
331
662
  5
1000261
331
663
  5
1000262
331
664
  5
1000263
331
665
  5
1000264
331
666
  5
1000265
331
667
  5
1000266
331
668
  5
1000267
331
669
  5
1000268
331
66C
  5
1000269
331
66D
  5
100026A
331
66E
  5
100026B
331
66F
  5
100026C
331
670
  5
100026D
331
671
  5
100026E
331
679
  5
100026F
331
680
  5
1000270
331
681
  5
1000271
331
682
  5
1000272
331
683
  5
1000273
331
684
  5
1000274
331
685
  5
1000275
331
686
  5
1000276
331
687
  5
1000277
331
688
  5
1000278
331
689
  5
1000279
331
68A
  5
100027A
331
68B
  5
100027B
331
68C
  5
100027C
331
68D
  5
100027D
331
68E
  5
100027E
331
68F
  5
100027F
331
690
  5
1000280
331
691
  5
1000281
331
692
  5
1000282
331
693
  5
1000283
331
694
  5
1000284
331
695
  5
1000285
331
696
  5
1000286
331
697
  5
1000287
331
698
  5
1000288
331
699
  5
1000289
331
69A
  5
100028A
331
69B
  5
100028B
331
69C
  5
100028C
331
69D
  5
100028D
331
69E
  5
100028E
331
69F
  5
100028F
331
6A0
  5
1000290
331
6A1
  5
1000291
331
6A2
  5
1000292
331
6A3
  5
1000293
331
6A4
  5
1000294
331
6A5
  5
1000295
331
6A6
  5
1000296
331
6A7
  5
1000297
331
6A8
  5
1000298
331
6A9
  5
1000299
331
6AA
  5
100029A
331
6AB
  5
100029B
331
6AC
  5
100029C
331
6AD
  5
100029D
331
6AF
  5
100029E
331
6B0
  5
100029F
331
6B1
  5
10002A0
331
6B2
  5
10002A1
331
6B3
  5
10002A2
331
6B4
  5
10002A3
331
6B5
  5
10002A4
331
6B6
  5
10002A5
331
6B7
  5
10002A6
331
6B8
  5
10002A7
331
6B9
  5
10002A8
331
6BA
  5
10002A9
331
6BB
  5
10002AA
331
6BC
  5
10002AB
331
6BD
  5
10002AC
331
6BE
  5
10002AD
331
6BF
  5
10002AE
331
6C0
  5
10002AF
331
6C1
  5
10002B0
331
6C2
  5
10002B1
331
6C3
  5
10002B2
331
6C4
  5
10002B3
331
6C5
  5
10002B4
331
6C6
  5
10002B5
331
6C7
  5
10002B6
331
6C8
  5
10002B7
331
6C9
  5
10002B8
331
6CA
  5
10002B9
331
6CB
  5
10002BA
331
6CC
  5
10002BB
331
6CE
  5
10002BC
331
6CF
  5
10002BD
331
6D0
  5
10002BE
331
6D1
  5
10002BF
331
6D2
  5
10002C0
331
6D3
  5
10002C1
331
6D7
  5
10002C2
331
6D8
  5
10002C3
331
6DB
  5
10002C4
331
6DD
  5
10002C5
331
6DF
  5
10002C6
331
6E1
  5
10002C7
331
6E2
  5
10002C8
331
6E3
  5
10002C9
331
6E5
  5
10002CA
331
6E6
  5
10002CB
331
6E7
  5
10002CC
331
6E8
  5
10002CD
331
6E9
  5
10002CE
331
6EA
  5
10002CF
331
6EB
  5
10002D0
331
6EC
  5
10002D1
331
6ED
  5
10002D2
331
6EE
  5
10002D3
331
6EF
  5
10002D4
331
6F0
  5
10002D5
331
6F1
  5
10002D6
331
6F3
  5
10002D7
331
6F5
  5
10002D8
331
6F6
  5
10002D9
331
6F7
  5
10002DA
331
6F8
  5
10002DB
331
1000036
  5
477
331
1000037
  5
478
331
1000038
  5
479
331
1000039
  5
47A
331
100003A
  5
47B
331
100003B
  5
47C
331
100003C
  5
47D
331
100003D
  5
47E
331
100003E
  5
47F
331
100003F
  5
480
331
1000040
  5
481
331
1000041
  5
482
331
1000042
  5
483
331
1000043
  5
484
331
1000044
  5
485
331
1000045
  5
486
331
1000046
  5
487
331
1000047
  5
488
331
1000048
  5
489
331
1000049
  5
48A
331
100004A
  5
48B
331
100004B
  5
48C
331
100004C
  5
48D
331
100004D
  5
48E
331
100004E
  5
48F
331
100004F
  5
490
331
1000050
  5
491
331
1000051
  5
492
331
1000052
  5
493
331
1000053
  5
494
331
1000054
  5
495
331
1000055
  5
496
331
1000056
  5
497
331
1000057
  5
498
331
1000058
  5
499
331
1000059
  5
49A
331
100005A
  5
49B
331
100005B
  5
49C
331
100005C
  5
49D
331
100005D
  5
49E
331
100005E
  5
49F
331
100005F
  5
4A0
331
1000060
  5
4A1
331
1000061
  5
4A2
331
1000062
  5
4A3
331
1000063
  5
4A4
331
1000064
  5
4A5
331
1000065
  5
4A6
331
1000066
  5
4A7
331
1000067
  5
4A8
331
1000068
  5
4A9
331
1000069
  5
4AA
331
100006A
  5
4AB
331
100006B
  5
4AC
331
100006C
  5
4AD
331
100006D
  5
4AE
331
100006E
  5
4AF
331
100006F
  5
4B0
331
1000070
  5
4B1
331
1000071
  5
4B2
331
1000072
  5
4B3
331
1000073
  5
4B4
331
1000074
  5
4B5
331
1000075
  5
4B6
331
1000076
  5
4B7
331
1000077
  5
4B8
331
1000078
  5
4B9
331
1000079
  5
4BA
331
100007A
  5
4BB
331
100007B
  5
4BC
331
100007C
  5
4BD
331
100007D
  5
4BE
331
100007E
  5
4BF
331
100007F
  5
4C0
331
1000080
  5
4C1
331
1000081
  5
4C2
331
1000082
  5
4C3
331
1000083
  5
4C4
331
1000084
  5
4C5
331
1000085
  5
4C6
331
1000086
  5
4C7
331
1000087
  5
4C8
331
1000088
  5
4C9
331
1000089
  5
4CA
331
100008A
  5
4CB
331
100008B
  5
4CC
331
100008C
  5
4CD
331
100008D
  5
4CE
331
100008E
  5
4CF
331
100008F
  5
4D0
331
1000090
  5
4D1
331
1000091
  5
4D2
331
1000092
  5
4D3
331
1000093
  5
4D4
331
1000094
  5
4D5
331
1000095
  5
4D6
331
1000096
  5
4D7
331
1000097
  5
4D8
331
1000098
  5
4D9
331
1000099
  5
4DA
331
100009A
  5
4DB
331
100009B
  5
4DC
331
100009C
  5
4DD
331
100009D
  5
4DE
331
100009E
  5
4DF
331
100009F
  5
4E0
331
10000A0
  5
4E1
331
10000A1
  5
4E2
331
10000A2
  5
4E3
331
10000A3
  5
4E4
331
10000A4
  5
4E5
331
10000A5
  5
4E6
331
10000A6
  5
4E7
331
10000A7
  5
4E8
331
10000A8
  5
4E9
331
10000A9
  5
4EA
331
10000AA
  5
4EB
331
10000AB
  5
4EC
331
10000AC
  5
4ED
331
10000AD
  5
4EE
331
10000AE
  5
4EF
331
10000AF
  5
4F0
331
10000B0
  5
4F1
331
10000B1
  5
4F2
331
10000B2
  5
4F3
331
10000B3
  5
4F4
331
10000B4
  5
4F5
331
10000B5
  5
4F6
331
10000B6
  5
4F7
331
10000B7
  5
4F8
331
10000B8
  5
4F9
331
10000B9
  5
4FA
331
10000BA
  5
4FB
331
10000BB
  5
4FC
331
10000BC
  5
4FD
331
10000BD
  5
4FE
331
10000BE
  5
4FF
331
10000BF
  5
500
331
10000C0
  5
501
331
10000C1
  5
502
331
10000C2
  5
503
331
10000C3
  5
504
331
10000C4
  5
505
331
10000C5
  5
506
331
10000C6
  5
507
331
10000C7
  5
508
331
10000C8
  5
509
331
10000C9
  5
50A
331
10000CA
  5
50B
331
10000CB
  5
50C
331
10000CC
  5
50D
331
10000CD
  5
50E
331
10000CE
  5
50F
331
10000CF
  5
510
331
10000D0
  5
511
331
10000D1
  5
512
331
10000D2
  5
513
331
10000D3
  5
514
331
10000D4
  5
515
331
10000D5
  5
516
331
10000D6
  5
517
331
10000D7
  5
518
331
10000D8
  5
519
331
10000D9
  5
51A
331
10000DA
  5
51B
331
10000DB
  5
51C
331
10000DC
  5
51D
331
10000DD
  5
51E
331
10000DE
  5
521
331
10000DF
  5
522
331
10000E0
  5
523
331
10000E1
  5
524
331
10000E2
  5
529
331
10000E3
  5
52A
331
10000E4
  5
541
331
10000E5
  5
542
331
10000E6
  5
543
331
10000E7
  5
544
331
10000E8
  5
545
331
10000E9
  5
546
331
10000EA
  5
547
331
10000EB
  5
548
331
10000EC
  5
549
331
10000ED
  5
54A
331
10000EE
  5
54B
331
10000EF
  5
54C
331
10000F0
  5
54D
331
10000F1
  5
54E
331
10000F2
  5
54F
331
10000F3
  5
550
331
10000F4
  5
551
331
10000F5
  5
552
331
10000F6
  5
553
331
10000F7
  5
554
331
10000F8
  5
555
331
10000F9
  5
556
331
10000FA
  5
557
331
10000FB
  5
558
331
10000FC
  5
559
331
10000FD
  5
55A
331
10000FE
  5
55B
331
10000FF
  5
55C
331
1000100
  5
55D
331
1000101
  5
55E
331
1000102
  5
55F
331
1000103
  5
560
331
1000104
  5
561
331
1000105
  5
562
331
1000106
  5
563
331
1000107
  5
564
331
1000108
  5
565
331
1000109
  5
566
331
100010A
  5
567
331
100010B
  5
579
331
100010C
  5
57A
331
100010D
  5
57B
331
100010E
  5
57C
331
100010F
  5
57D
331
1000110
  5
57E
331
1000111
  5
57F
331
1000112
  5
580
331
1000113
  5
581
331
1000114
  5
582
331
1000115
  5
583
331
1000116
  5
584
331
1000117
  5
585
331
1000118
  5
5BB
331
1000119
  5
5BE
331
100011A
  5
5BF
331
100011B
  5
5C0
331
100011C
  5
5C1
331
100011D
  5
5C2
331
100011E
  5
5C3
331
100011F
  5
5C4
331
1000120
  5
5C5
331
1000121
  5
5C6
331
1000122
  5
5C7
331
1000123
  5
5C8
331
1000124
  5
5C9
331
1000125
  5
5CA
331
1000126
  5
5CB
331
1000127
  5
5CC
331
1000128
  5
5CD
331
1000129
  5
5E1
331
100012A
  5
5E2
331
100012B
  5
5E3
331
100012C
  5
5E4
331
100012D
  5
5E5
331
100012E
  5
5E6
331
100012F
  5
5E7
331
1000130
  5
5E8
331
1000131
  5
5E9
331
1000132
  5
5EA
331
1000133
  5
5EB
331
1000134
  5
5EC
331
1000135
  5
5ED
331
1000136
  5
5EE
331
1000137
  5
5EF
331
1000138
  5
5F0
331
1000139
  5
5F1
331
100013A
  5
5F2
331
100013B
  5
5F3
331
100013C
  5
5F4
331
100013D
  5
5F5
331
100013E
  5
5F6
331
100013F
  5
5F7
331
1000140
  5
5F8
331
1000141
  5
5F9
331
1000142
  5
5FA
331
1000143
  5
5FB
331
1000144
  5
5FC
331
1000145
  5
5FD
331
1000146
  5
5FE
331
1000147
  5
607
331
1000148
  5
60C
331
1000149
  5
60D
331
100014A
  5
612
331
100014B
  5
613
331
100014C
  5
614
331
100014D
  5
615
331
100014E
  5
616
331
100014F
  5
617
331
1000150
  5
618
331
1000151
  5
619
331
1000152
  5
61A
331
1000153
  5
61B
331
1000154
  5
61C
331
1000155
  5
61D
331
1000156
  5
61E
331
1000157
  5
61F
331
1000158
  5
620
331
1000159
  5
621
331
100015A
  5
622
331
100015B
  5
625
331
100015C
  5
626
331
100015D
  5
627
331
100015E
  5
628
331
100015F
  5
629
331
1000160
  5
62A
331
1000161
  5
62B
331
1000162
  5
62C
331
1000163
  5
62D
331
1000164
  5
62E
331
1000165
  5
62F
331
1000166
  5
631
331
1000167
  5
632
331
1000168
  5
633
331
1000169
  5
634
331
100016A
  5
635
331
100016B
  5
636
331
100016C
  5
637
331
100016D
  5
638
331
100016E
  5
639
331
100016F
  5
63A
331
1000170
  5
63B
331
1000171
  5
63C
331
1000172
  5
63D
331
1000173
  5
63E
331
1000174
  5
63F
331
1000175
  5
640
331
1000176
  5
641
331
1000177
  5
642
331
1000178
  5
643
331
1000179
  5
644
331
100017A
  5
645
331
100017B
  5
646
331
100017C
  5
647
331
100017D
  5
648
331
100017E
  5
649
331
100017F
  5
64A
331
1000180
  5
64B
331
1000181
  5
64C
331
1000182
  5
64D
331
1000183
  5
64E
331
1000184
  5
64F
331
1000185
  5
650
331
1000186
  5
651
331
1000187
  5
652
331
1000188
  5
653
331
1000189
  5
654
331
100018A
  5
655
331
100018B
  5
656
331
100018C
  5
657
331
100018D
  5
658
331
100018E
  5
659
331
100018F
  5
65A
331
1000190
  5
65B
331
1000191
  5
65C
331
1000192
  5
65D
331
1000193
  5
65E
331
1000194
  5
65F
331
1000195
  5
660
331
1000196
  5
661
331
1000197
  5
662
331
1000198
  5
663
331
1000199
  5
664
331
100019A
  5
665
331
100019B
  5
666
331
100019C
  5
667
331
100019D
  5
668
331
100019E
  5
669
331
100019F
  5
66C
331
10001A0
  5
66D
331
10001A1
  5
66E
331
10001A2
  5
66F
331
10001A3
  5
670
331
10001A4
  5
671
331
10001A5
  5
679
331
10001A6
  5
680
331
10001A7
  5
681
331
10001A8
  5
682
331
10001A9
  5
683
331
10001AA
  5
684
331
10001AB
  5
685
331
10001AC
  5
686
331
10001AD
  5
687
331
10001AE
  5
688
331
10001AF
  5
689
331
10001B0
  5
68A
331
10001B1
  5
68B
331
10001B2
  5
68C
331
10001B3
  5
68D
331
10001B4
  5
68E
331
10001B5
  5
68F
331
10001B6
  5
690
331
10001B7
  5
691
331
10001B8
  5
692
331
10001B9
  5
693
331
10001BA
  5
694
331
10001BB
  5
695
331
10001BC
  5
696
331
10001BD
  5
697
331
10001BE
  5
698
331
10001BF
  5
699
331
10001C0
  5
69A
331
10001C1
  5
69B
331
10001C2
  5
69C
331
10001C3
  5
69D
331
10001C4
  5
69E
331
10001C5
  5
69F
331
10001C6
  5
6A0
331
10001C7
  5
6A1
331
10001C8
  5
6A2
331
10001C9
  5
6A3
331
10001CA
  5
6A4
331
10001CB
  5
6A5
331
10001CC
  5
6A6
331
10001CD
  5
6A7
331
10001CE
  5
6A8
331
10001CF
  5
6A9
331
10001D0
  5
6AA
331
10001D1
  5
6AB
331
10001D2
  5
6AC
331
10001D3
  5
6AD
331
10001D4
  5
6AF
331
10001D5
  5
6B0
331
10001D6
  5
6B1
331
10001D7
  5
6B2
331
10001D8
  5
6B3
331
10001D9
  5
6B4
331
10001DA
  5
6B5
331
10001DB
  5
6B6
331
10001DC
  5
6B7
331
10001DD
  5
6B8
331
10001DE
  5
6B9
331
10001DF
  5
6BA
331
10001E0
  5
6BB
331
10001E1
  5
6BC
331
10001E2
  5
6BD
331
10001E3
  5
6BE
331
10001E4
  5
6BF
331
10001E5
  5
6C0
331
10001E6
  5
6C1
331
10001E7
  5
6C2
331
10001E8
  5
6C3
331
10001E9
  5
6C4
331
10001EA
  5
6C5
331
10001EB
  5
6C6
331
10001EC
  5
6C7
331
10001ED
  5
6C8
331
10001EE
  5
6C9
331
10001EF
  5
6CA
331
10001F0
  5
6CB
331
10001F1
  5
6CC
331
10001F2
  5
6CE
331
10001F3
  5
6CF
331
10001F4
  5
6D0
331
10001F5
  5
6D1
331
10001F6
  5
6D2
331
10001F7
  5
6D3
331
10001F8
  5
6D7
331
10001F9
  5
6D8
331
10001FA
  5
6DB
331
10001FB
  5
6DD
331
10001FC
  5
6DF
331
10001FD
  5
6E1
331
10001FE
  5
6E2
331
10001FF
  5
6E3
331
1000200
  5
6E5
331
1000201
  5
6E6
331
1000202
  5
6E7
331
1000203
  5
6E8
331
1000204
  5
6E9
331
1000205
  5
6EA
331
1000206
  5
6EB
331
1000207
  5
6EC
331
1000208
  5
6ED
331
1000209
  5
6EE
331
100020A
  5
6EF
331
100020B
  5
6F0
331
100020C
  5
6F1
331
100020D
  5
6F3
331
100020E
  5
6F5
331
100020F
  5
6F6
331
1000210
  5
6F7
331
1000211
  5
6F8
331
1000212
  5
1000036
331
1000213
  5
1000037
331
1000214
  5
1000038
331
1000215
  5
1000039
331
1000216
  5
100003A
331
1000217
  5
100003B
331
1000218
  5
100003C
331
1000219
  5
100003D
331
100021A
  5
100003E
331
100021B
  5
100003F
331
100021C
  5
1000040
331
100021D
  5
1000041
331
100021E
  5
1000042
331
100021F
  5
1000043
331
1000220
  5
1000044
331
1000221
  5
1000045
331
1000222
  5
1000046
331
1000223
  5
1000047
331
1000224
  5
1000048
331
1000225
  5
1000049
331
1000226
  5
100004A
331
1000227
  5
100004B
331
1000228
  5
100004C
331
1000229
  5
100004D
331
100022A
  5
100004E
331
100022B
  5
100004F
331
100022C
  5
1000050
331
100022D
  5
1000051
331
100022E
  5
1000052
331
100022F
  5
1000053
331
1000230
  5
1000054
331
1000231
  5
1000055
331
1000232
  5
1000056
331
1000233
  5
1000057
331
1000234
  5
1000058
331
1000235
  5
1000059
331
1000236
  5
100005A
331
1000237
  5
100005B
331
1000238
  5
100005C
331
1000239
  5
100005D
331
100023A
  5
100005E
331
100023B
  5
100005F
331
100023C
  5
1000060
331
100023D
  5
1000061
331
100023E
  5
1000062
331
100023F
  5
1000063
331
1000240
  5
1000064
331
1000241
  5
1000065
331
1000242
  5
1000066
331
1000243
  5
1000067
331
1000244
  5
1000068
331
1000245
  5
1000069
331
1000246
  5
100006A
331
1000247
  5
100006B
331
1000248
  5
100006C
331
1000249
  5
100006D
331
100024A
  5
100006E
331
100024B
  5
100006F
331
100024C
  5
1000070
331
100024D
  5
1000071
331
100024E
  5
1000072
331
100024F
  5
1000073
331
1000250
  5
1000074
331
1000251
  5
1000075
331
1000252
  5
1000076
331
1000253
  5
1000077
331
1000254
  5
1000078
331
1000255
  5
1000079
331
1000256
  5
100007A
331
1000257
  5
100007B
331
1000258
  5
100007C
331
1000259
  5
100007D
331
100025A
  5
100007E
331
100025B
  5
100007F
331
100025C
  5
1000080
331
100025D
  5
1000081
331
100025E
  5
1000082
331
100025F
  5
1000083
331
1000260
  5
1000084
331
1000261
  5
1000085
331
1000262
  5
1000086
331
1000263
  5
1000087
331
1000264
  5
1000088
331
1000265
  5
1000089
331
1000266
  5
100008A
331
1000267
  5
100008B
331
1000268
  5
100008C
331
1000269
  5
100008D
331
100026A
  5
100008E
331
100026B
  5
100008F
331
100026C
  5
1000090
331
100026D
  5
1000091
331
100026E
  5
1000092
331
100026F
  5
1000093
331
1000270
  5
1000094
331
1000271
  5
1000095
331
1000272
  5
1000096
331
1000273
  5
1000097
331
1000274
  5
1000098
331
1000275
  5
1000099
331
1000276
  5
100009A
331
1000277
  5
100009B
331
1000278
  5
100009C
331
1000279
  5
100009D
331
100027A
  5
100009E
331
100027B
  5
100009F
331
100027C
  5
10000A0
331
100027D
  5
10000A1
331
100027E
  5
10000A2
331
100027F
  5
10000A3
331
1000280
  5
10000A4
331
1000281
  5
10000A5
331
1000282
  5
10000A6
331
1000283
  5
10000A7
331
1000284
  5
10000A8
331
1000285
  5
10000A9
331
1000286
  5
10000AA
331
1000287
  5
10000AB
331
1000288
  5
10000AC
331
1000289
  5
10000AD
331
100028A
  5
10000AE
331
100028B
  5
10000AF
331
100028C
  5
10000B0
331
100028D
  5
10000B1
331
100028E
  5
10000B2
331
100028F
  5
10000B3
331
1000290
  5
10000B4
331
1000291
  5
10000B5
331
1000292
  5
10000B6
331
1000293
  5
10000B7
331
1000294
  5
10000B8
331
1000295
  5
10000B9
331
1000296
  5
10000BA
331
1000297
  5
10000BB
331
1000298
  5
10000BC
331
1000299
  5
10000BD
331
100029A
  5
10000BE
331
100029B
  5
10000BF
331
100029C
  5
10000C0
331
100029D
  5
10000C1
331
100029E
  5
10000C2
331
100029F
  5
10000C3
331
10002A0
  5
10000C4
331
10002A1
  5
10000C5
331
10002A2
  5
10000C6
331
10002A3
  5
10000C7
331
10002A4
  5
10000C8
331
10002A5
  5
10000C9
331
10002A6
  5
10000CA
331
10002A7
  5
10000CB
331
10002A8
  5
10000CC
331
10002A9
  5
10000CD
331
10002AA
  5
10000CE
331
10002AB
  5
10000CF
331
10002AC
  5
10000D0
331
10002AD
  5
10000D1
331
10002AE
  5
10000D2
331
10002AF
  5
10000D3
331
10002B0
  5
10000D4
331
10002B1
  5
10000D5
331
10002B2
  5
10000D6
331
10002B3
  5
10000D7
331
10002B4
  5
10000D8
331
10002B5
  5
10000D9
331
10002B6
  5
10000DA
331
10002B7
  5
10000DB
331
10002B8
  5
10000DC
331
10002B9
  5
10000DD
331
10002BA
  5
10000DE
331
10002BB
  5
10000DF
331
10002BC
  5
10000E0
331
10002BD
  5
10000E1
331
10002BE
  5
10000E2
331
10002BF
  5
10000E3
331
10002C0
  5
10000E4
331
10002C1
  5
10000E5
331
10002C2
  5
10000E6
331
10002C3
  5
10000E7
331
10002C4
  5
10000E8
331
10002C5
  5
10000E9
331
10002C6
  5
10000EA
331
10002C7
  5
10000EB
331
10002C8
  5
10000EC
331
10002C9
  5
10000ED
331
10002CA
  5
10000EE
331
10002CB
  5
10000EF
331
10002CC
  5
10000F0
331
10002CD
  5
10000F1
331
10002CE
  5
10000F2
331
10002CF
  5
10000F3
331
10002D0
  5
10000F4
331
10002D1
  5
10000F5
331
10002D2
  5
10000F6
331
10002D3
  5
10000F7
331
10002D4
  5
10000F8
331
10002D5
  5
10000F9
331
10002D6
  5
10000FA
331
10002D7
  5
10000FB
331
10002D8
  5
10000FC
331
10002D9
  5
10000FD
331
10002DA
  5
10000FE
331
10002DB
  5
10000FF
  0
LAYOUT
  5
19
330
6FB
100
AcDbPlotSettings
  1

  2

  4

  6

 40
0.0
 41
0.0
 42
0.0
 43
0.0
 44
0.0
 45
0.0
 46
0.0
 47
0.0
 48
0.0
 49
0.0
140
0.0
141
0.0
142
1.0
143
1.0
 70
   688
 72
     1
 73
     0
 74
     5
  7

 75
     0
 76
     0
 77
     2
 78
   300
147
1.0
148
0.0
149
0.0
100
AcDbLayout
  1
Layout
 70
     1
 71
     1
 10
0.0
 20
0.0
 11
420.0
 21
297.0
 12
0.0
 22
0.0
 32
0.0
 14
1.000000000000000E+20
 24
1.000000000000000E+20
 34
1.000000000000000E+20
 15
-1.000000000000000E+20
 25
-1.000000000000000E+20
 35
-1.000000000000000E+20
146
0.0
 13
0.0
 23
0.0
 33
0.0
 16
1.0
 26
0.0
 36
0.0
 17
0.0
 27
1.0
 37
0.0
 76
     0
330
18
  0
LAYOUT
  5
17
330
6FB
100
AcDbPlotSettings
  1

  2

  4

  6

 40
0.0
 41
0.0
 42
0.0
 43
0.0
 44
0.0
 45
0.0
 46
0.0
 47
0.0
 48
0.0
 49
0.0
140
0.0
141
0.0
142
1.0
143
1.0
 70
  1712
 72
     1
 73
     0
 74
     0
  7

 75
     0
 76
     0
 77
     2
 78
   300
147
1.0
148
0.0
149
0.0
100
AcDbLayout
  1
Model
 70
     1
 71
     0
 10
0.0
 20
0.0
 11
12.0
 21
9.0
 12
0.0
 22
0.0
 32
0.0
 14
0.0
 24
0.0
 34
0.0
 15
0.0
 25
0.0
 35
0.0
146
0.0
 13
0.0
 23
0.0
 33
0.0
 16
1.0
 26
0.0
 36
0.0
 17
0.0
 27
1.0
 37
0.0
 76
     0
330
16
331
2
  0
MATERIAL
  5
1000001
102
{ACAD_REACTORS
330
FFFFFF
102
}
330
FFFFFF
100
AcDbMaterial
  1
ByBlock
 72
     0
 73
     2
 77
     0
 78
     2
171
     0
172
     2
175
     0
176
     2
179
     0
270
     2
274
     2
 94
      127
  0
MATERIAL
  5
1000000
102
{ACAD_REACTORS
330
FFFFFF
102
}
330
FFFFFF
100
AcDbMaterial
  1
ByLayer
 72
     0
 73
     2
 77
     0
 78
     2
171
     0
172
     2
175
     0
176
     2
179
     0
270
     2
274
     2
 94
      127
  0
MATERIAL
  5
1000002
102
{ACAD_REACTORS
330
FFFFFF
102
}
330
FFFFFF
100
AcDbMaterial
  1
Global
 72
     0
 73
     2
 77
     0
 78
     2
171
     0
172
     2
175
     0
176
     2
179
     0
270
     2
274
     2
 94
      127
  0
MLEADERSTYLE
  5
1000020
102
{ACAD_REACTORS
330
100001F
102
}
330
100001F
100
AcDbMLeaderStyle
179
     2
170
     2
171
     1
172
     0
 90
        2
 40
0.0
 41
0.0
173
     1
 91
-1056964608
340
4
 92
       -2
290
     1
 42
0.4
291
     1
 43
2.0
  3
Standard
 44
0.18
300

342
D
174
     1
178
     1
175
     1
176
     0
 93
-1056964608
 45
0.2
292
     0
297
     0
 46
5.0
 94
-1056964608
 47
1.0
 49
1.0
140
1.0
293
     1
141
0.0
294
     1
177
     0
142
1.0
295
     0
296
     0
143
0.125
271
     0
272
     9
273
     9
298
     0
  0
MLINESTYLE
  5
700
102
{ACAD_REACTORS
330
6FC
102
}
330
6FC
100
AcDbMlineStyle
  2
Standard
 70
     0
  3

 62
   256
 51
90.0
 52
90.0
 71
     2
 49
0.5
 62
   256
  6
BYLAYER
 49
-0.5
 62
   256
  6
BYLAYER
  0
ACDBPLACEHOLDER
  5
A
330
6FE
  0
SCALE
  5
1000022
102
{ACAD_REACTORS
330
1000021
102
}
330
1000021
100
AcDbScale
 70
     0
300
1:1
140
1.0
141
1.0
290
     1
  0
SCALE
  5
1000023
102
{ACAD_REACTORS
330
1000021
102
}
330
1000021
100
AcDbScale
 70
     0
300
1:2
140
1.0
141
2.0
290
     0
  0
SCALE
  5
1000024
102
{ACAD_REACTORS
330
1000021
102
}
330
1000021
100
AcDbScale
 70
     0
300
1:4
140
1.0
141
4.0
290
     0
  0
SCALE
  5
1000025
102
{ACAD_REACTORS
330
1000021
102
}
330
1000021
100
AcDbScale
 70
     0
300
1:5
140
1.0
141
5.0
290
     0
  0
SCALE
  5
1000026
102
{ACAD_REACTORS
330
1000021
102
}
330
1000021
100
AcDbScale
 70
     0
300
1:8
140
1.0
141
8.0
290
     0
  0
SCALE
  5
1000027
102
{ACAD_REACTORS
330
1000021
102
}
330
1000021
100
AcDbScale
 70
     0
300
1:10
140
1.0
141
10.0
290
     0
  0
SCALE
  5
1000028
102
{ACAD_REACTORS
330
1000021
102
}
330
1000021
100
AcDbScale
 70
     0
300
1:16
140
1.0
141
16.0
290
     0
  0
SCALE
  5
1000029
102
{ACAD_REACTORS
330
1000021
102
}
330
1000021
100
AcDbScale
 70
     0
300
1:20
140
1.0
141
20.0
290
     0
  0
SCALE
  5
100002A
102
{ACAD_REACTORS
330
1000021
102
}
330
1000021
100
AcDbScale
 70
     0
300
1:30
140
1.0
141
30.0
290
     0
  0
SCALE
  5
100002B
102
{ACAD_REACTORS
330
1000021
102
}
330
1000021
100
AcDbScale
 70
     0
300
1:40
140
1.0
141
40.0
290
     0
  0
SCALE
  5
100002C
102
{ACAD_REACTORS
330
1000021
102
}
330
1000021
100
AcDbScale
 70
     0
300
1:50
140
1.0
141
50.0
290
     0
  0
SCALE
  5
100002D
102
{ACAD_REACTORS
330
1000021
102
}
330
1000021
100
AcDbScale
 70
     0
300
1:100
140
1.0
141
100.0
290
     0
  0
SCALE
  5
100002E
102
{ACAD_REACTORS
330
1000021
102
}
330
1000021
100
AcDbScale
 70
     0
300
2:1
140
2.0
141
1.0
290
     0
  0
SCALE
  5
100002F
102
{ACAD_REACTORS
330
1000021
102
}
330
1000021
100
AcDbScale
 70
     0
300
4:1
140
4.0
141
1.0
290
     0
  0
SCALE
  5
1000030
102
{ACAD_REACTORS
330
1000021
102
}
330
1000021
100
AcDbScale
 70
     0
300
8:1
140
8.0
141
1.0
290
     0
  0
SCALE
  5
1000031
102
{ACAD_REACTORS
330
1000021
102
}
330
1000021
100
AcDbScale
 70
     0
300
10:1
140
10.0
141
1.0
290
     0
  0
SCALE
  5
1000032
102
{ACAD_REACTORS
330
1000021
102
}
330
1000021
100
AcDbScale
 70
     0
300
100:1
140
100.0
141
1.0
290
     0
  0
TABLESTYLE
  5
100001E
102
{ACAD_REACTORS
330
100001D
102
}
330
100001D
100
AcDbTableStyle
  3
Standard
 70
     0
 71
     0
 40
1.5
 41
1.5
280
     0
281
     0
  7
STANDARD
140
4.5
170
     2
 62
     7
 63
   257
283
     0
 90
        4
 91
        0
  1

274
    -2
284
     1
 64
     0
275
    -2
285
     1
 65
     0
276
    -2
286
     1
 66
     0
277
    -2
287
     1
 67
     0
278
    -2
288
     1
 68
     0
279
    -2
289
     1
 69
     0
  7
STANDARD
140
6.0
170
     5
 62
     7
 63
   257
283
     0
 90
        4
 91
        0
  1

274
    -2
284
     1
 64
     0
275
    -2
285
     1
 65
     0
276
    -2
286
     1
 66
     0
277
    -2
287
     1
 67
     0
278
    -2
288
     1
 68
     0
279
    -2
289
     1
 69
     0
  7
STANDARD
140
4.5
170
     5
 62
     7
 63
   257
283
     0
 90
        4
 91
        0
  1

274
    -2
284
     1
 64
     0
275
    -2
285
     1
 65
     0
276
    -2
286
     1
 66
     0
277
    -2
287
     1
 67
     0
278
    -2
288
     1
 68
     0
279
    -2
289
     1
 69
     0
  0
VISUALSTYLE
  5
1000008
102
{ACAD_REACTORS
330
1000003
102
}
330
1000003
100
AcDbVisualStyle
  2
2dWireframe
 70
     4
177
     3
291
     0
 70
    58
 90
        0
176
     1
 90
        2
176
     1
 90
        0
176
     1
 90
        0
176
     1
 40
0.6
176
     1
 40
30.0
176
     1
 62
     7
420
 16777215
176
     1
 90
        1
176
     1
 90
        4
176
     1
 62
     7
176
     1
 62
   257
176
     1
 90
        1
176
     1
 90
        1
176
     1
 40
1.0
176
     1
 90
        0
176
     1
 62
   257
176
     1
 40
1.0
176
     1
 90
        1
176
     1
 90
        6
176
     1
 90
        2
176
     1
 62
     7
176
     1
 90
        5
176
     1
 90
        0
176
     1
 90
        0
176
     1
290
     0
176
     1
 90
        1
176
     1
 40
0.0
176
     1
 90
        0
176
     1
290
     1
176
     1
290
     1
176
     1
290
     0
176
     1
290
     0
176
     1
290
     0
176
     1
290
     0
176
     1
290
     0
176
     1
290
     0
176
     1
290
     0
176
     1
 90
       50
176
     1
 40
0.0
176
     1
 40
1.0
176
     1
 90
        0
176
     1
 62
    18
420
        0
176
     1
 90
       50
176
     1
 90
        3
176
     1
 62
     5
420
      255
176
     1
290
     0
176
     1
 90
       50
176
     1
 90
       50
176
     1
 90
       50
176
     1
290
     0
176
     1
 90
       50
176
     1
 62
   256
176
     0
 40
1.0
176
     0
 90
        2
176
     1
  1
strokes_ogs.tif
176
     1
290
     0
176
     1
 40
1.0
176
     1
 40
1.0
176
     1
  0
VISUALSTYLE
  5
100000B
102
{ACAD_REACTORS
330
1000003
102
}
330
1000003
100
AcDbVisualStyle
  2
Basic
 70
     7
177
     3
291
     1
 70
    58
 90
        1
176
     1
 90
        0
176
     1
 90
        1
176
     1
 90
        0
176
     1
 40
0.6
176
     1
 40
30.0
176
     1
 62
     7
420
 16777215
176
     1
 90
        0
176
     1
 90
        4
176
     1
 62
     7
176
     1
 62
   257
176
     1
 90
        1
176
     1
 90
        1
176
     1
 40
1.0
176
     1
 90
        8
176
     1
 62
     7
176
     1
 40
1.0
176
     1
 90
        1
176
     1
 90
        6
176
     1
 90
        2
176
     1
 62
     7
176
     1
 90
        5
176
     1
 90
        0
176
     1
 90
        0
176
     1
290
     0
176
     1
 90
        1
176
     1
 40
0.0
176
     1
 90
        0
176
     1
290
     0
176
     1
290
     1
176
     1
290
     1
176
     1
290
     0
176
     1
290
     0
176
     1
290
     0
176
     1
290
     0
176
     1
290
     0
176
     1
290
     0
176
     1
 90
       50
176
     1
 40
0.0
176
     1
 40
1.0
176
     1
 90
        0
176
     1
 62
    18
420
        0
176
     1
 90
       50
176
     1
 90
        3
176
     1
 62
     5
420
      255
176
     1
290
     0
176
     1
 90
       50
176
     1
 90
       50
176
     1
 90
       50
176
     1
290
     0
176
     1
 90
       50
176
     1
 62
   256
176
     0
 40
1.0
176
     0
 90
        2
176
     1
  1
strokes_ogs.tif
176
     1
290
     0
176
     1
 40
1.0
176
     1
 40
1.0
176
     1
  0
VISUALSTYLE
  5
100000F
102
{ACAD_REACTORS
330
1000003
102
}
330
1000003
100
AcDbVisualStyle
  2
Brighten
 70
    12
177
     3
291
     1
 70
    58
 90
        2
176
     1
 90
        2
176
     1
 90
        0
176
     1
 90
        0
176
     1
 40
0.6
176
     1
 40
30.0
176
     1
 62
     7
420
 16777215
176
     1
 90
        1
176
     1
 90
        4
176
     1
 62
     7
176
     1
 62
   257
176
     1
 90
        1
176
     1
 90
        1
176
     1
 40
1.0
176
     1
 90
        8
176
     1
 62
     7
176
     1
 40
1.0
176
     1
 90
        1
176
     1
 90
        6
176
     1
 90
        2
176
     1
 62
     7
176
     1
 90
        5
176
     1
 90
        0
176
     1
 90
        0
176
     1
290
     0
176
     1
 90
        1
176
     1
 40
50.0
176
     1
 90
        0
176
     1
290
     0
176
     1
290
     1
176
     1
290
     1
176
     1
290
     0
176
     1
290
     0
176
     1
290
     0
176
     1
290
     0
176
     1
290
     0
176
     1
290
     0
176
     1
 90
       50
176
     1
 40
0.0
176
     1
 40
1.0
176
     1
 90
        0
176
     1
 62
    18
420
        0
176
     1
 90
       50
176
     1
 90
        3
176
     1
 62
     5
420
      255
176
     1
290
     0
176
     1
 90
       50
176
     1
 90
       50
176
     1
 90
       50
176
     1
290
     0
176
     1
 90
       50
176
     1
 62
   256
176
     0
 40
1.0
176
     0
 90
        2
176
     1
  1
strokes_ogs.tif
176
     1
290
     0
176
     1
 40
1.0
176
     1
 40
1.0
176
     1
  0
VISUALSTYLE
  5
1000013
102
{ACAD_REACTORS
330
1000003
102
}
330
1000003
100
AcDbVisualStyle
  2
ColorChange
 70
    16
177
     3
291
     1
 70
    58
 90
        2
176
     1
 90
        2
176
     1
 90
        3
176
     1
 90
        0
176
     1
 40
0.6
176
     1
 40
30.0
176
     1
 62
     8
420
  8421504
176
     1
 90
        1
176
     1
 90
        4
176
     1
 62
     7
176
     1
 62
   257
176
     1
 90
        1
176
     1
 90
        1
176
     1
 40
1.0
176
     1
 90
        8
176
     1
 62
     8
420
  8421504
176
     1
 40
1.0
176
     1
 90
        1
176
     1
 90
        6
176
     1
 90
        2
176
     1
 62
     7
176
     1
 90
        5
176
     1
 90
        0
176
     1
 90
        0
176
     1
290
     0
176
     1
 90
        1
176
     1
 40
0.0
176
     1
 90
        0
176
     1
290
     0
176
     1
290
     1
176
     1
290
     1
176
     1
290
     0
176
     1
290
     0
176
     1
290
     0
176
     1
290
     0
176
     1
290
     0
176
     1
290
     0
176
     1
 90
       50
176
     1
 40
0.0
176
     1
 40
1.0
176
     1
 90
        0
176
     1
 62
    18
420
        0
176
     1
 90
       50
176
     1
 90
        3
176
     1
 62
     5
420
      255
176
     1
290
     0
176
     1
 90
       50
176
     1
 90
       50
176
     1
 90
       50
176
     1
290
     0
176
     1
 90
       50
176
     1
 62
   256
176
     0
 40
1.0
176
     0
 90
        2
176
     1
  1
strokes_ogs.tif
176
     1
290
     0
176
     1
 40
1.0
176
     1
 40
1.0
176
     1
  0
VISUALSTYLE
  5
100000D
102
{ACAD_REACTORS
330
1000003
102
}
330
1000003
100
AcDbVisualStyle
  2
Conceptual
 70
     9
177
     3
291
     0
 70
    58
 90
        3
176
     1
 90
        2
176
     1
 90
        0
176
     1
 90
        0
176
     1
 40
0.6
176
     1
 40
30.0
176
     1
 62
     7
420
 16777215
176
     1
 90
        2
176
     1
 90
        2
176
     1
 62
     7
176
     1
 62
   257
176
     1
 90
        1
176
     1
 90
        1
176
     1
 40
179.0
176
     1
 90
        8
176
     1
 62
     7
176
     1
 40
1.0
176
     1
 90
        1
176
     1
 90
        6
176
     1
 90
        2
176
     1
 62
     7
176
     1
 90
        3
176
     1
 90
        0
176
     1
 90
        0
176
     1
290
     0
176
     1
 90
        1
176
     1
 40
0.0
176
     1
 90
        0
176
     1
290
     0
176
     1
290
     1
176
     1
290
     1
176
     1
290
     0
176
     1
290
     0
176
     1
290
     0
176
     1
290
     0
176
     1
290
     0
176
     1
290
     0
176
     1
 90
       50
176
     1
 40
0.0
176
     1
 40
1.0
176
     1
 90
        0
176
     1
 62
    18
420
        0
176
     1
 90
       50
176
     1
 90
        3
176
     1
 62
     5
420
      255
176
     1
290
     0
176
     1
 90
       50
176
     1
 90
       50
176
     1
 90
       50
176
     1
290
     0
176
     1
 90
       50
176
     1
 62
   256
176
     0
 40
1.0
176
     0
 90
        2
176
     1
  1
strokes_ogs.tif
176
     1
290
     0
176
     1
 40
1.0
176
     1
 40
1.0
176
     1
  0
VISUALSTYLE
  5
100000E
102
{ACAD_REACTORS
330
1000003
102
}
330
1000003
100
AcDbVisualStyle
  2
Dim
 70
    11
177
     3
291
     1
 70
    58
 90
        2
176
     1
 90
        2
176
     1
 90
        0
176
     1
 90
        0
176
     1
 40
0.6
176
     1
 40
30.0
176
     1
 62
     7
420
 16777215
176
     1
 90
        1
176
     1
 90
        4
176
     1
 62
     7
176
     1
 62
   257
176
     1
 90
        1
176
     1
 90
        1
176
     1
 40
1.0
176
     1
 90
        8
176
     1
 62
     7
176
     1
 40
1.0
176
     1
 90
        1
176
     1
 90
        6
176
     1
 90
        2
176
     1
 62
     7
176
     1
 90
        5
176
     1
 90
        0
176
     1
 90
        0
176
     1
290
     0
176
     1
 90
        1
176
     1
 40
-50.0
176
     1
 90
        0
176
     1
290
     0
176
     1
290
     1
176
     1
290
     1
176
     1
290
     0
176
     1
290
     0
176
     1
290
     0
176
     1
290
     0
176
     1
290
     0
176
     1
290
     0
176
     1
 90
       50
176
     1
 40
0.0
176
     1
 40
1.0
176
     1
 90
        0
176
     1
 62
    18
420
        0
176
     1
 90
       50
176
     1
 90
        3
176
     1
 62
     5
420
      255
176
     1
290
     0
176
     1
 90
       50
176
     1
 90
       50
176
     1
 90
       50
176
     1
290
     0
176
     1
 90
       50
176
     1
 62
   256
176
     0
 40
1.0
176
     0
 90
        2
176
     1
  1
strokes_ogs.tif
176
     1
290
     0
176
     1
 40
1.0
176
     1
 40
1.0
176
     1
  0
VISUALSTYLE
  5
1000016
102
{ACAD_REACTORS
330
1000003
102
}
330
1000003
100
AcDbVisualStyle
  2
EdgeColorOff
 70
    22
177
     3
291
     1
 70
    58
 90
        2
176
     0
 90
        2
176
     0
 90
        0
176
     0
 90
        0
176
     0
 40
0.6
176
     0
 40
30.0
176
     0
 62
     7
420
 16777215
176
     0
 90
        1
176
     0
 90
        4
176
     0
 62
     7
176
     0
 62
   257
176
     0
 90
        1
176
     0
 90
        1
176
     0
 40
1.0
176
     0
 90
        8
176
     2
 62
     7
176
     0
 40
1.0
176
     0
 90
        1
176
     0
 90
        6
176
     0
 90
        2
176
     0
 62
     7
176
     0
 90
        5
176
     0
 90
        0
176
     0
 90
        0
176
     0
290
     0
176
     0
 90
        1
176
     0
 40
0.0
176
     0
 90
        0
176
     0
290
     0
176
     0
290
     1
176
     0
290
     1
176
     0
290
     0
176
     0
290
     0
176
     0
290
     0
176
     0
290
     0
176
     0
290
     0
176
     0
290
     0
176
     0
 90
       50
176
     0
 40
0.0
176
     0
 40
1.0
176
     0
 90
        0
176
     0
 62
    18
420
        0
176
     0
 90
       50
176
     0
 90
        3
176
     0
 62
     5
420
      255
176
     0
290
     0
176
     0
 90
       50
176
     0
 90
       50
176
     0
 90
       50
176
     0
290
     0
176
     0
 90
       50
176
     0
 62
   256
176
     0
 40
1.0
176
     0
 90
        2
176
     0
  1
strokes_ogs.tif
176
     0
290
     0
176
     0
 40
1.0
176
     0
 40
1.0
176
     0
  0
VISUALSTYLE
  5
1000012
102
{ACAD_REACTORS
330
1000003
102
}
330
1000003
100
AcDbVisualStyle
  2
Facepattern
 70
    15
177
     3
291
     1
 70
    58
 90
        2
176
     1
 90
        2
176
     1
 90
        0
176
     1
 90
        0
176
     1
 40
0.6
176
     1
 40
30.0
176
     1
 62
     7
420
 16777215
176
     1
 90
        1
176
     1
 90
        4
176
     1
 62
     7
176
     1
 62
   257
176
     1
 90
        1
176
     1
 90
        1
176
     1
 40
1.0
176
     1
 90
        8
176
     1
 62
     7
176
     1
 40
1.0
176
     1
 90
        1
176
     1
 90
        6
176
     1
 90
        2
176
     1
 62
     7
176
     1
 90
        5
176
     1
 90
        0
176
     1
 90
        0
176
     1
290
     0
176
     1
 90
        1
176
     1
 40
0.0
176
     1
 90
        0
176
     1
290
     0
176
     1
290
     1
176
     1
290
     1
176
     1
290
     0
176
     1
290
     0
176
     1
290
     0
176
     1
290
     0
176
     1
290
     0
176
     1
290
     0
176
     1
 90
       50
176
     1
 40
0.0
176
     1
 40
1.0
176
     1
 90
        0
176
     1
 62
    18
420
        0
176
     1
 90
       50
176
     1
 90
        3
176
     1
 62
     5
420
      255
176
     1
290
     0
176
     1
 90
       50
176
     1
 90
       50
176
     1
 90
       50
176
     1
290
     0
176
     1
 90
       50
176
     1
 62
   256
176
     0
 40
1.0
176
     0
 90
        2
176
     1
  1
strokes_ogs.tif
176
     1
290
     0
176
     1
 40
1.0
176
     1
 40
1.0
176
     1
  0
VISUALSTYLE
  5
1000004
102
{ACAD_REACTORS
330
1000003
102
}
330
1000003
100
AcDbVisualStyle
  2
Flat
 70
     0
177
     3
291
     1
 70
    58
 90
        2
176
     1
 90
        1
176
     1
 90
        1
176
     1
 90
        2
176
     1
 40
0.6
176
     1
 40
30.0
176
     1
 62
     7
420
 16777215
176
     1
 90
        0
176
     1
 90
        0
176
     1
 62
     7
176
     1
 62
   257
176
     1
 90
        1
176
     1
 90
        1
176
     1
 40
1.0
176
     1
 90
        8
176
     1
 62
     7
176
     1
 40
1.0
176
     1
 90
        1
176
     1
 90
        6
176
     1
 90
        2
176
     1
 62
     7
176
     1
 90
        5
176
     1
 90
        0
176
     1
 90
        0
176
     1
290
     0
176
     1
 90
       13
176
     1
 40
0.0
176
     1
 90
        0
176
     1
290
     0
176
     1
290
     1
176
     1
290
     1
176
     1
290
     0
176
     1
290
     0
176
     1
290
     0
176
     1
290
     0
176
     1
290
     0
176
     1
290
     0
176
     1
 90
       50
176
     1
 40
0.0
176
     1
 40
1.0
176
     1
 90
        0
176
     1
 62
    18
420
        0
176
     1
 90
       50
176
     1
 90
        3
176
     1
 62
     5
420
      255
176
     1
290
     0
176
     1
 90
       50
176
     1
 90
       50
176
     1
 90
       50
176
     1
290
     0
176
     1
 90
       50
176
     1
 62
   256
176
     0
 40
1.0
176
     0
 90
        2
176
     1
  1
strokes_ogs.tif
176
     1
290
     0
176
     1
 40
1.0
176
     1
 40
1.0
176
     1
  0
VISUALSTYLE
  5
1000005
102
{ACAD_REACTORS
330
1000003
102
}
330
1000003
100
AcDbVisualStyle
  2
FlatWithEdges
 70
     1
177
     3
291
     1
 70
    58
 90
        2
176
     1
 90
        1
176
     1
 90
        1
176
     1
 90
        2
176
     1
 40
0.6
176
     1
 40
30.0
176
     1
 62
     7
420
 16777215
176
     1
 90
        1
176
     1
 90
        0
176
     1
 62
     7
176
     1
 62
   257
176
     1
 90
        1
176
     1
 90
        1
176
     1
 40
1.0
176
     1
 90
        0
176
     1
 62
   257
176
     1
 40
1.0
176
     1
 90
        1
176
     1
 90
        6
176
     1
 90
        2
176
     1
 62
     7
176
     1
 90
        5
176
     1
 90
        0
176
     1
 90
        0
176
     1
290
     0
176
     1
 90
       13
176
     1
 40
0.0
176
     1
 90
        0
176
     1
290
     0
176
     1
290
     1
176
     1
290
     1
176
     1
290
     0
176
     1
290
     0
176
     1
290
     0
176
     1
290
     0
176
     1
290
     0
176
     1
290
     0
176
     1
 90
       50
176
     1
 40
0.0
176
     1
 40
1.0
176
     1
 90
        0
176
     1
 62
    18
420
        0
176
     1
 90
       50
176
     1
 90
        3
176
     1
 62
     5
420
      255
176
     1
290
     0
176
     1
 90
       50
176
     1
 90
       50
176
     1
 90
       50
176
     1
290
     0
176
     1
 90
       50
176
     1
 62
   256
176
     0
 40
1.0
176
     0
 90
        2
176
     1
  1
strokes_ogs.tif
176
     1
290
     0
176
     1
 40
1.0
176
     1
 40
1.0
176
     1
  0
VISUALSTYLE
  5
1000006
102
{ACAD_REACTORS
330
1000003
102
}
330
1000003
100
AcDbVisualStyle
  2
Gouraud
 70
     2
177
     3
291
     1
 70
    58
 90
        2
176
     1
 90
        2
176
     1
 90
        1
176
     1
 90
        2
176
     1
 40
0.6
176
     1
 40
30.0
176
     1
 62
     7
420
 16777215
176
     1
 90
        0
176
     1
 90
        0
176
     1
 62
     7
176
     1
 62
   257
176
     1
 90
        1
176
     1
 90
        1
176
     1
 40
1.0
176
     1
 90
        0
176
     1
 62
     7
176
     1
 40
1.0
176
     1
 90
        1
176
     1
 90
        6
176
     1
 90
        2
176
     1
 62
     7
176
     1
 90
        5
176
     1
 90
        0
176
     1
 90
        0
176
     1
290
     0
176
     1
 90
       13
176
     1
 40
0.0
176
     1
 90
        0
176
     1
290
     0
176
     1
290
     1
176
     1
290
     1
176
     1
290
     0
176
     1
290
     0
176
     1
290
     0
176
     1
290
     0
176
     1
290
     0
176
     1
290
     0
176
     1
 90
       50
176
     1
 40
0.0
176
     1
 40
1.0
176
     1
 90
        0
176
     1
 62
    18
420
        0
176
     1
 90
       50
176
     1
 90
        3
176
     1
 62
     5
420
      255
176
     1
290
     0
176
     1
 90
       50
176
     1
 90
       50
176
     1
 90
       50
176
     1
290
     0
176
     1
 90
       50
176
     1
 62
   256
176
     0
 40
1.0
176
     0
 90
        2
176
     1
  1
strokes_ogs.tif
176
     1
290
     0
176
     1
 40
1.0
176
     1
 40
1.0
176
     1
  0
VISUALSTYLE
  5
1000007
102
{ACAD_REACTORS
330
1000003
102
}
330
1000003
100
AcDbVisualStyle
  2
GouraudWithEdges
 70
     3
177
     3
291
     1
 70
    58
 90
        2
176
     1
 90
        2
176
     1
 90
        1
176
     1
 90
        2
176
     1
 40
0.6
176
     1
 40
30.0
176
     1
 62
     7
420
 16777215
176
     1
 90
        1
176
     1
 90
        0
176
     1
 62
     7
176
     1
 62
   257
176
     1
 90
        1
176
     1
 90
        1
176
     1
 40
1.0
176
     1
 90
        0
176
     1
 62
   257
176
     1
 40
1.0
176
     1
 90
        1
176
     1
 90
        6
176
     1
 90
        2
176
     1
 62
     7
176
     1
 90
        5
176
     1
 90
        0
176
     1
 90
        0
176
     1
290
     0
176
     1
 90
       13
176
     1
 40
0.0
176
     1
 90
        0
176
     1
290
     0
176
     1
290
     1
176
     1
290
     1
176
     1
290
     0
176
     1
290
     0
176
     1
290
     0
176
     1
290
     0
176
     1
290
     0
176
     1
290
     0
176
     1
 90
       50
176
     1
 40
0.0
176
     1
 40
1.0
176
     1
 90
        0
176
     1
 62
    18
420
        0
176
     1
 90
       50
176
     1
 90
        3
176
     1
 62
     5
420
      255
176
     1
290
     0
176
     1
 90
       50
176
     1
 90
       50
176
     1
 90
       50
176
     1
290
     0
176
     1
 90
       50
176
     1
 62
   256
176
     0
 40
1.0
176
     0
 90
        2
176
     1
  1
strokes_ogs.tif
176
     1
290
     0
176
     1
 40
1.0
176
     1
 40
1.0
176
     1
  0
VISUALSTYLE
  5
100000A
102
{ACAD_REACTORS
330
1000003
102
}
330
1000003
100
AcDbVisualStyle
  2
Hidden
 70
     6
177
     3
291
     0
 70
    58
 90
        1
176
     1
 90
        2
176
     1
 90
        2
176
     1
 90
        0
176
     1
 40
0.6
176
     1
 40
30.0
176
     1
 62
     7
420
 16777215
176
     1
 90
        2
176
     1
 90
        2
176
     1
 62
     7
176
     1
 62
   257
176
     1
 90
        2
176
     1
 90
        1
176
     1
 40
40.0
176
     1
 90
        0
176
     1
 62
   257
176
     1
 40
1.0
176
     1
 90
        1
176
     1
 90
        6
176
     1
 90
        2
176
     1
 62
     7
176
     1
 90
        3
176
     1
 90
        0
176
     1
 90
        0
176
     1
290
     0
176
     1
 90
        1
176
     1
 40
0.0
176
     1
 90
        0
176
     1
290
     0
176
     1
290
     1
176
     1
290
     1
176
     1
290
     0
176
     1
290
     0
176
     1
290
     0
176
     1
290
     0
176
     1
290
     0
176
     1
290
     0
176
     1
 90
       50
176
     1
 40
0.0
176
     1
 40
1.0
176
     1
 90
        0
176
     1
 62
    18
420
        0
176
     1
 90
       50
176
     1
 90
        3
176
     1
 62
     5
420
      255
176
     1
290
     0
176
     1
 90
       50
176
     1
 90
       50
176
     1
 90
       50
176
     1
290
     0
176
     1
 90
       50
176
     1
 62
   256
176
     0
 40
1.0
176
     0
 90
        2
176
     1
  1
strokes_ogs.tif
176
     1
290
     0
176
     1
 40
1.0
176
     1
 40
1.0
176
     1
  0
VISUALSTYLE
  5
1000014
102
{ACAD_REACTORS
330
1000003
102
}
330
1000003
100
AcDbVisualStyle
  2
JitterOff
 70
    20
177
     3
291
     1
 70
    58
 90
        2
176
     0
 90
        2
176
     0
 90
        0
176
     0
 90
        0
176
     0
 40
0.6
176
     0
 40
30.0
176
     0
 62
     7
420
 16777215
176
     0
 90
        1
176
     0
 90
        4
176
     0
 62
     7
176
     0
 62
   257
176
     0
 90
        1
176
     0
 90
        1
176
     0
 40
1.0
176
     0
 90
       10
176
     2
 62
     7
176
     0
 40
1.0
176
     0
 90
        1
176
     0
 90
        6
176
     0
 90
        2
176
     0
 62
     7
176
     0
 90
        5
176
     0
 90
        0
176
     0
 90
        0
176
     0
290
     0
176
     0
 90
        1
176
     0
 40
0.0
176
     0
 90
        0
176
     0
290
     0
176
     0
290
     1
176
     0
290
     1
176
     0
290
     0
176
     0
290
     0
176
     0
290
     0
176
     0
290
     0
176
     0
290
     0
176
     0
290
     0
176
     0
 90
       50
176
     0
 40
0.0
176
     0
 40
1.0
176
     0
 90
        0
176
     0
 62
    18
420
        0
176
     0
 90
       50
176
     0
 90
        3
176
     0
 62
     5
420
      255
176
     0
290
     0
176
     0
 90
       50
176
     0
 90
       50
176
     0
 90
       50
176
     0
290
     0
176
     0
 90
       50
176
     0
 62
   256
176
     0
 40
1.0
176
     0
 90
        2
176
     0
  1
strokes_ogs.tif
176
     0
290
     0
176
     0
 40
1.0
176
     0
 40
1.0
176
     0
  0
VISUALSTYLE
  5
1000011
102
{ACAD_REACTORS
330
1000003
102
}
330
1000003
100
AcDbVisualStyle
  2
Linepattern
 70
    14
177
     3
291
     1
 70
    58
 90
        2
176
     1
 90
        2
176
     1
 90
        0
176
     1
 90
        0
176
     1
 40
0.6
176
     1
 40
30.0
176
     1
 62
     7
420
 16777215
176
     1
 90
        1
176
     1
 90
        4
176
     1
 62
     7
176
     1
 62
   257
176
     1
 90
        7
176
     1
 90
        7
176
     1
 40
1.0
176
     1
 90
        8
176
     1
 62
     7
176
     1
 40
1.0
176
     1
 90
        1
176
     1
 90
        6
176
     1
 90
        2
176
     1
 62
     7
176
     1
 90
        5
176
     1
 90
        0
176
     1
 90
        0
176
     1
290
     0
176
     1
 90
        1
176
     1
 40
0.0
176
     1
 90
        0
176
     1
290
     0
176
     1
290
     1
176
     1
290
     1
176
     1
290
     0
176
     1
290
     0
176
     1
290
     0
176
     1
290
     0
176
     1
290
     0
176
     1
290
     0
176
     1
 90
       50
176
     1
 40
0.0
176
     1
 40
1.0
176
     1
 90
        0
176
     1
 62
    18
420
        0
176
     1
 90
       50
176
     1
 90
        3
176
     1
 62
     5
420
      255
176
     1
290
     0
176
     1
 90
       50
176
     1
 90
       50
176
     1
 90
       50
176
     1
290
     0
176
     1
 90
       50
176
     1
 62
   256
176
     0
 40
1.0
176
     0
 90
        2
176
     1
  1
strokes_ogs.tif
176
     1
290
     0
176
     1
 40
1.0
176
     1
 40
1.0
176
     1
  0
VISUALSTYLE
  5
1000015
102
{ACAD_REACTORS
330
1000003
102
}
330
1000003
100
AcDbVisualStyle
  2
OverhangOff
 70
    21
177
     3
291
     1
 70
    58
 90
        2
176
     0
 90
        2
176
     0
 90
        0
176
     0
 90
        0
176
     0
 40
0.6
176
     0
 40
30.0
176
     0
 62
     7
420
 16777215
176
     0
 90
        1
176
     0
 90
        4
176
     0
 62
     7
176
     0
 62
   257
176
     0
 90
        1
176
     0
 90
        1
176
     0
 40
1.0
176
     0
 90
        9
176
     2
 62
     7
176
     0
 40
1.0
176
     0
 90
        1
176
     0
 90
        6
176
     0
 90
        2
176
     0
 62
     7
176
     0
 90
        5
176
     0
 90
        0
176
     0
 90
        0
176
     0
290
     0
176
     0
 90
        1
176
     0
 40
0.0
176
     0
 90
        0
176
     0
290
     0
176
     0
290
     1
176
     0
290
     1
176
     0
290
     0
176
     0
290
     0
176
     0
290
     0
176
     0
290
     0
176
     0
290
     0
176
     0
290
     0
176
     0
 90
       50
176
     0
 40
0.0
176
     0
 40
1.0
176
     0
 90
        0
176
     0
 62
    18
420
        0
176
     0
 90
       50
176
     0
 90
        3
176
     0
 62
     5
420
      255
176
     0
290
     0
176
     0
 90
       50
176
     0
 90
       50
176
     0
 90
       50
176
     0
290
     0
176
     0
 90
       50
176
     0
 62
   256
176
     0
 40
1.0
176
     0
 90
        2
176
     0
  1
strokes_ogs.tif
176
     0
290
     0
176
     0
 40
1.0
176
     0
 40
1.0
176
     0
  0
VISUALSTYLE
  5
100000C
102
{ACAD_REACTORS
330
1000003
102
}
330
1000003
100
AcDbVisualStyle
  2
Realistic
 70
     8
177
     3
291
     0
 70
    58
 90
        2
176
     1
 90
        3
176
     1
 90
        0
176
     1
 90
        2
176
     1
 40
0.6
176
     1
 40
30.0
176
     1
 62
     7
420
 16777215
176
     1
 90
        0
176
     1
 90
        0
176
     1
 62
     7
176
     1
 62
   257
176
     1
 90
        1
176
     1
 90
        1
176
     1
 40
1.0
176
     1
 90
        8
176
     1
 62
   257
176
     1
 40
1.0
176
     1
 90
        1
176
     1
 90
        6
176
     1
 90
        2
176
     1
 62
     7
176
     1
 90
        3
176
     1
 90
        0
176
     1
 90
        0
176
     1
290
     0
176
     1
 90
       13
176
     1
 40
0.0
176
     1
 90
        0
176
     1
290
     0
176
     1
290
     1
176
     1
290
     1
176
     1
290
     0
176
     1
290
     0
176
     1
290
     0
176
     1
290
     0
176
     1
290
     0
176
     1
290
     0
176
     1
 90
       50
176
     1
 40
0.0
176
     1
 40
1.0
176
     1
 90
        0
176
     1
 62
    18
420
        0
176
     1
 90
       50
176
     1
 90
        3
176
     1
 62
     5
420
      255
176
     1
290
     0
176
     1
 90
       50
176
     1
 90
       50
176
     1
 90
       50
176
     1
290
     0
176
     1
 90
       50
176
     1
 62
   256
176
     0
 40
1.0
176
     0
 90
        2
176
     1
  1
strokes_ogs.tif
176
     1
290
     0
176
     1
 40
1.0
176
     1
 40
1.0
176
     1
  0
VISUALSTYLE
  5
100001B
102
{ACAD_REACTORS
330
1000003
102
}
330
1000003
100
AcDbVisualStyle
  2
Shaded
 70
    27
177
     3
291
     0
 70
    58
 90
        2
176
     1
 90
        2
176
     1
 90
        1
176
     1
 90
        2
176
     1
 40
0.6
176
     1
 40
30.0
176
     1
 62
     7
420
 16777215
176
     1
 90
        0
176
     1
 90
        4
176
     1
 62
     7
176
     1
 62
   257
176
     1
 90
        1
176
     1
 90
        1
176
     1
 40
1.0
176
     1
 90
        8
176
     1
 62
   257
176
     1
 40
1.0
176
     1
 90
        1
176
     1
 90
        6
176
     1
 90
        2
176
     1
 62
     8
420
  7895160
176
     1
 90
        3
176
     1
 90
        0
176
     1
 90
        0
176
     1
290
     0
176
     1
 90
        5
176
     1
 40
0.0
176
     1
 90
        0
176
     1
290
     0
176
     1
290
     1
176
     1
290
     1
176
     1
290
     0
176
     1
290
     0
176
     1
290
     0
176
     1
290
     0
176
     1
290
     0
176
     1
290
     0
176
     1
 90
       50
176
     1
 40
0.0
176
     1
 40
1.0
176
     1
 90
        0
176
     1
 62
    18
420
        0
176
     1
 90
       50
176
     1
 90
        3
176
     1
 62
     5
420
      255
176
     1
290
     0
176
     1
 90
       50
176
     1
 90
       50
176
     1
 90
       50
176
     1
290
     0
176
     1
 90
       50
176
     1
 62
   256
176
     0
 40
1.0
176
     0
 90
        2
176
     1
  1
strokes_ogs.tif
176
     1
290
     0
176
     1
 40
1.0
176
     1
 40
1.0
176
     1
  0
VISUALSTYLE
  5
100001A
102
{ACAD_REACTORS
330
1000003
102
}
330
1000003
100
AcDbVisualStyle
  2
Shaded with edges
 70
    26
177
     3
291
     0
 70
    58
 90
        2
176
     1
 90
        2
176
     1
 90
        1
176
     1
 90
        2
176
     1
 40
0.6
176
     1
 40
30.0
176
     1
 62
     7
420
 16777215
176
     1
 90
        1
176
     1
 90
       10
176
     1
 62
     7
176
     1
 62
   257
176
     1
 90
        2
176
     1
 90
        1
176
     1
 40
1.0
176
     1
 90
        8
176
     1
 62
   257
176
     1
 40
1.0
176
     1
 90
        1
176
     1
 90
        6
176
     1
 90
        2
176
     1
 62
     7
176
     1
 90
        3
176
     1
 90
        0
176
     1
 90
        0
176
     1
290
     0
176
     1
 90
        5
176
     1
 40
0.0
176
     1
 90
        0
176
     1
290
     0
176
     1
290
     1
176
     1
290
     1
176
     1
290
     0
176
     1
290
     0
176
     1
290
     0
176
     1
290
     0
176
     1
290
     0
176
     1
290
     0
176
     1
 90
       50
176
     1
 40
0.0
176
     1
 40
1.0
176
     1
 90
        0
176
     1
 62
    18
420
        0
176
     1
 90
       50
176
     1
 90
        3
176
     1
 62
     5
420
      255
176
     1
290
     0
176
     1
 90
       50
176
     1
 90
       50
176
     1
 90
       50
176
     1
290
     0
176
     1
 90
       50
176
     1
 62
   256
176
     0
 40
1.0
176
     0
 90
        2
176
     1
  1
strokes_ogs.tif
176
     1
290
     0
176
     1
 40
1.0
176
     1
 40
1.0
176
     1
  0
VISUALSTYLE
  5
1000017
102
{ACAD_REACTORS
330
1000003
102
}
330
1000003
100
AcDbVisualStyle
  2
Shades of Gray
 70
    23
177
     3
291
     0
 70
    58
 90
        2
176
     1
 90
        2
176
     1
 90
        3
176
     1
 90
        0
176
     1
 40
0.6
176
     1
 40
30.0
176
     1
 62
     7
420
 16777215
176
     1
 90
        2
176
     1
 90
        2
176
     1
 62
     7
176
     1
 62
     7
176
     1
 90
        1
176
     1
 90
        1
176
     1
 40
40.0
176
     1
 90
        8
176
     1
 62
     7
176
     1
 40
1.0
176
     1
 90
        1
176
     1
 90
        6
176
     1
 90
        2
176
     1
 62
     7
176
     1
 90
        3
176
     1
 90
        0
176
     1
 90
        0
176
     1
290
     0
176
     1
 90
        1
176
     1
 40
0.0
176
     1
 90
        0
176
     1
290
     0
176
     1
290
     1
176
     1
290
     1
176
     1
290
     0
176
     1
290
     0
176
     1
290
     0
176
     1
290
     0
176
     1
290
     0
176
     1
290
     0
176
     1
 90
       50
176
     1
 40
0.0
176
     1
 40
1.0
176
     1
 90
        0
176
     1
 62
    18
420
        0
176
     1
 90
       50
176
     1
 90
        3
176
     1
 62
     5
420
      255
176
     1
290
     0
176
     1
 90
       50
176
     1
 90
       50
176
     1
 90
       50
176
     1
290
     0
176
     1
 90
       50
176
     1
 62
   256
176
     0
 40
1.0
176
     0
 90
        2
176
     1
  1
strokes_ogs.tif
176
     1
290
     0
176
     1
 40
1.0
176
     1
 40
1.0
176
     1
  0
VISUALSTYLE
  5
1000018
102
{ACAD_REACTORS
330
1000003
102
}
330
1000003
100
AcDbVisualStyle
  2
Sketchy
 70
    24
177
     3
291
     0
 70
    58
 90
        1
176
     1
 90
        2
176
     1
 90
        2
176
     1
 90
        0
176
     1
 40
0.6
176
     1
 40
30.0
176
     1
 62
     7
420
 16777215
176
     1
 90
        2
176
     1
 90
        2
176
     1
 62
     7
176
     1
 62
     7
176
     1
 90
        1
176
     1
 90
        1
176
     1
 40
40.0
176
     1
 90
       11
176
     1
 62
     7
176
     1
 40
1.0
176
     1
 90
        1
176
     1
 90
        6
176
     1
 90
        2
176
     1
 62
     7
176
     1
 90
        6
176
     1
 90
        0
176
     1
 90
        0
176
     1
290
     0
176
     1
 90
        1
176
     1
 40
0.0
176
     1
 90
        0
176
     1
290
     0
176
     1
290
     1
176
     1
290
     1
176
     1
290
     0
176
     1
290
     0
176
     1
290
     0
176
     1
290
     0
176
     1
290
     0
176
     1
290
     0
176
     1
 90
       50
176
     1
 40
0.0
176
     1
 40
1.0
176
     1
 90
        0
176
     1
 62
    18
420
        0
176
     1
 90
       50
176
     1
 90
        3
176
     1
 62
     5
420
      255
176
     1
290
     0
176
     1
 90
       50
176
     1
 90
       50
176
     1
 90
       50
176
     1
290
     0
176
     1
 90
       50
176
     1
 62
   256
176
     0
 40
1.0
176
     0
 90
        2
176
     1
  1
strokes_ogs.tif
176
     1
290
     0
176
     1
 40
1.0
176
     1
 40
1.0
176
     1
  0
VISUALSTYLE
  5
1000010
102
{ACAD_REACTORS
330
1000003
102
}
330
1000003
100
AcDbVisualStyle
  2
Thicken
 70
    13
177
     3
291
     1
 70
    58
 90
        2
176
     1
 90
        2
176
     1
 90
        0
176
     1
 90
        0
176
     1
 40
0.6
176
     1
 40
30.0
176
     1
 62
     7
420
 16777215
176
     1
 90
        1
176
     1
 90
        4
176
     1
 62
     7
176
     1
 62
   257
176
     1
 90
        1
176
     1
 90
        1
176
     1
 40
1.0
176
     1
 90
       12
176
     1
 62
     7
176
     1
 40
1.0
176
     1
 90
        1
176
     1
 90
        6
176
     1
 90
        2
176
     1
 62
     7
176
     1
 90
        5
176
     1
 90
        0
176
     1
 90
        0
176
     1
290
     0
176
     1
 90
        1
176
     1
 40
0.0
176
     1
 90
        0
176
     1
290
     0
176
     1
290
     1
176
     1
290
     1
176
     1
290
     0
176
     1
290
     0
176
     1
290
     0
176
     1
290
     0
176
     1
290
     0
176
     1
290
     0
176
     1
 90
       50
176
     1
 40
0.0
176
     1
 40
1.0
176
     1
 90
        0
176
     1
 62
    18
420
        0
176
     1
 90
       50
176
     1
 90
        3
176
     1
 62
     5
420
      255
176
     1
290
     0
176
     1
 90
       50
176
     1
 90
       50
176
     1
 90
       50
176
     1
290
     0
176
     1
 90
       50
176
     1
 62
   256
176
     0
 40
1.0
176
     0
 90
        2
176
     1
  1
strokes_ogs.tif
176
     1
290
     0
176
     1
 40
1.0
176
     1
 40
1.0
176
     1
  0
VISUALSTYLE
  5
1000009
102
{ACAD_REACTORS
330
1000003
102
}
330
1000003
100
AcDbVisualStyle
  2
Wireframe
 70
     5
177
     3
291
     0
 70
    58
 90
        0
176
     1
 90
        2
176
     1
 90
        0
176
     1
 90
        0
176
     1
 40
0.6
176
     1
 40
30.0
176
     1
 62
     7
420
 16777215
176
     1
 90
        1
176
     1
 90
        4
176
     1
 62
     7
176
     1
 62
   257
176
     1
 90
        1
176
     1
 90
        1
176
     1
 40
1.0
176
     1
 90
        0
176
     1
 62
   257
176
     1
 40
1.0
176
     1
 90
        1
176
     1
 90
        6
176
     1
 90
        2
176
     1
 62
     7
176
     1
 90
        3
176
     1
 90
        0
176
     1
 90
        0
176
     1
290
     0
176
     1
 90
        1
176
     1
 40
0.0
176
     1
 90
        0
176
     1
290
     0
176
     1
290
     1
176
     1
290
     1
176
     1
290
     0
176
     1
290
     0
176
     1
290
     0
176
     1
290
     0
176
     1
290
     0
176
     1
290
     0
176
     1
 90
       50
176
     1
 40
0.0
176
     1
 40
1.0
176
     1
 90
        0
176
     1
 62
    18
420
        0
176
     1
 90
       50
176
     1
 90
        3
176
     1
 62
     5
420
      255
176
     1
290
     0
176
     1
 90
       50
176
     1
 90
       50
176
     1
 90
       50
176
     1
290
     0
176
     1
 90
       50
176
     1
 62
   256
176
     0
 40
1.0
176
     0
 90
        2
176
     1
  1
strokes_ogs.tif
176
     1
290
     0
176
     1
 40
1.0
176
     1
 40
1.0
176
     1
  0
VISUALSTYLE
  5
1000019
102
{ACAD_REACTORS
330
1000003
102
}
330
1000003
100
AcDbVisualStyle
  2
X-Ray
 70
    25
177
     3
291
     0
 70
    58
 90
        2
176
     1
 90
        2
176
     1
 90
        1
176
     1
 90
        1
176
     1
 40
0.5
176
     1
 40
30.0
176
     1
 62
     7
420
 16777215
176
     1
 90
        1
176
     1
 90
        0
176
     1
 62
     7
176
     1
 62
   257
176
     1
 90
        1
176
     1
 90
        1
176
     1
 40
1.0
176
     1
 90
        8
176
     1
 62
     7
176
     1
 40
1.0
176
     1
 90
        1
176
     1
 90
        6
176
     1
 90
        2
176
     1
 62
     7
176
     1
 90
        3
176
     1
 90
        0
176
     1
 90
        0
176
     1
290
     0
176
     1
 90
       13
176
     1
 40
0.0
176
     1
 90
        0
176
     1
290
     0
176
     1
290
     1
176
     1
290
     1
176
     1
290
     0
176
     1
290
     0
176
     1
290
     0
176
     1
290
     0
176
     1
290
     0
176
     1
290
     0
176
     1
 90
       50
176
     1
 40
0.0
176
     1
 40
1.0
176
     1
 90
        0
176
     1
 62
    18
420
        0
176
     1
 90
       50
176
     1
 90
        3
176
     1
 62
     5
420
      255
176
     1
290
     0
176
     1
 90
       50
176
     1
 90
       50
176
     1
 90
       50
176
     1
290
     0
176
     1
 90
       50
176
     1
 62
   256
176
     0
 40
1.0
176
     0
 90
        2
176
     1
  1
strokes_ogs.tif
176
     1
290
     0
176
     1
 40
1.0
176
     1
 40
1.0
176
     1
  0
DICTIONARYVAR
  5
10002E0
102
{ACAD_REACTORS
330
10002DC
102
}
330
10002DC
100
DictionaryVariables
280
     0
  1
1:1
  0
DICTIONARYVAR
  5
10002DE
102
{ACAD_REACTORS
330
10002DC
102
}
330
10002DC
100
DictionaryVariables
280
     0
  1
Standard
  0
DICTIONARYVAR
  5
10002DD
102
{ACAD_REACTORS
330
10002DC
102
}
330
10002DC
100
DictionaryVariables
280
     0
  1
Standard
  0
DICTIONARYVAR
  5
10002DF
102
{ACAD_REACTORS
330
10002DC
102
}
330
10002DC
100
DictionaryVariables
280
     0
  1
0
  0
ENDSEC
  0
SECTION
  2
ACDSDATA
 70
     2
 71
     2
  0
ACDSSCHEMA
 90
        0
  1
AcDb3DSolid_ASM_Data
  2
AcDbDs::ID
280
    10
 91
        0
  2
ASM_Data
280
    15
 91
        0
101
ACDSRECORD
 95
        0
 90
        1
  2
AcDbDs::TreatedAsObjectData
280
     1
291
     1
101
ACDSRECORD
 95
        0
 90
        2
  2
AcDbDs::Legacy
280
     1
291
     1
101
ACDSRECORD
  1
AcDbDs::ID
 90
        3
  2
AcDs:Indexable
280
     1
291
     1
101
ACDSRECORD
  1
AcDbDs::ID
 90
        4
  2
AcDbDs::HandleAttribute
280
     7
282
     1
  0
ACDSSCHEMA
 90
        1
  1
AcDbDs::TreatedAsObjectDataSchema
  2
AcDbDs::TreatedAsObjectData
280
     1
 91
        0
  0
ACDSSCHEMA
 90
        2
  1
AcDbDs::LegacySchema
  2
AcDbDs::Legacy
280
     1
 91
        0
  0
ACDSSCHEMA
 90
        3
  1
AcDbDs::IndexedPropertySchema
  2
AcDs:Indexable
280
     1
 91
        0
  0
ACDSSCHEMA
 90
        4
  1
AcDbDs::HandleAttributeSchema
  2
AcDbDs::HandleAttribute
280
     7
 91
        8
  0
ENDSEC
  0
EOF
