  0
SECTION
  2
HEADER
  9
$ACADVER
  1
AC1018
  9
$HANDSEED
  5
FFFFFF
  9
$EXTMAX
 10
7567603.78600000031
 20
5718502.06799999997
 30
1000000.00
  9
$EXTMIN
 10
7567542.24000000022
 20
5718450.55999999959
 30
0.00
  9
$LIMMIN
 10
7567542.24000000022
 20
5718450.55999999959
  9
$LIMMAX
 10
7567603.78600000031
 20
5718502.06799999997
  9
$DIMASZ
 40
2.5
  9
$DIMGAP
 40
0.625
  9
$INSUNITS
 70
6
  9
$DIMEXO
 40
0.625
  9
$DIMTXT
 40
2.5
  9
$DIMSTYLE
  2
Standard
  9
$PLIMMIN
 10
0.0
 20
0.0
  9
$PLIMMAX
 10
210.0
 20
297.0
  9
$DIMEXE
 40
1.25
  9
$TEXTSIZE
 40
2.5
  9
$TEXTSTYLE
  7
Standard
  9
$LWDISPLAY
290
1
  9
$TDCREATE
 40
44391.514765370
  9
$TDUCREATE
 40
44391.431432037
  9
$TDUPDATE
 40
44391.514765370
  9
$TDUUPDATE
 40
44391.431432037
  9
$TDINDWG
 40
0.0
  9
$TDUSRTIMER
 40
0.0
  9
$USRTIMER
 70
1
  0
ENDSEC
  0
SECTION
  2
TABLES
  0
TABLE
  2
VPORT
  5
1
100
AcDbSymbolTable
 70
1
  0
VPORT
  5
2
100
AcDbSymbolTableRecord
100
AcDbViewportTableRecord
  2
*ACTIVE
 70
0
 10
0.0
 20
0.0
 11
1.0
 21
1.0
 12
7567573.013
 22
5718476.314
 13
0.0
 23
0.0
 14
1.0
 24
1.0
 15
0.0
 25
0.0
 16
0.0
 26
0.0
 36
1.0
 17
0.0
 27
0.0
 37
0.0
 40
51.508
 41
1.195
 42
50.0
 43
0.0
 44
0.0
 50
0.0
 51
0.0
 71
0
 72
100
 73
1
 74
1
 75
0
 76
0
 77
0
 78
0
  0
ENDTAB
  0
TABLE
  2
LTYPE
  5
3
100
AcDbSymbolTable
 70
3
  0
LTYPE
  5
4
100
AcDbSymbolTableRecord
100
AcDbLinetypeTableRecord
  2
ByBlock
 70
0
  3

 72
65
 73
0
 40
0.0
  0
LTYPE
  5
5
100
AcDbSymbolTableRecord
100
AcDbLinetypeTableRecord
  2
ByLayer
 70
0
  3

 72
65
 73
0
 40
0.0
  0
LTYPE
  5
6
100
AcDbSymbolTableRecord
100
AcDbLinetypeTableRecord
  2
CONTINUOUS
 70
0
  3
Solid line
 72
65
 73
0
 40
0.0
  0
LTYPE
  5
7
100
AcDbSymbolTableRecord
100
AcDbLinetypeTableRecord
  2
L_0_4C
 70
0
  3
L_0_4C
 72
65
 73
4
 40
0.875
 49
0.525
 74
0
 49
-0.175
 74
0
 49
0.0
 74
0
 49
-0.175
 74
0
  0
ENDTAB
  0
TABLE
  2
LAYER
  5
8
100
AcDbSymbolTable
 70
5
  0
LAYER
  5
9
100
AcDbSymbolTableRecord
100
AcDbLayerTableRecord
  2
0
 70
0
420
0
  6
CONTINUOUS
370
18
390
A
  0
LAYER
  5
B
100
AcDbSymbolTableRecord
100
AcDbLayerTableRecord
  2
Co_projekt
 70
0
420
0
  6
CONTINUOUS
370
18
390
A
  0
LAYER
  5
C
100
AcDbSymbolTableRecord
100
AcDbLayerTableRecord
  2
kanalizacja_sanitarna
 70
0
420
8401664
  6
CONTINUOUS
370
18
390
A
  0
LAYER
  5
D
100
AcDbSymbolTableRecord
100
AcDbLayerTableRecord
  2
Osie
 70
0
420
16711680
  6
L_0_4C
370
18
390
A
  0
LAYER
  5
E
100
AcDbSymbolTableRecord
100
AcDbLayerTableRecord
  2
pkt_osie
 70
0
420
0
  6
CONTINUOUS
370
18
390
A
  0
ENDTAB
  0
TABLE
  2
STYLE
  5
F
100
AcDbSymbolTable
 70
2
  0
STYLE
  5
10
100
AcDbSymbolTableRecord
100
AcDbTextStyleTableRecord
  2
STANDARD
 70
0
 40
0.0
 41
1.0
 50
0.0
 71
0
  3
simplex.shx
  4

  0
STYLE
  5
11
100
AcDbSymbolTableRecord
100
AcDbTextStyleTableRecord
  2
STANDARD_ITALIC
 70
0
 40
0.0
 41
1.0
 50
15.0
 71
0
  3
simplex.shx
  4

  0
ENDTAB
  0
TABLE
  2
VIEW
  5
12
100
AcDbSymbolTable
 70
0
  0
ENDTAB
  0
TABLE
  2
UCS
  5
13
100
AcDbSymbolTable
 70
0
  0
ENDTAB
  0
TABLE
  2
APPID
  5
14
100
AcDbSymbolTable
 70
1
  0
APPID
  5
15
100
AcDbSymbolTableRecord
100
AcDbRegAppTableRecord
  2
ACAD
 70
0
  0
ENDTAB
  0
TABLE
  2
DIMSTYLE
  5
16
100
AcDbSymbolTable
 70
1
100
AcDbDimStyleTable
  0
DIMSTYLE
105
17
100
AcDbSymbolTableRecord
100
AcDbDimStyleTableRecord
  2
Standard
 70
0
340
10
  0
ENDTAB
  0
TABLE
  2
BLOCK_RECORD
  5
18
100
AcDbSymbolTable
 70
4
  0
BLOCK_RECORD
  5
19
100
AcDbSymbolTableRecord
100
AcDbBlockTableRecord
  2
*Model_Space
340
1A
  0
BLOCK_RECORD
  5
1B
100
AcDbSymbolTableRecord
100
AcDbBlockTableRecord
  2
*Paper_Space
340
1C
  0
BLOCK_RECORD
  5
1D
100
AcDbSymbolTableRecord
100
AcDbBlockTableRecord
  2
SUPS01_05
340
1E
  0
BLOCK_RECORD
  5
1F
100
AcDbSymbolTableRecord
100
AcDbBlockTableRecord
  2
pikieta
340
20
  0
ENDTAB
  0
ENDSEC
  0
SECTION
  2
BLOCKS
  0
BLOCK
  5
21
100
AcDbEntity
  8
0
100
AcDbBlockBegin
  2
*Model_Space
 70
0
 10
0.0
 20
0.0
 30
0.0
  3
*Model_Space
  1

  0
ENDBLK
  5
22
100
AcDbEntity
  8
0
100
AcDbBlockEnd
  0
BLOCK
  5
23
100
AcDbEntity
 67
1
  8
0
100
AcDbBlockBegin
  2
*Paper_Space
 70
0
 10
0.0
 20
0.0
 30
0.0
  3
*Paper_Space
  1

  0
ENDBLK
  5
24
100
AcDbEntity
 67
1
  8
0
100
AcDbBlockEnd
  0
BLOCK
  5
1E
100
AcDbEntity
  8
0
100
AcDbBlockBegin
 62
0
370
13
  2
SUPS01_05
 70
0
 10
0
 20
0
 30
0
  3
SUPS01_05
  0
HATCH
  5
25
100
AcDbEntity
  8
0
  6
CONTINUOUS
 62
0
370
13
100
AcDbHatch
 10
0.0
 20
0.0
 30
0.0
210
0.0
220
0.0
230
1.0
  2
SOLID
 70
1
 71
1
 91
1
 92
3
 72
1
 73
1
 93
2
 10
0.0
 20
-0.090553851381
 42
1.0
 10
0.0
 20
0.090553851381
 42
1.0
 97
0
 75
0
 76
1
 98
0
  0
CIRCLE
  5
26
100
AcDbEntity
  8
0
  6
CONTINUOUS
 62
0
370
13
100
AcDbCircle
 10
0.0
 20
-0.0
 40
0.090553851381
  0
ENDBLK
  5
27
100
AcDbEntity
  8
0
100
AcDbBlockEnd
  0
BLOCK
  5
20
100
AcDbEntity
  8
0
100
AcDbBlockBegin
 62
0
370
13
  2
pikieta
 70
0
 10
0
 20
0
 30
0
  3
pikieta
  0
POINT
  5
28
100
AcDbEntity
  8
0
100
AcDbPoint
 62
0
 10
0.0
 20
0.0
 30
0.000
  0
ENDBLK
  5
29
100
AcDbEntity
  8
0
100
AcDbBlockEnd
  0
ENDSEC
  0
SECTION
  2
ENTITIES
  0
POLYLINE
  5
2A
100
AcDbEntity
  8
Co_projekt
  6
CONTINUOUS
370
18
100
AcDb2dPolyline
 66
1
 70
128
  0
VERTEX
  5
2B
100
AcDbEntity
  8
Co_projekt
100
AcDbVertex
100
AcDb2dVertex
 10
7567544.11723464448
 20
5718480.38065687753
  0
VERTEX
  5
2C
100
AcDbEntity
  8
Co_projekt
100
AcDbVertex
100
AcDb2dVertex
 10
7567542.2399999965
 20
5718477.37999999709
  0
VERTEX
  5
2D
100
AcDbEntity
  8
Co_projekt
100
AcDbVertex
100
AcDb2dVertex
 10
7567550.87999999616
 20
5718471.59999999683
  0
VERTEX
  5
2E
100
AcDbEntity
  8
Co_projekt
100
AcDbVertex
100
AcDb2dVertex
 10
7567556.32999999635
 20
5718480.36999999732
  0
SEQEND
  5
2F
100
AcDbEntity
  8
Co_projekt
  0
POLYLINE
  5
30
100
AcDbEntity
  8
kanalizacja_sanitarna
  6
CONTINUOUS
370
18
100
AcDb2dPolyline
 66
1
 70
128
  0
VERTEX
  5
31
100
AcDbEntity
  8
kanalizacja_sanitarna
100
AcDbVertex
100
AcDb2dVertex
 10
7567554.7070000004
 20
5718493.59300000034
  0
VERTEX
  5
32
100
AcDbEntity
  8
kanalizacja_sanitarna
100
AcDbVertex
100
AcDb2dVertex
 10
7567555.19000000041
 20
5718494.26999999955
  0
VERTEX
  5
33
100
AcDbEntity
  8
kanalizacja_sanitarna
100
AcDbVertex
100
AcDb2dVertex
 10
7567577.08000000007
 20
5718479.99000000022
  0
VERTEX
  5
34
100
AcDbEntity
  8
kanalizacja_sanitarna
100
AcDbVertex
100
AcDb2dVertex
 10
7567587.85099999979
 20
5718496.42700000014
  0
SEQEND
  5
35
100
AcDbEntity
  8
kanalizacja_sanitarna
  0
POLYLINE
  5
36
100
AcDbEntity
  8
kanalizacja_sanitarna
  6
CONTINUOUS
370
18
100
AcDb2dPolyline
 66
1
 70
128
  0
VERTEX
  5
37
100
AcDbEntity
  8
kanalizacja_sanitarna
100
AcDbVertex
100
AcDb2dVertex
 10
7567577.08000000007
 20
5718479.99000000022
  0
VERTEX
  5
38
100
AcDbEntity
  8
kanalizacja_sanitarna
100
AcDbVertex
100
AcDb2dVertex
 10
7567576.20999999996
 20
5718478.72400000039
  0
SEQEND
  5
39
100
AcDbEntity
  8
kanalizacja_sanitarna
  0
POLYLINE
  5
3A
100
AcDbEntity
  8
Osie
  6
ByLayer
370
18
100
AcDb2dPolyline
 66
1
 70
128
  0
VERTEX
  5
3B
100
AcDbEntity
  8
Osie
100
AcDbVertex
100
AcDb2dVertex
 10
7567549.19389457256
 20
5718478.07649519574
  0
VERTEX
  5
3C
100
AcDbEntity
  8
Osie
100
AcDbVertex
100
AcDb2dVertex
 10
7567562.7618911108
 20
5718498.3564900225
  0
SEQEND
  5
3D
100
AcDbEntity
  8
Osie
  0
POLYLINE
  5
3E
100
AcDbEntity
  8
Osie
  6
ByLayer
370
18
100
AcDb2dPolyline
 66
1
 70
128
  0
VERTEX
  5
3F
100
AcDbEntity
  8
Osie
100
AcDbVertex
100
AcDb2dVertex
 10
7567552.68485763576
 20
5718475.74063858017
  0
VERTEX
  5
40
100
AcDbEntity
  8
Osie
100
AcDbVertex
100
AcDb2dVertex
 10
7567566.25274133403
 20
5718496.02046474162
  0
SEQEND
  5
41
100
AcDbEntity
  8
Osie
  0
POLYLINE
  5
42
100
AcDbEntity
  8
Osie
  6
ByLayer
370
18
100
AcDb2dPolyline
 66
1
 70
128
  0
VERTEX
  5
43
100
AcDbEntity
  8
Osie
100
AcDbVertex
100
AcDb2dVertex
 10
7567554.55495994166
 20
5718474.48955210485
  0
VERTEX
  5
44
100
AcDbEntity
  8
Osie
100
AcDbVertex
100
AcDb2dVertex
 10
7567568.12278133444
 20
5718494.76928513963
  0
SEQEND
  5
45
100
AcDbEntity
  8
Osie
  0
POLYLINE
  5
46
100
AcDbEntity
  8
Osie
  6
ByLayer
370
18
100
AcDb2dPolyline
 66
1
 70
128
  0
VERTEX
  5
47
100
AcDbEntity
  8
Osie
100
AcDbVertex
100
AcDb2dVertex
 10
7567561.20421258174
 20
5718470.04124463629
  0
VERTEX
  5
48
100
AcDbEntity
  8
Osie
100
AcDbVertex
100
AcDb2dVertex
 10
7567574.77181244642
 20
5718490.3206465533
  0
SEQEND
  5
49
100
AcDbEntity
  8
Osie
  0
POLYLINE
  5
4A
100
AcDbEntity
  8
Osie
  6
ByLayer
370
18
100
AcDb2dPolyline
 66
1
 70
128
  0
VERTEX
  5
4B
100
AcDbEntity
  8
Osie
100
AcDbVertex
100
AcDb2dVertex
 10
7567566.57348408829
 20
5718466.44923635665
  0
VERTEX
  5
4C
100
AcDbEntity
  8
Osie
100
AcDbVertex
100
AcDb2dVertex
 10
7567580.14090506919
 20
5718486.72837089468
  0
SEQEND
  5
4D
100
AcDbEntity
  8
Osie
  0
POLYLINE
  5
4E
100
AcDbEntity
  8
Osie
  6
ByLayer
370
18
100
AcDb2dPolyline
 66
1
 70
128
  0
VERTEX
  5
4F
100
AcDbEntity
  8
Osie
100
AcDbVertex
100
AcDb2dVertex
 10
7567576.9255392924
 20
5718459.52377766743
  0
VERTEX
  5
50
100
AcDbEntity
  8
Osie
100
AcDbVertex
100
AcDb2dVertex
 10
7567590.49261538219
 20
5718479.80239669606
  0
SEQEND
  5
51
100
AcDbEntity
  8
Osie
  0
POLYLINE
  5
52
100
AcDbEntity
  8
Osie
  6
ByLayer
370
18
100
AcDb2dPolyline
 66
1
 70
128
  0
VERTEX
  5
53
100
AcDbEntity
  8
Osie
100
AcDbVertex
100
AcDb2dVertex
 10
7567552.54039366916
 20
5718483.30342461355
  0
VERTEX
  5
54
100
AcDbEntity
  8
Osie
100
AcDbVertex
100
AcDb2dVertex
 10
7567590.6812894009
 20
5718457.78450161964
  0
SEQEND
  5
55
100
AcDbEntity
  8
Osie
  0
POLYLINE
  5
56
100
AcDbEntity
  8
Osie
  6
ByLayer
370
18
100
AcDb2dPolyline
 66
1
 70
128
  0
VERTEX
  5
57
100
AcDbEntity
  8
Osie
100
AcDbVertex
100
AcDb2dVertex
 10
7567554.06951203477
 20
5718485.58909672964
  0
VERTEX
  5
58
100
AcDbEntity
  8
Osie
100
AcDbVertex
100
AcDb2dVertex
 10
7567592.21048446279
 20
5718460.07012242451
  0
SEQEND
  5
59
100
AcDbEntity
  8
Osie
  0
POLYLINE
  5
5A
100
AcDbEntity
  8
Osie
  6
ByLayer
370
18
100
AcDb2dPolyline
 66
1
 70
128
  0
VERTEX
  5
5B
100
AcDbEntity
  8
Osie
100
AcDbVertex
100
AcDb2dVertex
 10
7567557.64900000021
 20
5718490.71399999969
  0
VERTEX
  5
5C
100
AcDbEntity
  8
Osie
100
AcDbVertex
100
AcDb2dVertex
 10
7567595.68599999975
 20
5718465.26499999966
  0
SEQEND
  5
5D
100
AcDbEntity
  8
Osie
  0
POLYLINE
  5
5E
100
AcDbEntity
  8
Osie
  6
ByLayer
370
18
100
AcDb2dPolyline
 66
1
 70
128
  0
VERTEX
  5
5F
100
AcDbEntity
  8
Osie
100
AcDbVertex
100
AcDb2dVertex
 10
7567562.7620000001
 20
5718498.35599999968
  0
VERTEX
  5
60
100
AcDbEntity
  8
Osie
100
AcDbVertex
100
AcDb2dVertex
 10
7567600.79899999965
 20
5718472.90699999966
  0
SEQEND
  5
61
100
AcDbEntity
  8
Osie
  0
POLYLINE
  5
62
100
AcDbEntity
  8
Osie
  6
ByLayer
370
18
100
AcDb2dPolyline
 66
1
 70
128
  0
VERTEX
  5
63
100
AcDbEntity
  8
Osie
100
AcDbVertex
100
AcDb2dVertex
 10
7567549.19400000013
 20
5718478.07600000035
  0
VERTEX
  5
64
100
AcDbEntity
  8
Osie
100
AcDbVertex
100
AcDb2dVertex
 10
7567587.23086927086
 20
5718452.62730994914
  0
SEQEND
  5
65
100
AcDbEntity
  8
Osie
  0
POLYLINE
  5
66
100
AcDbEntity
  8
Osie
  6
ByLayer
370
18
100
AcDb2dPolyline
 66
1
 70
128
  0
VERTEX
  5
67
100
AcDbEntity
  8
Osie
100
AcDbVertex
100
AcDb2dVertex
 10
7567587.23086927086
 20
5718452.62730994914
  0
VERTEX
  5
68
100
AcDbEntity
  8
Osie
100
AcDbVertex
100
AcDb2dVertex
 10
7567595.685927785
 20
5718465.26471516304
  0
VERTEX
  5
69
100
AcDbEntity
  8
Osie
100
AcDbVertex
100
AcDb2dVertex
 10
7567600.79899999965
 20
5718472.90699999966
  0
SEQEND
  5
6A
100
AcDbEntity
  8
Osie
  0
INSERT
  5
6B
100
AcDbEntity
  8
kanalizacja_sanitarna
  6
CONTINUOUS
100
AcDbBlockReference
 66
1
  2
pikieta
 10
7567554.7070000004
 20
5718493.59300000034
 41
0.25
 42
0.25
 43
0.25
 50
0.00
  0
ATTRIB
  5
6C
100
AcDbEntity
  8
kanalizacja_sanitarna
100
AcDbText
 10
7567554.7070000004
 20
5718493.59300000034
 40
0.2
  1
Ks3
 50
0.00
 41
0.62
 51
0.00
  7
STANDARD
100
AcDbAttribute
  2
Nr
 70
0
  0
SEQEND
  5
6D
100
AcDbEntity
  8
kanalizacja_sanitarna
  0
INSERT
  5
6E
100
AcDbEntity
  8
kanalizacja_sanitarna
  6
CONTINUOUS
100
AcDbBlockReference
 66
1
  2
pikieta
 10
7567587.85099999979
 20
5718496.42700000014
 41
0.25
 42
0.25
 43
0.25
 50
0.00
  0
ATTRIB
  5
6F
100
AcDbEntity
  8
kanalizacja_sanitarna
100
AcDbText
 10
7567587.85099999979
 20
5718496.42700000014
 40
0.2
  1
Ks4
 50
0.00
 41
0.62
 51
0.00
  7
STANDARD
100
AcDbAttribute
  2
Nr
 70
0
  0
SEQEND
  5
70
100
AcDbEntity
  8
kanalizacja_sanitarna
  0
INSERT
  5
71
100
AcDbEntity
  8
kanalizacja_sanitarna
  6
CONTINUOUS
100
AcDbBlockReference
 66
1
  2
pikieta
 10
7567576.20999999996
 20
5718478.72400000039
 41
0.25
 42
0.25
 43
0.25
 50
0.00
  0
ATTRIB
  5
72
100
AcDbEntity
  8
kanalizacja_sanitarna
100
AcDbText
 10
7567576.20999999996
 20
5718478.72400000039
 40
0.2
  1
Ks5
 50
0.00
 41
0.62
 51
0.00
  7
STANDARD
100
AcDbAttribute
  2
Nr
 70
0
  0
SEQEND
  5
73
100
AcDbEntity
  8
kanalizacja_sanitarna
  0
INSERT
  5
74
100
AcDbEntity
  8
Osie
  6
CONTINUOUS
100
AcDbBlockReference
 66
1
  2
pikieta
 10
7567577.08000000007
 20
5718479.99000000022
 41
0.25
 42
0.25
 43
0.25
 50
0.00
  0
ATTRIB
  5
75
100
AcDbEntity
  8
Osie
100
AcDbText
 10
7567577.08000000007
 20
5718479.99000000022
 40
0.2
  1
Ks1
 50
0.00
 41
0.62
 51
0.00
  7
STANDARD
100
AcDbAttribute
  2
Nr
 70
0
  0
SEQEND
  5
76
100
AcDbEntity
  8
Osie
  0
INSERT
  5
77
100
AcDbEntity
  8
Osie
  6
CONTINUOUS
100
AcDbBlockReference
 66
1
  2
pikieta
 10
7567555.19000000041
 20
5718494.26999999955
 41
0.25
 42
0.25
 43
0.25
 50
0.00
  0
ATTRIB
  5
78
100
AcDbEntity
  8
Osie
100
AcDbText
 10
7567555.19000000041
 20
5718494.26999999955
 40
0.2
  1
Ks2
 50
0.00
 41
0.62
 51
0.00
  7
STANDARD
100
AcDbAttribute
  2
Nr
 70
0
  0
SEQEND
  5
79
100
AcDbEntity
  8
Osie
  0
INSERT
  5
7A
100
AcDbEntity
  8
pkt_osie
  6
CONTINUOUS
100
AcDbBlockReference
 66
1
  2
pikieta
 10
7567558.04800000042
 20
5718491.53600000031
 41
0.25
 42
0.25
 43
0.25
 50
0.00
  0
ATTRIB
  5
7B
100
AcDbEntity
  8
pkt_osie
100
AcDbText
 10
7567558.04800000042
 20
5718491.53600000031
 40
0.2
  1
214
 50
0.00
 41
0.62
 51
0.00
  7
STANDARD
100
AcDbAttribute
  2
Nr
 70
0
  0
SEQEND
  5
7C
100
AcDbEntity
  8
pkt_osie
  0
INSERT
  5
7D
100
AcDbEntity
  8
pkt_osie
  6
CONTINUOUS
100
AcDbBlockReference
 66
1
  2
pikieta
 10
7567548.59300000034
 20
5718477.40299999993
 41
0.25
 42
0.25
 43
0.25
 50
0.00
  0
ATTRIB
  5
7E
100
AcDbEntity
  8
pkt_osie
100
AcDbText
 10
7567548.59300000034
 20
5718477.40299999993
 40
0.2
  1
215
 50
0.00
 41
0.62
 51
0.00
  7
STANDARD
100
AcDbAttribute
  2
Nr
 70
0
  0
SEQEND
  5
7F
100
AcDbEntity
  8
pkt_osie
  0
INSERT
  5
80
100
AcDbEntity
  8
pkt_osie
  6
CONTINUOUS
100
AcDbBlockReference
 66
1
  2
pikieta
 10
7567554.06951203477
 20
5718485.58909672964
 41
0.25
 42
0.25
 43
0.25
 50
0.00
  0
ATTRIB
  5
81
100
AcDbEntity
  8
pkt_osie
100
AcDbText
 10
7567554.06951203477
 20
5718485.58909672964
 40
0.2
  1
216
 50
0.00
 41
0.62
 51
0.00
  7
STANDARD
100
AcDbAttribute
  2
Nr
 70
0
  0
SEQEND
  5
82
100
AcDbEntity
  8
pkt_osie
  0
INSERT
  5
83
100
AcDbEntity
  8
pkt_osie
  6
CONTINUOUS
100
AcDbBlockReference
 66
1
  2
pikieta
 10
7567552.54039366916
 20
5718483.30342461355
 41
0.25
 42
0.25
 43
0.25
 50
0.00
  0
ATTRIB
  5
84
100
AcDbEntity
  8
pkt_osie
100
AcDbText
 10
7567552.54039366916
 20
5718483.30342461355
 40
0.2
  1
217
 50
0.00
 41
0.62
 51
0.00
  7
STANDARD
100
AcDbAttribute
  2
Nr
 70
0
  0
SEQEND
  5
85
100
AcDbEntity
  8
pkt_osie
  0
INSERT
  5
86
100
AcDbEntity
  8
pkt_osie
  6
CONTINUOUS
100
AcDbBlockReference
 66
1
  2
pikieta
 10
7567549.09014659375
 20
5718478.14611716568
 41
0.25
 42
0.25
 43
0.25
 50
0.00
  0
ATTRIB
  5
87
100
AcDbEntity
  8
pkt_osie
100
AcDbText
 10
7567549.09014659375
 20
5718478.14611716568
 40
0.2
  1
218
 50
0.00
 41
0.62
 51
0.00
  7
STANDARD
100
AcDbAttribute
  2
Nr
 70
0
  0
SEQEND
  5
88
100
AcDbEntity
  8
pkt_osie
  0
INSERT
  5
89
100
AcDbEntity
  8
pkt_osie
  6
CONTINUOUS
100
AcDbBlockReference
 66
1
  2
pikieta
 10
7567557.54478104692
 20
5718490.78380608559
 41
0.25
 42
0.25
 43
0.25
 50
0.00
  0
ATTRIB
  5
8A
100
AcDbEntity
  8
pkt_osie
100
AcDbText
 10
7567557.54478104692
 20
5718490.78380608559
 40
0.2
  1
219
 50
0.00
 41
0.62
 51
0.00
  7
STANDARD
100
AcDbAttribute
  2
Nr
 70
0
  0
SEQEND
  5
8B
100
AcDbEntity
  8
pkt_osie
  0
INSERT
  5
8C
100
AcDbEntity
  8
pkt_osie
  6
CONTINUOUS
100
AcDbBlockReference
 66
1
  2
pikieta
 10
7567562.6575968191
 20
5718498.42626248952
 41
0.25
 42
0.25
 43
0.25
 50
0.00
  0
ATTRIB
  5
8D
100
AcDbEntity
  8
pkt_osie
100
AcDbText
 10
7567562.6575968191
 20
5718498.42626248952
 40
0.2
  1
220
 50
0.00
 41
0.62
 51
0.00
  7
STANDARD
100
AcDbAttribute
  2
Nr
 70
0
  0
SEQEND
  5
8E
100
AcDbEntity
  8
pkt_osie
  0
INSERT
  5
8F
100
AcDbEntity
  8
pkt_osie
  6
CONTINUOUS
100
AcDbBlockReference
 66
1
  2
pikieta
 10
7567600.79899999965
 20
5718472.90699999966
 41
0.25
 42
0.25
 43
0.25
 50
0.00
  0
ATTRIB
  5
90
100
AcDbEntity
  8
pkt_osie
100
AcDbText
 10
7567600.79899999965
 20
5718472.90699999966
 40
0.2
  1
222
 50
0.00
 41
0.62
 51
0.00
  7
STANDARD
100
AcDbAttribute
  2
Nr
 70
0
  0
SEQEND
  5
91
100
AcDbEntity
  8
pkt_osie
  0
INSERT
  5
92
100
AcDbEntity
  8
pkt_osie
  6
CONTINUOUS
100
AcDbBlockReference
 66
1
  2
pikieta
 10
7567595.685927785
 20
5718465.26471516304
 41
0.25
 42
0.25
 43
0.25
 50
0.00
  0
ATTRIB
  5
93
100
AcDbEntity
  8
pkt_osie
100
AcDbText
 10
7567595.685927785
 20
5718465.26471516304
 40
0.2
  1
223
 50
0.00
 41
0.62
 51
0.00
  7
STANDARD
100
AcDbAttribute
  2
Nr
 70
0
  0
SEQEND
  5
94
100
AcDbEntity
  8
pkt_osie
  0
INSERT
  5
95
100
AcDbEntity
  8
pkt_osie
  6
CONTINUOUS
100
AcDbBlockReference
 66
1
  2
pikieta
 10
7567592.21048446279
 20
5718460.07012242451
 41
0.25
 42
0.25
 43
0.25
 50
0.00
  0
ATTRIB
  5
96
100
AcDbEntity
  8
pkt_osie
100
AcDbText
 10
7567592.21048446279
 20
5718460.07012242451
 40
0.2
  1
224
 50
0.00
 41
0.62
 51
0.00
  7
STANDARD
100
AcDbAttribute
  2
Nr
 70
0
  0
SEQEND
  5
97
100
AcDbEntity
  8
pkt_osie
  0
INSERT
  5
98
100
AcDbEntity
  8
pkt_osie
  6
CONTINUOUS
100
AcDbBlockReference
 66
1
  2
pikieta
 10
7567590.6812894009
 20
5718457.78450161964
 41
0.25
 42
0.25
 43
0.25
 50
0.00
  0
ATTRIB
  5
99
100
AcDbEntity
  8
pkt_osie
100
AcDbText
 10
7567590.6812894009
 20
5718457.78450161964
 40
0.2
  1
225
 50
0.00
 41
0.62
 51
0.00
  7
STANDARD
100
AcDbAttribute
  2
Nr
 70
0
  0
SEQEND
  5
9A
100
AcDbEntity
  8
pkt_osie
  0
INSERT
  5
9B
100
AcDbEntity
  8
pkt_osie
  6
CONTINUOUS
100
AcDbBlockReference
 66
1
  2
pikieta
 10
7567556.13538744766
 20
5718480.89812270273
 41
0.25
 42
0.25
 43
0.25
 50
0.00
  0
ATTRIB
  5
9C
100
AcDbEntity
  8
pkt_osie
100
AcDbText
 10
7567556.13538744766
 20
5718480.89812270273
 40
0.2
  1
228
 50
0.00
 41
0.62
 51
0.00
  7
STANDARD
100
AcDbAttribute
  2
Nr
 70
0
  0
SEQEND
  5
9D
100
AcDbEntity
  8
pkt_osie
  0
INSERT
  5
9E
100
AcDbEntity
  8
pkt_osie
  6
CONTINUOUS
100
AcDbBlockReference
 66
1
  2
pikieta
 10
7567558.00542386156
 20
5718479.6469377391
 41
0.25
 42
0.25
 43
0.25
 50
0.00
  0
ATTRIB
  5
9F
100
AcDbEntity
  8
pkt_osie
100
AcDbText
 10
7567558.00542386156
 20
5718479.6469377391
 40
0.2
  1
229
 50
0.00
 41
0.62
 51
0.00
  7
STANDARD
100
AcDbAttribute
  2
Nr
 70
0
  0
SEQEND
  5
A0
100
AcDbEntity
  8
pkt_osie
  0
INSERT
  5
A1
100
AcDbEntity
  8
pkt_osie
  6
CONTINUOUS
100
AcDbBlockReference
 66
1
  2
pikieta
 10
7567564.65444222
 20
5718475.1982800914
 41
0.25
 42
0.25
 43
0.25
 50
0.00
  0
ATTRIB
  5
A2
100
AcDbEntity
  8
pkt_osie
100
AcDbText
 10
7567564.65444222
 20
5718475.1982800914
 40
0.2
  1
230
 50
0.00
 41
0.62
 51
0.00
  7
STANDARD
100
AcDbAttribute
  2
Nr
 70
0
  0
SEQEND
  5
A3
100
AcDbEntity
  8
pkt_osie
  0
INSERT
  5
A4
100
AcDbEntity
  8
pkt_osie
  6
CONTINUOUS
100
AcDbBlockReference
 66
1
  2
pikieta
 10
7567570.0235245442
 20
5718471.60598904174
 41
0.25
 42
0.25
 43
0.25
 50
0.00
  0
ATTRIB
  5
A5
100
AcDbEntity
  8
pkt_osie
100
AcDbText
 10
7567570.0235245442
 20
5718471.60598904174
 40
0.2
  1
231
 50
0.00
 41
0.62
 51
0.00
  7
STANDARD
100
AcDbAttribute
  2
Nr
 70
0
  0
SEQEND
  5
A6
100
AcDbEntity
  8
pkt_osie
  0
INSERT
  5
A7
100
AcDbEntity
  8
pkt_osie
  6
CONTINUOUS
100
AcDbBlockReference
 66
1
  2
pikieta
 10
7567580.3752150014
 20
5718464.67998516653
 41
0.25
 42
0.25
 43
0.25
 50
0.00
  0
ATTRIB
  5
A8
100
AcDbEntity
  8
pkt_osie
100
AcDbText
 10
7567580.3752150014
 20
5718464.67998516653
 40
0.2
  1
232
 50
0.00
 41
0.62
 51
0.00
  7
STANDARD
100
AcDbAttribute
  2
Nr
 70
0
  0
SEQEND
  5
A9
100
AcDbEntity
  8
pkt_osie
  0
INSERT
  5
AA
100
AcDbEntity
  8
pkt_osie
  6
CONTINUOUS
100
AcDbBlockReference
 66
1
  2
pikieta
 10
7567581.90438374039
 20
5718466.96562358178
 41
0.25
 42
0.25
 43
0.25
 50
0.00
  0
ATTRIB
  5
AB
100
AcDbEntity
  8
pkt_osie
100
AcDbText
 10
7567581.90438374039
 20
5718466.96562358178
 40
0.2
  1
233
 50
0.00
 41
0.62
 51
0.00
  7
STANDARD
100
AcDbAttribute
  2
Nr
 70
0
  0
SEQEND
  5
AC
100
AcDbEntity
  8
pkt_osie
  0
INSERT
  5
AD
100
AcDbEntity
  8
pkt_osie
  6
CONTINUOUS
100
AcDbBlockReference
 66
1
  2
pikieta
 10
7567571.55269328318
 20
5718473.89162745606
 41
0.25
 42
0.25
 43
0.25
 50
0.00
  0
ATTRIB
  5
AE
100
AcDbEntity
  8
pkt_osie
100
AcDbText
 10
7567571.55269328318
 20
5718473.89162745606
 40
0.2
  1
234
 50
0.00
 41
0.62
 51
0.00
  7
STANDARD
100
AcDbAttribute
  2
Nr
 70
0
  0
SEQEND
  5
AF
100
AcDbEntity
  8
pkt_osie
  0
INSERT
  5
B0
100
AcDbEntity
  8
pkt_osie
  6
CONTINUOUS
100
AcDbBlockReference
 66
1
  2
pikieta
 10
7567566.18361095805
 20
5718477.48391850572
 41
0.25
 42
0.25
 43
0.25
 50
0.00
  0
ATTRIB
  5
B1
100
AcDbEntity
  8
pkt_osie
100
AcDbText
 10
7567566.18361095805
 20
5718477.48391850572
 40
0.2
  1
235
 50
0.00
 41
0.62
 51
0.00
  7
STANDARD
100
AcDbAttribute
  2
Nr
 70
0
  0
SEQEND
  5
B2
100
AcDbEntity
  8
pkt_osie
  0
INSERT
  5
B3
100
AcDbEntity
  8
pkt_osie
  6
CONTINUOUS
100
AcDbBlockReference
 66
1
  2
pikieta
 10
7567559.53459259961
 20
5718481.93257615343
 41
0.25
 42
0.25
 43
0.25
 50
0.00
  0
ATTRIB
  5
B4
100
AcDbEntity
  8
pkt_osie
100
AcDbText
 10
7567559.53459259961
 20
5718481.93257615343
 40
0.2
  1
236
 50
0.00
 41
0.62
 51
0.00
  7
STANDARD
100
AcDbAttribute
  2
Nr
 70
0
  0
SEQEND
  5
B5
100
AcDbEntity
  8
pkt_osie
  0
INSERT
  5
B6
100
AcDbEntity
  8
pkt_osie
  6
CONTINUOUS
100
AcDbBlockReference
 66
1
  2
pikieta
 10
7567557.66455618572
 20
5718483.18376111705
 41
0.25
 42
0.25
 43
0.25
 50
0.00
  0
ATTRIB
  5
B7
100
AcDbEntity
  8
pkt_osie
100
AcDbText
 10
7567557.66455618572
 20
5718483.18376111705
 40
0.2
  1
237
 50
0.00
 41
0.62
 51
0.00
  7
STANDARD
100
AcDbAttribute
  2
Nr
 70
0
  0
SEQEND
  5
B8
100
AcDbEntity
  8
pkt_osie
  0
INSERT
  5
B9
100
AcDbEntity
  8
pkt_osie
  6
CONTINUOUS
100
AcDbBlockReference
 66
1
  2
pikieta
 10
7567554.17378474399
 20
5718485.51933100447
 41
0.25
 42
0.25
 43
0.25
 50
0.00
  0
ATTRIB
  5
BA
100
AcDbEntity
  8
pkt_osie
100
AcDbText
 10
7567554.17378474399
 20
5718485.51933100447
 40
0.2
  1
238
 50
0.00
 41
0.62
 51
0.00
  7
STANDARD
100
AcDbAttribute
  2
Nr
 70
0
  0
SEQEND
  5
BB
100
AcDbEntity
  8
pkt_osie
  0
INSERT
  5
BC
100
AcDbEntity
  8
pkt_osie
  6
CONTINUOUS
100
AcDbBlockReference
 66
1
  2
pikieta
 10
7567587.23086927086
 20
5718452.62730994914
 41
0.25
 42
0.25
 43
0.25
 50
0.00
  0
ATTRIB
  5
BD
100
AcDbEntity
  8
pkt_osie
100
AcDbText
 10
7567587.23086927086
 20
5718452.62730994914
 40
0.2
  1
226
 50
0.00
 41
0.62
 51
0.00
  7
STANDARD
100
AcDbAttribute
  2
Nr
 70
0
  0
SEQEND
  5
BE
100
AcDbEntity
  8
pkt_osie
  0
INSERT
  5
BF
100
AcDbEntity
  8
pkt_osie
  6
CONTINUOUS
100
AcDbBlockReference
 66
1
  2
pikieta
 10
7567561.1399396807
 20
5718488.37839387544
 41
0.25
 42
0.25
 43
0.25
 50
0.00
  0
ATTRIB
  5
C0
100
AcDbEntity
  8
pkt_osie
100
AcDbText
 10
7567561.1399396807
 20
5718488.37839387544
 40
0.2
  1
239
 50
0.00
 41
0.62
 51
0.00
  7
STANDARD
100
AcDbAttribute
  2
Nr
 70
0
  0
SEQEND
  5
C1
100
AcDbEntity
  8
pkt_osie
  0
INSERT
  5
C2
100
AcDbEntity
  8
pkt_osie
  6
CONTINUOUS
100
AcDbBlockReference
 66
1
  2
pikieta
 10
7567563.00997609459
 20
5718487.12720891181
 41
0.25
 42
0.25
 43
0.25
 50
0.00
  0
ATTRIB
  5
C3
100
AcDbEntity
  8
pkt_osie
100
AcDbText
 10
7567563.00997609459
 20
5718487.12720891181
 40
0.2
  1
240
 50
0.00
 41
0.62
 51
0.00
  7
STANDARD
100
AcDbAttribute
  2
Nr
 70
0
  0
SEQEND
  5
C4
100
AcDbEntity
  8
pkt_osie
  0
INSERT
  5
C5
100
AcDbEntity
  8
pkt_osie
  6
CONTINUOUS
100
AcDbBlockReference
 66
1
  2
pikieta
 10
7567569.65899445489
 20
5718482.6785512669
 41
0.25
 42
0.25
 43
0.25
 50
0.00
  0
ATTRIB
  5
C6
100
AcDbEntity
  8
pkt_osie
100
AcDbText
 10
7567569.65899445489
 20
5718482.6785512669
 40
0.2
  1
241
 50
0.00
 41
0.62
 51
0.00
  7
STANDARD
100
AcDbAttribute
  2
Nr
 70
0
  0
SEQEND
  5
C7
100
AcDbEntity
  8
pkt_osie
  0
INSERT
  5
C8
100
AcDbEntity
  8
pkt_osie
  6
CONTINUOUS
100
AcDbBlockReference
 66
1
  2
pikieta
 10
7567575.02807678003
 20
5718479.08626021724
 41
0.25
 42
0.25
 43
0.25
 50
0.00
  0
ATTRIB
  5
C9
100
AcDbEntity
  8
pkt_osie
100
AcDbText
 10
7567575.02807678003
 20
5718479.08626021724
 40
0.2
  1
242
 50
0.00
 41
0.62
 51
0.00
  7
STANDARD
100
AcDbAttribute
  2
Nr
 70
0
  0
SEQEND
  5
CA
100
AcDbEntity
  8
pkt_osie
  0
INSERT
  5
CB
100
AcDbEntity
  8
pkt_osie
  6
CONTINUOUS
100
AcDbBlockReference
 66
1
  2
pikieta
 10
7567585.37976723909
 20
5718472.16025634389
 41
0.25
 42
0.25
 43
0.25
 50
0.00
  0
ATTRIB
  5
CC
100
AcDbEntity
  8
pkt_osie
100
AcDbText
 10
7567585.37976723909
 20
5718472.16025634389
 40
0.2
  1
243
 50
0.00
 41
0.62
 51
0.00
  7
STANDARD
100
AcDbAttribute
  2
Nr
 70
0
  0
SEQEND
  5
CD
100
AcDbEntity
  8
pkt_osie
  0
INSERT
  5
CE
100
AcDbEntity
  8
pkt_osie
  6
CONTINUOUS
100
AcDbBlockReference
 66
1
  2
pikieta
 10
7567557.64900000021
 20
5718490.71399999969
 41
0.25
 42
0.25
 43
0.25
 50
0.00
  0
ATTRIB
  5
CF
100
AcDbEntity
  8
pkt_osie
100
AcDbText
 10
7567557.64900000021
 20
5718490.71399999969
 40
0.2
  1
244
 50
0.00
 41
0.62
 51
0.00
  7
STANDARD
100
AcDbAttribute
  2
Nr
 70
0
  0
SEQEND
  5
D0
100
AcDbEntity
  8
pkt_osie
  0
INSERT
  5
D1
100
AcDbEntity
  8
pkt_osie
  6
CONTINUOUS
100
AcDbBlockReference
 66
1
  2
pikieta
 10
7567562.7620000001
 20
5718498.35599999968
 41
0.25
 42
0.25
 43
0.25
 50
0.00
  0
ATTRIB
  5
D2
100
AcDbEntity
  8
pkt_osie
100
AcDbText
 10
7567562.7620000001
 20
5718498.35599999968
 40
0.2
  1
245
 50
0.00
 41
0.62
 51
0.00
  7
STANDARD
100
AcDbAttribute
  2
Nr
 70
0
  0
SEQEND
  5
D3
100
AcDbEntity
  8
pkt_osie
  0
INSERT
  5
D4
100
AcDbEntity
  8
pkt_osie
  6
CONTINUOUS
100
AcDbBlockReference
 66
1
  2
pikieta
 10
7567566.25299999956
 20
5718496.01999999955
 41
0.25
 42
0.25
 43
0.25
 50
0.00
  0
ATTRIB
  5
D5
100
AcDbEntity
  8
pkt_osie
100
AcDbText
 10
7567566.25299999956
 20
5718496.01999999955
 40
0.2
  1
246
 50
0.00
 41
0.62
 51
0.00
  7
STANDARD
100
AcDbAttribute
  2
Nr
 70
0
  0
SEQEND
  5
D6
100
AcDbEntity
  8
pkt_osie
  0
INSERT
  5
D7
100
AcDbEntity
  8
pkt_osie
  6
CONTINUOUS
100
AcDbBlockReference
 66
1
  2
pikieta
 10
7567568.12299999967
 20
5718494.76900000032
 41
0.25
 42
0.25
 43
0.25
 50
0.00
  0
ATTRIB
  5
D8
100
AcDbEntity
  8
pkt_osie
100
AcDbText
 10
7567568.12299999967
 20
5718494.76900000032
 40
0.2
  1
247
 50
0.00
 41
0.62
 51
0.00
  7
STANDARD
100
AcDbAttribute
  2
Nr
 70
0
  0
SEQEND
  5
D9
100
AcDbEntity
  8
pkt_osie
  0
INSERT
  5
DA
100
AcDbEntity
  8
pkt_osie
  6
CONTINUOUS
100
AcDbBlockReference
 66
1
  2
pikieta
 10
7567574.77199999988
 20
5718490.32100000046
 41
0.25
 42
0.25
 43
0.25
 50
0.00
  0
ATTRIB
  5
DB
100
AcDbEntity
  8
pkt_osie
100
AcDbText
 10
7567574.77199999988
 20
5718490.32100000046
 40
0.2
  1
248
 50
0.00
 41
0.62
 51
0.00
  7
STANDARD
100
AcDbAttribute
  2
Nr
 70
0
  0
SEQEND
  5
DC
100
AcDbEntity
  8
pkt_osie
  0
INSERT
  5
DD
100
AcDbEntity
  8
pkt_osie
  6
CONTINUOUS
100
AcDbBlockReference
 66
1
  2
pikieta
 10
7567580.14099999983
 20
5718486.72800000012
 41
0.25
 42
0.25
 43
0.25
 50
0.00
  0
ATTRIB
  5
DE
100
AcDbEntity
  8
pkt_osie
100
AcDbText
 10
7567580.14099999983
 20
5718486.72800000012
 40
0.2
  1
249
 50
0.00
 41
0.62
 51
0.00
  7
STANDARD
100
AcDbAttribute
  2
Nr
 70
0
  0
SEQEND
  5
DF
100
AcDbEntity
  8
pkt_osie
  0
INSERT
  5
E0
100
AcDbEntity
  8
pkt_osie
  6
CONTINUOUS
100
AcDbBlockReference
 66
1
  2
pikieta
 10
7567590.49299999978
 20
5718479.80200000014
 41
0.25
 42
0.25
 43
0.25
 50
0.00
  0
ATTRIB
  5
E1
100
AcDbEntity
  8
pkt_osie
100
AcDbText
 10
7567590.49299999978
 20
5718479.80200000014
 40
0.2
  1
250
 50
0.00
 41
0.62
 51
0.00
  7
STANDARD
100
AcDbAttribute
  2
Nr
 70
0
  0
SEQEND
  5
E2
100
AcDbEntity
  8
pkt_osie
  0
INSERT
  5
E3
100
AcDbEntity
  8
pkt_osie
  6
CONTINUOUS
100
AcDbBlockReference
 66
1
  2
pikieta
 10
7567549.19400000013
 20
5718478.07600000035
 41
0.25
 42
0.25
 43
0.25
 50
0.00
  0
ATTRIB
  5
E4
100
AcDbEntity
  8
pkt_osie
100
AcDbText
 10
7567549.19400000013
 20
5718478.07600000035
 40
0.2
  1
252
 50
0.00
 41
0.62
 51
0.00
  7
STANDARD
100
AcDbAttribute
  2
Nr
 70
0
  0
SEQEND
  5
E5
100
AcDbEntity
  8
pkt_osie
  0
INSERT
  5
E6
100
AcDbEntity
  8
pkt_osie
  6
CONTINUOUS
100
AcDbBlockReference
 66
1
  2
pikieta
 10
7567552.68499999959
 20
5718475.74100000039
 41
0.25
 42
0.25
 43
0.25
 50
0.00
  0
ATTRIB
  5
E7
100
AcDbEntity
  8
pkt_osie
100
AcDbText
 10
7567552.68499999959
 20
5718475.74100000039
 40
0.2
  1
253
 50
0.00
 41
0.62
 51
0.00
  7
STANDARD
100
AcDbAttribute
  2
Nr
 70
0
  0
SEQEND
  5
E8
100
AcDbEntity
  8
pkt_osie
  0
INSERT
  5
E9
100
AcDbEntity
  8
pkt_osie
  6
CONTINUOUS
100
AcDbBlockReference
 66
1
  2
pikieta
 10
7567554.5549999997
 20
5718474.49000000022
 41
0.25
 42
0.25
 43
0.25
 50
0.00
  0
ATTRIB
  5
EA
100
AcDbEntity
  8
pkt_osie
100
AcDbText
 10
7567554.5549999997
 20
5718474.49000000022
 40
0.2
  1
254
 50
0.00
 41
0.62
 51
0.00
  7
STANDARD
100
AcDbAttribute
  2
Nr
 70
0
  0
SEQEND
  5
EB
100
AcDbEntity
  8
pkt_osie
  0
INSERT
  5
EC
100
AcDbEntity
  8
pkt_osie
  6
CONTINUOUS
100
AcDbBlockReference
 66
1
  2
pikieta
 10
7567561.20399999991
 20
5718470.0410000002
 41
0.25
 42
0.25
 43
0.25
 50
0.00
  0
ATTRIB
  5
ED
100
AcDbEntity
  8
pkt_osie
100
AcDbText
 10
7567561.20399999991
 20
5718470.0410000002
 40
0.2
  1
255
 50
0.00
 41
0.62
 51
0.00
  7
STANDARD
100
AcDbAttribute
  2
Nr
 70
0
  0
SEQEND
  5
EE
100
AcDbEntity
  8
pkt_osie
  0
INSERT
  5
EF
100
AcDbEntity
  8
pkt_osie
  6
CONTINUOUS
100
AcDbBlockReference
 66
1
  2
pikieta
 10
7567566.57299999986
 20
5718466.44900000002
 41
0.25
 42
0.25
 43
0.25
 50
0.00
  0
ATTRIB
  5
F0
100
AcDbEntity
  8
pkt_osie
100
AcDbText
 10
7567566.57299999986
 20
5718466.44900000002
 40
0.2
  1
256
 50
0.00
 41
0.62
 51
0.00
  7
STANDARD
100
AcDbAttribute
  2
Nr
 70
0
  0
SEQEND
  5
F1
100
AcDbEntity
  8
pkt_osie
  0
INSERT
  5
F2
100
AcDbEntity
  8
pkt_osie
  6
CONTINUOUS
100
AcDbBlockReference
 66
1
  2
pikieta
 10
7567576.92599999998
 20
5718459.52400000021
 41
0.25
 42
0.25
 43
0.25
 50
0.00
  0
ATTRIB
  5
F3
100
AcDbEntity
  8
pkt_osie
100
AcDbText
 10
7567576.92599999998
 20
5718459.52400000021
 40
0.2
  1
257
 50
0.00
 41
0.62
 51
0.00
  7
STANDARD
100
AcDbAttribute
  2
Nr
 70
0
  0
SEQEND
  5
F4
100
AcDbEntity
  8
pkt_osie
  0
TEXT
  5
F5
100
AcDbEntity
  8
kanalizacja_sanitarna
370
18
100
AcDbText
 39
0.18
 10
7567554.45649450179
 20
5718493.31555938628
 40
0.45
  1
-0.832-
 50
-306.00
 41
0.66
  7
STANDARD
 72
1
 11
7567555.04072793666
 21
5718493.86449248157
100
AcDbText
 73
1
  0
TEXT
  5
F6
100
AcDbEntity
  8
kanalizacja_sanitarna
370
18
100
AcDbText
 39
0.18
 10
7567565.3998034941
 20
5718487.65036727209
 40
0.45
  1
-26.136-
 50
-33.00
 41
0.66
  7
STANDARD
 72
1
 11
7567566.07291114982
 21
5718487.034391555
100
AcDbText
 73
1
  0
TEXT
  5
F7
100
AcDbEntity
  8
kanalizacja_sanitarna
370
18
100
AcDbText
 39
0.18
 10
7567581.94513272773
 20
5718487.47330349404
 40
0.45
  1
-19.652-
 50
-303.00
 41
0.66
  7
STANDARD
 72
1
 11
7567582.56110844482
 21
5718488.14641114976
100
AcDbText
 73
1
  0
TEXT
  5
F8
100
AcDbEntity
  8
Osie
370
25
100
AcDbText
 39
0.25
 10
7567563.62068732176
 20
5718497.82993997261
 40
0.63
  1
-4.200-
 50
-34.00
 41
0.66
  7
STANDARD
 72
1
 11
7567564.41094864532
 21
5718497.04560657311
100
AcDbText
 73
1
  0
TEXT
  5
F9
100
AcDbEntity
  8
Osie
370
25
100
AcDbText
 39
0.25
 10
7567566.30113243405
 20
5718496.03633753117
 40
0.63
  1
-2.250-
 50
-34.00
 41
0.66
  7
STANDARD
 72
1
 11
7567567.09139375761
 21
5718495.25200413167
100
AcDbText
 73
1
  0
TEXT
  5
FA
100
AcDbEntity
  8
Osie
370
25
100
AcDbText
 39
0.25
 10
7567570.56066798978
 20
5718493.18642843701
 40
0.63
  1
-8.000-
 50
-34.00
 41
0.66
  7
STANDARD
 72
1
 11
7567571.35092931334
 21
5718492.40209503751
100
AcDbText
 73
1
  0
TEXT
  5
FB
100
AcDbEntity
  8
Osie
370
25
100
AcDbText
 39
0.25
 10
7567576.56972985715
 20
5718489.16597131453
 40
0.63
  1
-6.460-
 50
-34.00
 41
0.66
  7
STANDARD
 72
1
 11
7567577.35999118071
 21
5718488.38163791504
100
AcDbText
 73
1
  0
TEXT
  5
FC
100
AcDbEntity
  8
Osie
370
25
100
AcDbText
 39
0.25
 10
7567584.30059420411
 20
5718483.99422027636
 40
0.63
  1
-12.455-
 50
-34.00
 41
0.66
  7
STANDARD
 72
1
 11
7567585.22039264813
 21
5718483.12251298595
100
AcDbText
 73
1
  0
TEXT
  5
FD
100
AcDbEntity
  8
Osie
370
25
100
AcDbText
 39
0.25
 10
7567594.62944847252
 20
5718477.08353827335
 40
0.63
  1
-12.400-
 50
-34.00
 41
0.66
  7
STANDARD
 72
1
 11
7567595.54924691655
 21
5718476.21183098294
100
AcDbText
 73
1
  0
TEXT
  5
FE
100
AcDbEntity
  8
Osie
370
25
100
AcDbText
 39
0.25
 10
7567550.48538276367
 20
5718479.63124015648
 40
0.63
  1
-6.205-
 50
-304.00
 41
0.66
  7
STANDARD
 72
1
 11
7567551.26971616317
 21
5718480.42150148004
100
AcDbText
 73
1
  0
TEXT
  5
FF
100
AcDbEntity
  8
Osie
370
25
100
AcDbText
 39
0.25
 10
7567553.05138276331
 20
5718483.38224015664
 40
0.63
  1
-2.751-
 50
-304.00
 41
0.66
  7
STANDARD
 72
1
 11
7567553.83571616281
 21
5718484.17250148021
100
AcDbText
 73
1
  0
TEXT
  5
100
100
AcDbEntity
  8
Osie
370
25
100
AcDbText
 39
0.25
 10
7567555.49738276377
 20
5718487.11724015605
 40
0.63
  1
-6.250-
 50
-304.00
 41
0.66
  7
STANDARD
 72
1
 11
7567556.28171616327
 21
5718487.90750147961
100
AcDbText
 73
1
  0
TEXT
  5
101
100
AcDbEntity
  8
Osie
370
25
100
AcDbText
 39
0.25
 10
7567559.80038276315
 20
5718493.52224015631
 40
0.63
  1
-9.195-
 50
-304.00
 41
0.66
  7
STANDARD
 72
1
 11
7567560.58471616264
 21
5718494.31250147987
100
AcDbText
 73
1
  0
TEXT
  5
102
100
AcDbEntity
  8
Osie
370
25
100
AcDbText
 39
0.25
 10
7567588.31461674534
 20
5718454.31927688327
 40
0.63
  1
-6.205-
 50
-304.00
 41
0.66
  7
STANDARD
 72
1
 11
7567589.09895014484
 21
5718455.10953820683
100
AcDbText
 73
1
  0
TEXT
  5
103
100
AcDbEntity
  8
Osie
370
25
100
AcDbText
 39
0.25
 10
7567590.80442434177
 20
5718458.04068312142
 40
0.63
  1
-2.749-
 50
-304.00
 41
0.66
  7
STANDARD
 72
1
 11
7567591.58875774126
 21
5718458.83094444498
100
AcDbText
 73
1
  0
TEXT
  5
104
100
AcDbEntity
  8
Osie
370
25
100
AcDbText
 39
0.25
 10
7567593.30674353335
 20
5718461.78078989312
 40
0.63
  1
-6.251-
 50
-304.00
 41
0.66
  7
STANDARD
 72
1
 11
7567594.09107693285
 21
5718462.57105121668
100
AcDbText
 73
1
  0
TEXT
  5
105
100
AcDbEntity
  8
Osie
370
25
100
AcDbText
 39
0.25
 10
7567597.60100130178
 20
5718468.19922868069
 40
0.63
  1
-9.195-
 50
-304.00
 41
0.66
  7
STANDARD
 72
1
 11
7567598.38533470128
 21
5718468.98949000426
100
AcDbText
 73
1
  0
TEXT
  5
106
100
AcDbEntity
  8
Osie
370
25
100
AcDbText
 39
0.25
 10
7567550.05287109967
 20
5718477.54996259138
 40
0.63
  1
-4.200-
 50
-34.00
 41
0.66
  7
STANDARD
 72
1
 11
7567550.84313242324
 21
5718476.76562919188
100
AcDbText
 73
1
  0
TEXT
  5
107
100
AcDbEntity
  8
Osie
370
25
100
AcDbText
 39
0.25
 10
7567552.73337109853
 20
5718475.75696259085
 40
0.63
  1
-2.250-
 50
-34.00
 41
0.66
  7
STANDARD
 72
1
 11
7567553.52363242209
 21
5718474.97262919135
100
AcDbText
 73
1
  0
TEXT
  5
108
100
AcDbEntity
  8
Osie
370
25
100
AcDbText
 39
0.25
 10
7567556.99287109915
 20
5718472.90696259029
 40
0.63
  1
-8.000-
 50
-34.00
 41
0.66
  7
STANDARD
 72
1
 11
7567557.78313242272
 21
5718472.1226291908
100
AcDbText
 73
1
  0
TEXT
  5
109
100
AcDbEntity
  8
Osie
370
25
100
AcDbText
 39
0.25
 10
7567563.00187109876
 20
5718468.88646259066
 40
0.63
  1
-6.460-
 50
-34.00
 41
0.66
  7
STANDARD
 72
1
 11
7567563.79213242233
 21
5718468.10212919116
100
AcDbText
 73
1
  0
TEXT
  5
10A
100
AcDbEntity
  8
Osie
370
25
100
AcDbText
 39
0.25
 10
7567570.7333339788
 20
5718463.71533648204
 40
0.63
  1
-12.456-
 50
-34.00
 41
0.66
  7
STANDARD
 72
1
 11
7567571.65313242283
 21
5718462.84362919163
100
AcDbText
 73
1
  0
TEXT
  5
10B
100
AcDbEntity
  8
Osie
370
25
100
AcDbText
 39
0.25
 10
7567581.06226861384
 20
5718456.80449145567
 40
0.63
  1
-12.400-
 50
-34.00
 41
0.66
  7
STANDARD
 72
1
 11
7567581.98206705786
 21
5718455.93278416526
100
AcDbText
 73
1
  0
TEXT
  5
10C
100
AcDbEntity
  8
Osie
370
50
100
AcDbText
 39
0.50
 10
7567560.75999999605
 20
5718499.08999999706
 40
1.25
  1
A
 50
0.00
 41
0.66
 51
15.00
  7
STANDARD
 72
0
 11
7567560.75999999605
 21
5718500.33999999706
100
AcDbText
 73
3
  0
TEXT
  5
10D
100
AcDbEntity
  8
Osie
370
50
100
AcDbText
 39
0.50
 10
7567555.57999999635
 20
5718491.12999999709
 40
1.25
  1
B
 50
0.00
 41
0.66
 51
15.00
  7
STANDARD
 72
0
 11
7567555.57999999635
 21
5718492.37999999709
100
AcDbText
 73
3
  0
TEXT
  5
10E
100
AcDbEntity
  8
Osie
370
50
100
AcDbText
 39
0.50
 10
7567551.36999999639
 20
5718486.40999999736
 40
1.25
  1
C
 50
0.00
 41
0.66
 51
15.00
  7
STANDARD
 72
0
 11
7567551.36999999639
 21
5718487.65999999736
100
AcDbText
 73
3
  0
TEXT
  5
10F
100
AcDbEntity
  8
Osie
370
50
100
AcDbText
 39
0.50
 10
7567549.64999999665
 20
5718484.49999999721
 40
1.25
  1
D
 50
0.00
 41
0.66
 51
15.00
  7
STANDARD
 72
0
 11
7567549.64999999665
 21
5718485.74999999721
100
AcDbText
 73
3
  0
TEXT
  5
110
100
AcDbEntity
  8
Osie
370
50
100
AcDbText
 39
0.50
 10
7567547.64999999665
 20
5718479.09999999683
 40
1.25
  1
E
 50
0.00
 41
0.66
 51
15.00
  7
STANDARD
 72
0
 11
7567547.64999999665
 21
5718480.34999999683
100
AcDbText
 73
3
  0
TEXT
  5
111
100
AcDbEntity
  8
Osie
370
50
100
AcDbText
 39
0.50
 10
7567563.4899999965
 20
5718498.89999999758
 40
1.25
  1
1
 50
0.00
 41
0.66
 51
15.00
  7
STANDARD
 72
0
 11
7567563.4899999965
 21
5718500.14999999758
100
AcDbText
 73
3
  0
TEXT
  5
112
100
AcDbEntity
  8
Osie
370
50
100
AcDbText
 39
0.50
 10
7567566.76999999583
 20
5718496.64999999758
 40
1.25
  1
2
 50
0.00
 41
0.66
 51
15.00
  7
STANDARD
 72
0
 11
7567566.76999999583
 21
5718497.89999999758
100
AcDbText
 73
3
  0
TEXT
  5
113
100
AcDbEntity
  8
Osie
370
50
100
AcDbText
 39
0.50
 10
7567551.65999999642
 20
5718474.11999999732
 40
1.25
  1
2
 50
0.00
 41
0.66
 51
15.00
  7
STANDARD
 72
0
 11
7567551.65999999642
 21
5718475.36999999732
100
AcDbText
 73
3
  0
TEXT
  5
114
100
AcDbEntity
  8
Osie
370
50
100
AcDbText
 39
0.50
 10
7567568.63999999594
 20
5718495.41999999713
 40
1.25
  1
3
 50
0.00
 41
0.66
 51
15.00
  7
STANDARD
 72
0
 11
7567568.63999999594
 21
5718496.66999999713
100
AcDbText
 73
3
  0
TEXT
  5
115
100
AcDbEntity
  8
Osie
370
50
100
AcDbText
 39
0.50
 10
7567553.93999999668
 20
5718472.78999999724
 40
1.25
  1
3
 50
0.00
 41
0.66
 51
15.00
  7
STANDARD
 72
0
 11
7567553.93999999668
 21
5718474.03999999724
100
AcDbText
 73
3
  0
TEXT
  5
116
100
AcDbEntity
  8
Osie
370
50
100
AcDbText
 39
0.50
 10
7567574.81999999657
 20
5718490.60999999754
 40
1.25
  1
4
 50
0.00
 41
0.66
 51
15.00
  7
STANDARD
 72
0
 11
7567574.81999999657
 21
5718491.85999999754
100
AcDbText
 73
3
  0
TEXT
  5
117
100
AcDbEntity
  8
Osie
370
50
100
AcDbText
 39
0.50
 10
7567560.46999999601
 20
5718468.63999999687
 40
1.25
  1
4
 50
0.00
 41
0.66
 51
15.00
  7
STANDARD
 72
0
 11
7567560.46999999601
 21
5718469.88999999687
100
AcDbText
 73
3
  0
TEXT
  5
118
100
AcDbEntity
  8
Osie
370
50
100
AcDbText
 39
0.50
 10
7567580.36999999639
 20
5718487.3099999968
 40
1.25
  1
5
 50
0.00
 41
0.66
 51
15.00
  7
STANDARD
 72
0
 11
7567580.36999999639
 21
5718488.5599999968
100
AcDbText
 73
3
  0
TEXT
  5
119
100
AcDbEntity
  8
Osie
370
50
100
AcDbText
 39
0.50
 10
7567565.9899999965
 20
5718464.84999999683
 40
1.25
  1
5
 50
0.00
 41
0.66
 51
15.00
  7
STANDARD
 72
0
 11
7567565.9899999965
 21
5718466.09999999683
100
AcDbText
 73
3
  0
TEXT
  5
11A
100
AcDbEntity
  8
Osie
370
50
100
AcDbText
 39
0.50
 10
7567590.9199999962
 20
5718480.68999999668
 40
1.25
  1
6
 50
0.00
 41
0.66
 51
15.00
  7
STANDARD
 72
0
 11
7567590.9199999962
 21
5718481.93999999668
100
AcDbText
 73
3
  0
TEXT
  5
11B
100
AcDbEntity
  8
Osie
370
50
100
AcDbText
 39
0.50
 10
7567576.21999999601
 20
5718457.91999999713
 40
1.25
  1
6
 50
0.00
 41
0.66
 51
15.00
  7
STANDARD
 72
0
 11
7567576.21999999601
 21
5718459.16999999713
100
AcDbText
 73
3
  0
TEXT
  5
11C
100
AcDbEntity
  8
Osie
370
50
100
AcDbText
 39
0.50
 10
7567601.38999999594
 20
5718474.07999999728
 40
1.25
  1
7
 50
0.00
 41
0.66
 51
15.00
  7
STANDARD
 72
0
 11
7567601.38999999594
 21
5718475.32999999728
100
AcDbText
 73
3
  0
TEXT
  5
11D
100
AcDbEntity
  8
Osie
370
50
100
AcDbText
 39
0.50
 10
7567586.40999999642
 20
5718450.94999999739
 40
1.25
  1
7
 50
0.00
 41
0.66
 51
15.00
  7
STANDARD
 72
0
 11
7567586.40999999642
 21
5718452.19999999739
100
AcDbText
 73
3
  0
TEXT
  5
11E
100
AcDbEntity
  8
Osie
370
50
100
AcDbText
 39
0.50
 10
7567602.06999999657
 20
5718471.0699999975
 40
1.25
  1
A
 50
0.00
 41
0.66
 51
15.00
  7
STANDARD
 72
0
 11
7567602.06999999657
 21
5718472.3199999975
100
AcDbText
 73
3
  0
TEXT
  5
11F
100
AcDbEntity
  8
Osie
370
50
100
AcDbText
 39
0.50
 10
7567596.90999999642
 20
5718463.34999999683
 40
1.25
  1
B
 50
0.00
 41
0.66
 51
15.00
  7
STANDARD
 72
0
 11
7567596.90999999642
 21
5718464.59999999683
100
AcDbText
 73
3
  0
TEXT
  5
120
100
AcDbEntity
  8
Osie
370
50
100
AcDbText
 39
0.50
 10
7567593.46999999601
 20
5718458.18999999668
 40
1.25
  1
C
 50
0.00
 41
0.66
 51
15.00
  7
STANDARD
 72
0
 11
7567593.46999999601
 21
5718459.43999999668
100
AcDbText
 73
3
  0
TEXT
  5
121
100
AcDbEntity
  8
Osie
370
50
100
AcDbText
 39
0.50
 10
7567591.83999999613
 20
5718456.0699999975
 40
1.25
  1
D
 50
0.00
 41
0.66
 51
15.00
  7
STANDARD
 72
0
 11
7567591.83999999613
 21
5718457.3199999975
100
AcDbText
 73
3
  0
TEXT
  5
122
100
AcDbEntity
  8
Osie
370
50
100
AcDbText
 39
0.50
 10
7567588.52999999654
 20
5718450.94999999739
 40
1.25
  1
E
 50
0.00
 41
0.66
 51
15.00
  7
STANDARD
 72
0
 11
7567588.52999999654
 21
5718452.19999999739
100
AcDbText
 73
3
  0
ENDSEC
  0
SECTION
  2
OBJECTS
  0
DICTIONARY
  5
123
330
0
100
AcDbDictionary
280
0
281
1
  3
ACAD_GROUP
350
124
  3
ACAD_LAYOUT
350
125
  3
ACAD_MLINESTYLE
350
126
  3
ACAD_PLOTSETTINGS
350
127
  3
ACAD_PLOTSTYLENAME
350
128
  0
DICTIONARY
  5
124
102
{ACAD_REACTORS
330
123
102
}
330
123
100
AcDbDictionary
280
0
281
1
  0
DICTIONARY
  5
125
102
{ACAD_REACTORS
330
123
102
}
330
123
100
AcDbDictionary
280
0
281
1
  3
Layout
350
1C
  3
Model
350
1A
  0
DICTIONARY
  5
126
102
{ACAD_REACTORS
330
123
102
}
330
123
100
AcDbDictionary
280
0
281
1
  3
Standard
350
129
  0
DICTIONARY
  5
127
102
{ACAD_REACTORS
330
123
102
}
330
123
100
AcDbDictionary
280
0
281
1
  0
ACDBDICTIONARYWDFLT
  5
128
102
{ACAD_REACTORS
330
123
102
}
330
123
100
AcDbDictionary
281
1
  3
Normal
350
A
100
AcDbDictionaryWithDefault
340
A
  0
LAYOUT
  5
1C
100
AcDbPlotSettings
  1

  2

  4

  6

 40
0.0
 41
0.0
 42
0.0
 43
0.0
 44
0.0
 45
0.0
 46
0.0
 47
0.0
 48
0.0
 49
0.0
140
0.0
141
0.0
142
1.0
143
1.0
 70
688
 72
1
 73
0
 74
5
  7

 75
0
147
1.0
148
0.0
149
0.0
100
AcDbLayout
  1
Layout
 70
1
 71
1
 10
0.0
 20
0.0
 11
420.0
 21
297.0
 12
0.0
 22
0.0
 32
0.0
 14
100000000000000000000.0
 24
100000000000000000000.0
 34
100000000000000000000.0
 15
-100000000000000000000.0
 25
-100000000000000000000.0
 35
-100000000000000000000.0
146
0.0
 13
0.0
 23
0.0
 33
0.0
 16
1.0
 26
0.0
 36
0.0
 17
0.0
 27
1.0
 37
0.0
 76
0
330
1B
  0
LAYOUT
  5
1A
100
AcDbPlotSettings
  1

  2

  4

  6

 40
0.0
 41
0.0
 42
0.0
 43
0.0
 44
0.0
 45
0.0
 46
0.0
 47
0.0
 48
0.0
 49
0.0
140
0.0
141
0.0
142
1.0
143
1.0
 70
1712
 72
1
 73
0
 74
0
  7

 75
0
147
1.0
148
0.0
149
0.0
100
AcDbLayout
  1
Model
 70
1
 71
0
 10
0.0
 20
0.0
 11
12.0
 21
9.0
 12
0.0
 22
0.0
 32
0.0
 14
0.0
 24
0.0
 34
0.0
 15
0.0
 25
0.0
 35
0.0
146
0.0
 13
0.0
 23
0.0
 33
0.0
 16
1.0
 26
0.0
 36
0.0
 17
0.0
 27
1.0
 37
0.0
 76
0
330
19
  0
MLINESTYLE
  5
129
102
{ACAD_REACTORS
330
126
102
}
330
126
100
AcDbMlineStyle
  2
Standard
 70
0
  3

 62
256
 51
90.0
 52
90.0
  2
Standard
 71
2
 49
0.5
 62
256
  6
ByLayer
 49
-0.5
 62
256
  6
ByLayer
  0
ACDBPLACEHOLDER
  5
A
  0
ENDSEC
  0
EOF
