  0
SECTION
  2
HEADER
  9
$ACADVER
  1
AC1027
  9
$ACADMAINTVER
 70
     8
  9
$DWGCODEPAGE
  3
ANSI_1250
  9
$REQUIREDVERSIONS
160
                 0
  9
$INSBASE
 10
0.0
 20
0.0
 30
0.0
  9
$EXTMIN
 10
7566544.46
 20
5717897.5
 30
0.0
  9
$EXTMAX
 10
7566961.990000001
 20
5718625.92
 30
0.0
  9
$LIMMIN
 10
7566544.46
 20
5717914.669999999
  9
$LIMMAX
 10
7566961.990000001
 20
5718625.92
  9
$ORTHOMODE
 70
     0
  9
$REGENMODE
 70
     1
  9
$FILLMODE
 70
     1
  9
$QTEXTMODE
 70
     0
  9
$MIRRTEXT
 70
     0
  9
$LTSCALE
 40
1.0
  9
$ATTMODE
 70
     1
  9
$TEXTSIZE
 40
0.2
  9
$TRACEWID
 40
0.05
  9
$TEXTSTYLE
  7
STANDARD
  9
$CLAYER
  8
0
  9
$CELTYPE
  6
CONTINUOUS
  9
$CECOLOR
 62
   256
  9
$CELTSCALE
 40
1.0
  9
$DISPSILH
 70
     0
  9
$DIMSCALE
 40
1.0
  9
$DIMASZ
 40
2.5
  9
$DIMEXO
 40
0.625
  9
$DIMDLI
 40
0.38
  9
$DIMRND
 40
0.0
  9
$DIMDLE
 40
0.0
  9
$DIMEXE
 40
1.25
  9
$DIMTP
 40
0.0
  9
$DIMTM
 40
0.0
  9
$DIMTXT
 40
2.5
  9
$DIMCEN
 40
0.09
  9
$DIMTSZ
 40
0.0
  9
$DIMTOL
 70
     0
  9
$DIMLIM
 70
     0
  9
$DIMTIH
 70
     1
  9
$DIMTOH
 70
     1
  9
$DIMSE1
 70
     0
  9
$DIMSE2
 70
     0
  9
$DIMTAD
 70
     0
  9
$DIMZIN
 70
     0
  9
$DIMBLK
  1

  9
$DIMASO
 70
     1
  9
$DIMSHO
 70
     1
  9
$DIMPOST
  1

  9
$DIMAPOST
  1

  9
$DIMALT
 70
     0
  9
$DIMALTD
 70
     2
  9
$DIMALTF
 40
25.4
  9
$DIMLFAC
 40
1.0
  9
$DIMTOFL
 70
     0
  9
$DIMTVP
 40
0.0
  9
$DIMTIX
 70
     0
  9
$DIMSOXD
 70
     0
  9
$DIMSAH
 70
     0
  9
$DIMBLK1
  1

  9
$DIMBLK2
  1

  9
$DIMSTYLE
  2
Standard
  9
$DIMCLRD
 70
     0
  9
$DIMCLRE
 70
     0
  9
$DIMCLRT
 70
     0
  9
$DIMTFAC
 40
1.0
  9
$DIMGAP
 40
0.625
  9
$DIMJUST
 70
     0
  9
$DIMSD1
 70
     0
  9
$DIMSD2
 70
     0
  9
$DIMTOLJ
 70
     1
  9
$DIMTZIN
 70
     0
  9
$DIMALTZ
 70
     0
  9
$DIMALTTZ
 70
     0
  9
$DIMUPT
 70
     0
  9
$DIMDEC
 70
     4
  9
$DIMTDEC
 70
     4
  9
$DIMALTU
 70
     2
  9
$DIMALTTD
 70
     2
  9
$DIMTXSTY
  7
STANDARD
  9
$DIMAUNIT
 70
     0
  9
$DIMADEC
 70
     0
  9
$DIMALTRND
 40
0.0
  9
$DIMAZIN
 70
     0
  9
$DIMDSEP
 70
    46
  9
$DIMATFIT
 70
     3
  9
$DIMFRAC
 70
     0
  9
$DIMLDRBLK
  1

  9
$DIMLUNIT
 70
     2
  9
$DIMLWD
 70
    -2
  9
$DIMLWE
 70
    -2
  9
$DIMTMOVE
 70
     0
  9
$DIMFXL
 40
1.0
  9
$DIMFXLON
 70
     0
  9
$DIMJOGANG
 40
0.7853981633974483
  9
$DIMTFILL
 70
     0
  9
$DIMTFILLCLR
 70
     0
  9
$DIMARCSYM
 70
     0
  9
$DIMLTYPE
  6

  9
$DIMLTEX1
  6

  9
$DIMLTEX2
  6

  9
$DIMTXTDIRECTION
 70
     0
  9
$LUNITS
 70
     2
  9
$LUPREC
 70
     4
  9
$SKETCHINC
 40
0.1
  9
$FILLETRAD
 40
0.0
  9
$AUNITS
 70
     0
  9
$AUPREC
 70
     0
  9
$MENU
  1

  9
$ELEVATION
 40
0.0
  9
$PELEVATION
 40
0.0
  9
$THICKNESS
 40
0.0
  9
$LIMCHECK
 70
     0
  9
$CHAMFERA
 40
0.0
  9
$CHAMFERB
 40
0.0
  9
$CHAMFERC
 40
0.0
  9
$CHAMFERD
 40
0.0
  9
$SKPOLY
 70
     0
  9
$TDCREATE
 40
2305814.602880000
  9
$TDUCREATE
 40
45100.519546667
  9
$TDUPDATE
 40
2460119.603231597
  9
$TDUUPDATE
 40
2460119.519898264
  9
$TDINDWG
 40
0.000229120
  9
$TDUSRTIMER
 40
0.000228947
  9
$USRTIMER
 70
     1
  9
$ANGBASE
 50
0.0
  9
$ANGDIR
 70
     0
  9
$PDMODE
 70
     0
  9
$PDSIZE
 40
0.0
  9
$PLINEWID
 40
0.0
  9
$SPLFRAME
 70
     0
  9
$SPLINETYPE
 70
     6
  9
$SPLINESEGS
 70
     8
  9
$HANDSEED
  5
100005D
  9
$SURFTAB1
 70
     6
  9
$SURFTAB2
 70
     6
  9
$SURFTYPE
 70
     6
  9
$SURFU
 70
     6
  9
$SURFV
 70
     6
  9
$UCSBASE
  2

  9
$UCSNAME
  2

  9
$UCSORG
 10
0.0
 20
0.0
 30
0.0
  9
$UCSXDIR
 10
1.0
 20
0.0
 30
0.0
  9
$UCSYDIR
 10
0.0
 20
1.0
 30
0.0
  9
$UCSORTHOREF
  2

  9
$UCSORTHOVIEW
 70
     0
  9
$UCSORGTOP
 10
0.0
 20
0.0
 30
0.0
  9
$UCSORGBOTTOM
 10
0.0
 20
0.0
 30
0.0
  9
$UCSORGLEFT
 10
0.0
 20
0.0
 30
0.0
  9
$UCSORGRIGHT
 10
0.0
 20
0.0
 30
0.0
  9
$UCSORGFRONT
 10
0.0
 20
0.0
 30
0.0
  9
$UCSORGBACK
 10
0.0
 20
0.0
 30
0.0
  9
$PUCSBASE
  2

  9
$PUCSNAME
  2

  9
$PUCSORG
 10
0.0
 20
0.0
 30
0.0
  9
$PUCSXDIR
 10
1.0
 20
0.0
 30
0.0
  9
$PUCSYDIR
 10
0.0
 20
1.0
 30
0.0
  9
$PUCSORTHOREF
  2

  9
$PUCSORTHOVIEW
 70
     0
  9
$PUCSORGTOP
 10
0.0
 20
0.0
 30
0.0
  9
$PUCSORGBOTTOM
 10
0.0
 20
0.0
 30
0.0
  9
$PUCSORGLEFT
 10
0.0
 20
0.0
 30
0.0
  9
$PUCSORGRIGHT
 10
0.0
 20
0.0
 30
0.0
  9
$PUCSORGFRONT
 10
0.0
 20
0.0
 30
0.0
  9
$PUCSORGBACK
 10
0.0
 20
0.0
 30
0.0
  9
$USERI1
 70
     0
  9
$USERI2
 70
     0
  9
$USERI3
 70
     0
  9
$USERI4
 70
     0
  9
$USERI5
 70
     0
  9
$USERR1
 40
0.0
  9
$USERR2
 40
0.0
  9
$USERR3
 40
0.0
  9
$USERR4
 40
0.0
  9
$USERR5
 40
0.0
  9
$WORLDVIEW
 70
     1
  9
$SHADEDGE
 70
     3
  9
$SHADEDIF
 70
    70
  9
$TILEMODE
 70
     1
  9
$MAXACTVP
 70
    64
  9
$PINSBASE
 10
0.0
 20
0.0
 30
0.0
  9
$PLIMCHECK
 70
     0
  9
$PEXTMIN
 10
1.000000000000000E+20
 20
1.000000000000000E+20
 30
1.000000000000000E+20
  9
$PEXTMAX
 10
-1.000000000000000E+20
 20
-1.000000000000000E+20
 30
-1.000000000000000E+20
  9
$PLIMMIN
 10
0.0
 20
0.0
  9
$PLIMMAX
 10
210.0
 20
297.0
  9
$UNITMODE
 70
     0
  9
$VISRETAIN
 70
     1
  9
$PLINEGEN
 70
     0
  9
$PSLTSCALE
 70
     1
  9
$TREEDEPTH
 70
  3020
  9
$CMLSTYLE
  2
Standard
  9
$CMLJUST
 70
     0
  9
$CMLSCALE
 40
1.0
  9
$PROXYGRAPHICS
 70
     1
  9
$MEASUREMENT
 70
     0
  9
$CELWEIGHT
370
    -1
  9
$ENDCAPS
280
     0
  9
$JOINSTYLE
280
     0
  9
$LWDISPLAY
290
     1
  9
$INSUNITS
 70
     6
  9
$HYPERLINKBASE
  1

  9
$STYLESHEET
  1

  9
$XEDIT
290
     0
  9
$CEPSNTYPE
380
     0
  9
$PSTYLEMODE
290
     1
  9
$FINGERPRINTGUID
  2
{44BD7CE7-4A55-4C4D-9B19-7421A0304F63}
  9
$VERSIONGUID
  2
{890EC240-44A7-45B2-994E-31A89A1D3DC7}
  9
$EXTNAMES
290
     1
  9
$PSVPSCALE
 40
0.0
  9
$OLESTARTUP
290
     0
  9
$SORTENTS
280
   127
  9
$INDEXCTL
280
     0
  9
$HIDETEXT
280
     1
  9
$XCLIPFRAME
280
     2
  9
$HALOGAP
280
     0
  9
$OBSCOLOR
 70
   257
  9
$OBSLTYPE
280
     0
  9
$INTERSECTIONDISPLAY
280
     0
  9
$INTERSECTIONCOLOR
 70
   257
  9
$DIMASSOC
280
     2
  9
$PROJECTNAME
  1

  9
$CAMERADISPLAY
290
     0
  9
$LENSLENGTH
 40
50.0
  9
$CAMERAHEIGHT
 40
0.0
  9
$STEPSPERSEC
 40
2.0
  9
$STEPSIZE
 40
6.0
  9
$3DDWFPREC
 40
2.0
  9
$PSOLWIDTH
 40
0.25
  9
$PSOLHEIGHT
 40
4.0
  9
$LOFTANG1
 40
1.570796326794896
  9
$LOFTANG2
 40
1.570796326794896
  9
$LOFTMAG1
 40
0.0
  9
$LOFTMAG2
 40
0.0
  9
$LOFTPARAM
 70
     7
  9
$LOFTNORMALS
280
     1
  9
$LATITUDE
 40
0.0
  9
$LONGITUDE
 40
0.0
  9
$NORTHDIRECTION
 40
0.0
  9
$TIMEZONE
 70
 -8000
  9
$LIGHTGLYPHDISPLAY
280
     1
  9
$TILEMODELIGHTSYNCH
280
     1
  9
$CMATERIAL
347
1000000
  9
$SOLIDHIST
280
     1
  9
$SHOWHIST
280
     1
  9
$DWFFRAME
280
     2
  9
$DGNFRAME
280
     0
  9
$REALWORLDSCALE
290
     1
  9
$INTERFERECOLOR
 62
     1
  9
$CSHADOW
280
     0
  9
$SHADOWPLANELOCATION
 40
0.0
  0
ENDSEC
  0
SECTION
  2
CLASSES
  0
CLASS
  1
WIPEOUT
  2
AcDbWipeout
  3
WipeOut
 90
      127
 91
        2
280
     0
281
     1
  0
CLASS
  1
WIPEOUTVARIABLES
  2
AcDbWipeoutVariables
  3
WipeOut
 90
        0
 91
        1
280
     0
281
     0
  0
CLASS
  1
ACDBDICTIONARYWDFLT
  2
AcDbDictionaryWithDefault
  3
ObjectDBX Classes
 90
    32768
 91
        1
280
     0
281
     0
  0
CLASS
  1
MATERIAL
  2
AcDbMaterial
  3
ObjectDBX Classes
 90
        0
 91
        3
280
     0
281
     0
  0
CLASS
  1
VISUALSTYLE
  2
AcDbVisualStyle
  3
ObjectDBX Classes
 90
     4095
 91
       24
280
     0
281
     0
  0
CLASS
  1
TABLESTYLE
  2
AcDbTableStyle
  3
ObjectDBX Classes
 90
     2047
 91
        1
280
     0
281
     0
  0
CLASS
  1
MLEADERSTYLE
  2
AcDbMLeaderStyle
  3
ACDB_MLEADERSTYLE_CLASS
 90
     4095
 91
        1
280
     0
281
     0
  0
CLASS
  1
SCALE
  2
AcDbScale
  3
ObjectDBX Classes
 90
     1153
 91
       17
280
     0
281
     0
  0
CLASS
  1
SORTENTSTABLE
  2
AcDbSortentsTable
  3
ObjectDBX Classes
 90
        0
 91
        1
280
     0
281
     0
  0
CLASS
  1
DICTIONARYVAR
  2
AcDbDictionaryVar
  3
ObjectDBX Classes
 90
        0
 91
        4
280
     0
281
     0
  0
ENDSEC
  0
SECTION
  2
TABLES
  0
TABLE
  2
VPORT
  5
1
330
0
100
AcDbSymbolTable
 70
     1
  0
VPORT
  5
2
330
1
100
AcDbSymbolTableRecord
100
AcDbViewportTableRecord
  2
*ACTIVE
 70
     0
 10
0.0
 20
0.0
 11
1.0
 21
1.0
 12
7567123.985847872
 22
5717945.401744414
 13
0.0
 23
0.0
 14
1.0
 24
1.0
 15
0.0
 25
0.0
 16
0.0
 26
0.0
 36
1.0
 17
0.0
 27
0.0
 37
0.0
 40
2031.401125000001
 41
1.500709219858156
 42
50.0
 43
0.0
 44
0.0
 50
0.0
 51
0.0
 71
     0
 72
   100
 73
     1
 74
     1
 75
     0
 76
     0
 77
     0
 78
     0
281
     0
 65
     1
110
0.0
120
0.0
130
0.0
111
1.0
121
0.0
131
0.0
112
0.0
122
1.0
132
0.0
 79
     0
146
0.0
348
1000008
 60
     3
 61
     5
292
     1
282
     1
141
0.0
142
0.0
 63
   256
  0
ENDTAB
  0
TABLE
  2
LTYPE
  5
3
330
0
100
AcDbSymbolTable
 70
     7
  0
LTYPE
  5
4
330
3
100
AcDbSymbolTableRecord
100
AcDbLinetypeTableRecord
  2
ByBlock
 70
     0
  3

 72
    65
 73
     0
 40
0.0
  0
LTYPE
  5
5
330
3
100
AcDbSymbolTableRecord
100
AcDbLinetypeTableRecord
  2
ByLayer
 70
     0
  3

 72
    65
 73
     0
 40
0.0
  0
LTYPE
  5
6
330
3
100
AcDbSymbolTableRecord
100
AcDbLinetypeTableRecord
  2
CONTINUOUS
 70
     0
  3
Solid line
 72
    65
 73
     0
 40
0.0
  0
LTYPE
  5
8
330
3
100
AcDbSymbolTableRecord
100
AcDbLinetypeTableRecord
  2
L_0_02
 70
     0
  3
Dzialka_ewidencyjna (MLineStyle)
 72
    65
 73
     0
 40
0.0
  0
LTYPE
  5
9
330
3
100
AcDbSymbolTableRecord
100
AcDbLinetypeTableRecord
  2
L_0_03
 70
     0
  3
Uzytek_gruntowy
 72
    65
 73
     2
 40
1.0
 49
0.5
 74
     0
 49
-0.5
 74
     0
  0
LTYPE
  5
A
330
3
100
AcDbSymbolTableRecord
100
AcDbLinetypeTableRecord
  2
L_0_04
 70
     0
  3
Budynek_projektowany
 72
    65
 73
     2
 40
1.5
 49
1.0
 74
     0
 49
-0.5
 74
     0
  0
LTYPE
  5
B
330
3
100
AcDbSymbolTableRecord
100
AcDbLinetypeTableRecord
  2
L_0_06
 70
     0
  3
Granica_konturu_klasyfikacyjnego_Krawedz_chodnika
 72
    65
 73
     2
 40
2.0
 49
1.5
 74
     0
 49
-0.5
 74
     0
  0
LTYPE
  5
C
330
3
100
AcDbSymbolTableRecord
100
AcDbLinetypeTableRecord
  2
L_0_15_SHX
 70
     0
  3
Ogrodzenie_trwale
 72
    65
 73
    12
 40
7.5
 49
0.0
 74
     0
 49
-0.375
 74
     0
 49
-0.75
 74
     0
 49
-0.75
 74
     0
 49
-0.75
 74
     0
 49
-0.75
 74
     0
 49
-0.75
 74
     4
 75
     1
340
D
 46
0.05
 50
0.0
 44
0.0
 45
0.0
 49
-0.75
 74
     0
 49
-0.75
 74
     0
 49
-0.75
 74
     0
 49
-0.75
 74
     0
 49
-0.375
 74
     0
  0
LTYPE
  5
F
330
3
100
AcDbSymbolTableRecord
100
AcDbLinetypeTableRecord
  2
L_0_15
 70
     0
  3
Ogrodzenie_trwale (MLineStyle)
 72
    65
 73
     0
 40
0.0
  0
ENDTAB
  0
TABLE
  2
LAYER
  5
10
330
0
100
AcDbSymbolTable
 70
     4
  0
LAYER
  5
11
330
10
100
AcDbSymbolTableRecord
100
AcDbLayerTableRecord
  2
0
 70
     0
 62
     7
  6
CONTINUOUS
370
    18
390
12
347
1000002
348
0
  0
LAYER
  5
13
330
10
100
AcDbSymbolTableRecord
100
AcDbLayerTableRecord
  2
Dzialki
 70
     0
 62
     7
  6
CONTINUOUS
370
    18
390
12
347
1000002
348
0
  0
LAYER
  5
14
330
10
100
AcDbSymbolTableRecord
100
AcDbLayerTableRecord
  2
Numery_dzialek
 70
     0
 62
     7
  6
CONTINUOUS
370
    18
390
12
347
1000002
348
0
  0
LAYER
  5
15
330
10
100
AcDbSymbolTableRecord
100
AcDbLayerTableRecord
  2
siatka
 70
     0
 62
    -7
  6
CONTINUOUS
370
    18
390
12
347
1000002
348
0
  0
ENDTAB
  0
TABLE
  2
STYLE
  5
16
330
0
100
AcDbSymbolTable
 70
     3
  0
STYLE
  5
17
330
16
100
AcDbSymbolTableRecord
100
AcDbTextStyleTableRecord
  2
STANDARD
 70
     0
 40
0.0
 41
1.0
 50
0.0
 71
     0
 42
0.2
  3
simplex.shx
  4

  0
STYLE
  5
18
330
16
100
AcDbSymbolTableRecord
100
AcDbTextStyleTableRecord
  2
STANDARD_ITALIC
 70
     0
 40
0.0
 41
1.0
 50
15.0
 71
     0
 42
0.2
  3
simplex.shx
  4

  0
STYLE
  5
D
330
16
100
AcDbSymbolTableRecord
100
AcDbTextStyleTableRecord
  2

 70
     1
 40
0.0
 41
0.05
 50
0.0
 71
     0
 42
0.2
  3
moszczanka-dz-244-245-granice.shx
  4

  0
ENDTAB
  0
TABLE
  2
VIEW
  5
19
330
0
100
AcDbSymbolTable
 70
     0
  0
ENDTAB
  0
TABLE
  2
UCS
  5
1A
330
0
100
AcDbSymbolTable
 70
     0
  0
ENDTAB
  0
TABLE
  2
APPID
  5
1B
330
0
100
AcDbSymbolTable
 70
     1
  0
APPID
  5
1C
330
1B
100
AcDbSymbolTableRecord
100
AcDbRegAppTableRecord
  2
ACAD
 70
     0
  0
ENDTAB
  0
TABLE
  2
DIMSTYLE
  5
1D
330
0
100
AcDbSymbolTable
 70
     1
100
AcDbDimStyleTable
 71
     0
  0
DIMSTYLE
105
1E
330
1D
100
AcDbSymbolTableRecord
100
AcDbDimStyleTableRecord
  2
Standard
 70
     0
340
17
  0
ENDTAB
  0
TABLE
  2
BLOCK_RECORD
  5
1F
330
0
100
AcDbSymbolTable
 70
     4
  0
BLOCK_RECORD
  5
20
102
{ACAD_XDICTIONARY
360
1000034
102
}
330
1F
100
AcDbSymbolTableRecord
100
AcDbBlockTableRecord
  2
*MODEL_SPACE
340
21
 70
     0
280
     1
281
     0
  0
BLOCK_RECORD
  5
22
330
1F
100
AcDbSymbolTableRecord
100
AcDbBlockTableRecord
  2
*PAPER_SPACE
340
23
 70
     0
280
     1
281
     0
  0
BLOCK_RECORD
  5
24
330
1F
100
AcDbSymbolTableRecord
100
AcDbBlockTableRecord
  2
OSHF
340
0
 70
     0
280
     1
281
     0
  0
BLOCK_RECORD
  5
26
330
1F
100
AcDbSymbolTableRecord
100
AcDbBlockTableRecord
  2
OTRS
340
0
 70
     0
280
     1
281
     0
  0
BLOCK_RECORD
  5
28
330
1F
100
AcDbSymbolTableRecord
100
AcDbBlockTableRecord
  2
L_0_02_1
340
0
 70
     0
280
     1
281
     0
  0
BLOCK_RECORD
  5
2A
330
1F
100
AcDbSymbolTableRecord
100
AcDbBlockTableRecord
  2
L_0_02_2
340
0
 70
     0
280
     1
281
     0
  0
ENDTAB
  0
ENDSEC
  0
SECTION
  2
BLOCKS
  0
BLOCK
  5
2C
330
20
100
AcDbEntity
  8
0
100
AcDbBlockBegin
  2
*MODEL_SPACE
 70
     0
 10
0.0
 20
0.0
 30
0.0
  3
*MODEL_SPACE
  1

  0
ENDBLK
  5
2D
330
20
100
AcDbEntity
  8
0
100
AcDbBlockEnd
  0
BLOCK
  5
2E
330
22
100
AcDbEntity
 67
     1
  8
0
100
AcDbBlockBegin
  2
*PAPER_SPACE
 70
     0
 10
0.0
 20
0.0
 30
0.0
  3
*PAPER_SPACE
  1

  0
ENDBLK
  5
2F
330
22
100
AcDbEntity
 67
     1
  8
0
100
AcDbBlockEnd
  0
BLOCK
  5
25
330
24
100
AcDbEntity
  8
0
 62
     0
370
    13
100
AcDbBlockBegin
  2
OSHF
 70
     0
 10
0.0
 20
0.0
 30
0.0
  3
OSHF
  1

  0
WIPEOUT
  5
30
330
24
100
AcDbEntity
  8
0
  6
Continuous
 62
     0
370
    18
160
               344
310
58010000020000000C000000140000000200000044010000060000000D000000000000000000000000000000000000C00000000000000000000000000000F03F3B3D58E87AB6FBBF00000000000000003B3D58E87AB6FB3F000000000000F0BF00000000000000000000000000000040000000000000000000000000000000
310
003B3D58E87AB6FB3F000000000000F03F0000000000000000000000000000F03F3B3D58E87AB6FB3F0000000000000000000000000000000000000000000000400000000000000000000000000000F0BF3B3D58E87AB6FB3F00000000000000003B3D58E87AB6FBBF000000000000F03F0000000000000000000000000000
310
00C0000000000000000000000000000000003B3D58E87AB6FBBF000000000000F0BF0000000000000000000000000000F0BF3B3D58E87AB6FBBF0000000000000000000000000000000000000000000000C00000000000000000
100
AcDbWipeout
 90
        0
 10
-2.0
 20
-2.0
 30
0.0
 11
4.0
 21
0.0
 31
0.0
 12
0.0
 22
4.0
 32
0.0
 13
1.0
 23
1.0
340
0
 70
     7
280
     1
281
   100
282
   100
283
     0
360
0
 71
     2
 91
       13
 14
0.0
 24
0.5
 14
0.25
 24
0.433012701892
 14
0.433012701892
 24
0.25
 14
0.5
 24
0.0
 14
0.433012701892
 24
-0.25
 14
0.25
 24
-0.433012701892
 14
0.0
 24
-0.5
 14
-0.25
 24
-0.433012701892
 14
-0.433012701892
 24
-0.25
 14
-0.5
 24
0.0
 14
-0.433012701892
 24
0.25
 14
-0.25
 24
0.433012701892
 14
0.0
 24
0.5
290
     0
  0
CIRCLE
  5
31
330
24
100
AcDbEntity
  8
0
  6
Continuous
 62
     0
370
    18
100
AcDbCircle
 10
0.0
 20
0.0
 30
0.0
 40
2.0
  0
HATCH
  5
32
330
24
100
AcDbEntity
  8
0
  6
Continuous
 62
     0
370
    18
100
AcDbHatch
 10
0.0
 20
0.0
 30
0.0
210
0.0
220
0.0
230
1.0
  2
SOLID
 70
     1
 71
     1
 91
        1
 92
        3
 72
     0
 73
     1
 93
        4
 10
-1.7
 20
1.0
 10
1.7
 20
1.0
 10
0.0
 20
-2.0
 10
-1.7
 20
0.9
 97
        0
 75
     0
 76
     1
 98
        1
 10
0.0
 20
0.0
  0
POLYLINE
  5
33
330
24
100
AcDbEntity
  8
0
  6
Continuous
 62
     0
370
    18
100
AcDb2dPolyline
 66
     1
 10
0.0
 20
0.0
 30
0.0
 70
   129
  0
VERTEX
  5
34
330
33
100
AcDbEntity
  8
0
100
AcDbVertex
100
AcDb2dVertex
 10
-1.7
 20
1.0
 30
0.0
  0
VERTEX
  5
35
330
33
100
AcDbEntity
  8
0
100
AcDbVertex
100
AcDb2dVertex
 10
1.7
 20
1.0
 30
0.0
  0
VERTEX
  5
36
330
33
100
AcDbEntity
  8
0
100
AcDbVertex
100
AcDb2dVertex
 10
0.0
 20
-2.0
 30
0.0
  0
VERTEX
  5
37
330
33
100
AcDbEntity
  8
0
100
AcDbVertex
100
AcDb2dVertex
 10
-1.7
 20
0.9
 30
0.0
  0
SEQEND
  5
38
330
0
100
AcDbEntity
  8
0
  0
WIPEOUT
  5
39
330
24
100
AcDbEntity
  8
0
  6
Continuous
 62
     0
370
    18
160
               344
310
58010000020000000C000000140000000200000044010000060000000D0000000000000000000000CEF0BFC5259FCCBF0000000000000000CEF0BFC5259FBC3F09673FF47EC9C8BF000000000000000009673FF47EC9C83FCEF0BFC5259FBCBF0000000000000000CEF0BFC5259FCC3F000000000000000000000000000000
310
0009673FF47EC9C83FCEF0BFC5259FBC3F0000000000000000CEF0BFC5259FBC3F09673FF47EC9C83F00000000000000000000000000000000CEF0BFC5259FCC3F0000000000000000CEF0BFC5259FBCBF09673FF47EC9C83F000000000000000009673FF47EC9C8BFCEF0BFC5259FBC3F0000000000000000CEF0BFC5259F
310
CCBF0000000000000000000000000000000009673FF47EC9C8BFCEF0BFC5259FBCBF0000000000000000CEF0BFC5259FBCBF09673FF47EC9C8BF00000000000000000000000000000000CEF0BFC5259FCCBF0000000000000000
100
AcDbWipeout
 90
        0
 10
-0.22360679775
 20
-0.22360679775
 30
0.0
 11
0.4472135955
 21
0.0
 31
0.0
 12
0.0
 22
0.4472135955
 32
0.0
 13
1.0
 23
1.0
340
0
 70
     7
280
     1
281
   100
282
   100
283
     0
360
0
 71
     2
 91
       13
 14
0.0
 24
0.5
 14
0.25
 24
0.433012701892
 14
0.433012701892
 24
0.25
 14
0.5
 24
0.0
 14
0.433012701892
 24
-0.25
 14
0.25
 24
-0.433012701892
 14
0.0
 24
-0.5
 14
-0.25
 24
-0.433012701892
 14
-0.433012701892
 24
-0.25
 14
-0.5
 24
0.0
 14
-0.433012701892
 24
0.25
 14
-0.25
 24
0.433012701892
 14
0.0
 24
0.5
290
     0
  0
ENDBLK
  5
3A
330
24
100
AcDbEntity
  8
0
100
AcDbBlockEnd
  0
BLOCK
  5
27
330
26
100
AcDbEntity
  8
0
 62
     0
370
    13
100
AcDbBlockBegin
  2
OTRS
 70
     0
 10
0.0
 20
0.0
 30
0.0
  3
OTRS
  1

  0
HATCH
  5
3B
330
26
100
AcDbEntity
  8
0
  6
Continuous
 62
     0
370
    13
100
AcDbHatch
 10
0.0
 20
0.0
 30
0.0
210
0.0
220
0.0
230
1.0
  2
SOLID
 70
     1
 71
     1
 91
        1
 92
        3
 72
     1
 73
     1
 93
        2
 10
0.0
 20
-0.090553851381
 42
1.0
 10
0.0
 20
0.090553851381
 42
1.0
 97
        0
 75
     0
 76
     1
 98
        1
 10
0.0
 20
0.0
  0
CIRCLE
  5
3C
330
26
100
AcDbEntity
  8
0
  6
Continuous
 62
     0
370
    13
100
AcDbCircle
 10
0.0
 20
0.0
 30
0.0
 40
0.090553851381
  0
ENDBLK
  5
3D
330
26
100
AcDbEntity
  8
0
100
AcDbBlockEnd
  0
BLOCK
  5
29
330
28
100
AcDbEntity
  8
0
 62
     0
370
    13
100
AcDbBlockBegin
  2
L_0_02_1
 70
     0
 10
0.0
 20
0.0
 30
0.0
  3
L_0_02_1
  1

  0
POINT
  5
3E
330
28
100
AcDbEntity
  8
0
 62
     0
100
AcDbPoint
 10
0.0
 20
0.0
 30
0.0
  0
ENDBLK
  5
3F
330
28
100
AcDbEntity
  8
0
100
AcDbBlockEnd
  0
BLOCK
  5
2B
330
2A
100
AcDbEntity
  8
0
 62
     0
370
    13
100
AcDbBlockBegin
  2
L_0_02_2
 70
     0
 10
0.0
 20
0.0
 30
0.0
  3
L_0_02_2
  1

  0
POINT
  5
40
330
2A
100
AcDbEntity
  8
0
 62
     0
100
AcDbPoint
 10
0.0
 20
0.0
 30
0.0
  0
ENDBLK
  5
41
330
2A
100
AcDbEntity
  8
0
100
AcDbBlockEnd
  0
ENDSEC
  0
SECTION
  2
ENTITIES
  0
POLYLINE
  5
42
330
20
100
AcDbEntity
  8
siatka
  6
Continuous
 62
     7
370
    13
100
AcDb2dPolyline
 66
     1
 10
0.0
 20
0.0
 30
0.0
 70
   128
  0
VERTEX
  5
43
330
42
100
AcDbEntity
  8
siatka
100
AcDbVertex
100
AcDb2dVertex
 10
7566547.5
 20
5717900.000000001
 30
0.0
  0
VERTEX
  5
44
330
42
100
AcDbEntity
  8
siatka
100
AcDbVertex
100
AcDb2dVertex
 10
7566552.5
 20
5717900.000000001
 30
0.0
  0
SEQEND
  5
45
330
0
100
AcDbEntity
  8
siatka
  0
POLYLINE
  5
46
330
20
100
AcDbEntity
  8
siatka
  6
Continuous
 62
     7
370
    13
100
AcDb2dPolyline
 66
     1
 10
0.0
 20
0.0
 30
0.0
 70
   128
  0
VERTEX
  5
47
330
46
100
AcDbEntity
  8
siatka
100
AcDbVertex
100
AcDb2dVertex
 10
7566550.000000001
 20
5717897.5
 30
0.0
  0
VERTEX
  5
48
330
46
100
AcDbEntity
  8
siatka
100
AcDbVertex
100
AcDb2dVertex
 10
7566550.000000001
 20
5717902.5
 30
0.0
  0
SEQEND
  5
49
330
0
100
AcDbEntity
  8
siatka
  0
POLYLINE
  5
4A
330
20
100
AcDbEntity
  8
siatka
  6
Continuous
 62
     7
370
    13
100
AcDb2dPolyline
 66
     1
 10
0.0
 20
0.0
 30
0.0
 70
   128
  0
VERTEX
  5
4B
330
4A
100
AcDbEntity
  8
siatka
100
AcDbVertex
100
AcDb2dVertex
 10
7566597.5
 20
5717900.000000001
 30
0.0
  0
VERTEX
  5
4C
330
4A
100
AcDbEntity
  8
siatka
100
AcDbVertex
100
AcDb2dVertex
 10
7566602.5
 20
5717900.000000001
 30
0.0
  0
SEQEND
  5
4D
330
0
100
AcDbEntity
  8
siatka
  0
POLYLINE
  5
4E
330
20
100
AcDbEntity
  8
siatka
  6
Continuous
 62
     7
370
    13
100
AcDb2dPolyline
 66
     1
 10
0.0
 20
0.0
 30
0.0
 70
   128
  0
VERTEX
  5
4F
330
4E
100
AcDbEntity
  8
siatka
100
AcDbVertex
100
AcDb2dVertex
 10
7566600.000000001
 20
5717897.5
 30
0.0
  0
VERTEX
  5
50
330
4E
100
AcDbEntity
  8
siatka
100
AcDbVertex
100
AcDb2dVertex
 10
7566600.000000001
 20
5717902.5
 30
0.0
  0
SEQEND
  5
51
330
0
100
AcDbEntity
  8
siatka
  0
POLYLINE
  5
52
330
20
100
AcDbEntity
  8
siatka
  6
Continuous
 62
     7
370
    13
100
AcDb2dPolyline
 66
     1
 10
0.0
 20
0.0
 30
0.0
 70
   128
  0
VERTEX
  5
53
330
52
100
AcDbEntity
  8
siatka
100
AcDbVertex
100
AcDb2dVertex
 10
7566647.5
 20
5717900.000000001
 30
0.0
  0
VERTEX
  5
54
330
52
100
AcDbEntity
  8
siatka
100
AcDbVertex
100
AcDb2dVertex
 10
7566652.5
 20
5717900.000000001
 30
0.0
  0
SEQEND
  5
55
330
0
100
AcDbEntity
  8
siatka
  0
POLYLINE
  5
56
330
20
100
AcDbEntity
  8
siatka
  6
Continuous
 62
     7
370
    13
100
AcDb2dPolyline
 66
     1
 10
0.0
 20
0.0
 30
0.0
 70
   128
  0
VERTEX
  5
57
330
56
100
AcDbEntity
  8
siatka
100
AcDbVertex
100
AcDb2dVertex
 10
7566650.0
 20
5717897.5
 30
0.0
  0
VERTEX
  5
58
330
56
100
AcDbEntity
  8
siatka
100
AcDbVertex
100
AcDb2dVertex
 10
7566650.0
 20
5717902.5
 30
0.0
  0
SEQEND
  5
59
330
0
100
AcDbEntity
  8
siatka
  0
POLYLINE
  5
5A
330
20
100
AcDbEntity
  8
siatka
  6
Continuous
 62
     7
370
    13
100
AcDb2dPolyline
 66
     1
 10
0.0
 20
0.0
 30
0.0
 70
   128
  0
VERTEX
  5
5B
330
5A
100
AcDbEntity
  8
siatka
100
AcDbVertex
100
AcDb2dVertex
 10
7566697.5
 20
5717900.000000001
 30
0.0
  0
VERTEX
  5
5C
330
5A
100
AcDbEntity
  8
siatka
100
AcDbVertex
100
AcDb2dVertex
 10
7566702.499999999
 20
5717900.000000001
 30
0.0
  0
SEQEND
  5
5D
330
0
100
AcDbEntity
  8
siatka
  0
POLYLINE
  5
5E
330
20
100
AcDbEntity
  8
siatka
  6
Continuous
 62
     7
370
    13
100
AcDb2dPolyline
 66
     1
 10
0.0
 20
0.0
 30
0.0
 70
   128
  0
VERTEX
  5
5F
330
5E
100
AcDbEntity
  8
siatka
100
AcDbVertex
100
AcDb2dVertex
 10
7566700.0
 20
5717897.5
 30
0.0
  0
VERTEX
  5
60
330
5E
100
AcDbEntity
  8
siatka
100
AcDbVertex
100
AcDb2dVertex
 10
7566700.0
 20
5717902.5
 30
0.0
  0
SEQEND
  5
61
330
0
100
AcDbEntity
  8
siatka
  0
POLYLINE
  5
62
330
20
100
AcDbEntity
  8
siatka
  6
Continuous
 62
     7
370
    13
100
AcDb2dPolyline
 66
     1
 10
0.0
 20
0.0
 30
0.0
 70
   128
  0
VERTEX
  5
63
330
62
100
AcDbEntity
  8
siatka
100
AcDbVertex
100
AcDb2dVertex
 10
7566747.499999999
 20
5717900.000000001
 30
0.0
  0
VERTEX
  5
64
330
62
100
AcDbEntity
  8
siatka
100
AcDbVertex
100
AcDb2dVertex
 10
7566752.499999999
 20
5717900.000000001
 30
0.0
  0
SEQEND
  5
65
330
0
100
AcDbEntity
  8
siatka
  0
POLYLINE
  5
66
330
20
100
AcDbEntity
  8
siatka
  6
Continuous
 62
     7
370
    13
100
AcDb2dPolyline
 66
     1
 10
0.0
 20
0.0
 30
0.0
 70
   128
  0
VERTEX
  5
67
330
66
100
AcDbEntity
  8
siatka
100
AcDbVertex
100
AcDb2dVertex
 10
7566750.0
 20
5717897.5
 30
0.0
  0
VERTEX
  5
68
330
66
100
AcDbEntity
  8
siatka
100
AcDbVertex
100
AcDb2dVertex
 10
7566750.0
 20
5717902.5
 30
0.0
  0
SEQEND
  5
69
330
0
100
AcDbEntity
  8
siatka
  0
POLYLINE
  5
6A
330
20
100
AcDbEntity
  8
siatka
  6
Continuous
 62
     7
370
    13
100
AcDb2dPolyline
 66
     1
 10
0.0
 20
0.0
 30
0.0
 70
   128
  0
VERTEX
  5
6B
330
6A
100
AcDbEntity
  8
siatka
100
AcDbVertex
100
AcDb2dVertex
 10
7566797.499999999
 20
5717900.000000001
 30
0.0
  0
VERTEX
  5
6C
330
6A
100
AcDbEntity
  8
siatka
100
AcDbVertex
100
AcDb2dVertex
 10
7566802.5
 20
5717900.000000001
 30
0.0
  0
SEQEND
  5
6D
330
0
100
AcDbEntity
  8
siatka
  0
POLYLINE
  5
6E
330
20
100
AcDbEntity
  8
siatka
  6
Continuous
 62
     7
370
    13
100
AcDb2dPolyline
 66
     1
 10
0.0
 20
0.0
 30
0.0
 70
   128
  0
VERTEX
  5
6F
330
6E
100
AcDbEntity
  8
siatka
100
AcDbVertex
100
AcDb2dVertex
 10
7566800.0
 20
5717897.5
 30
0.0
  0
VERTEX
  5
70
330
6E
100
AcDbEntity
  8
siatka
100
AcDbVertex
100
AcDb2dVertex
 10
7566800.0
 20
5717902.5
 30
0.0
  0
SEQEND
  5
71
330
0
100
AcDbEntity
  8
siatka
  0
POLYLINE
  5
72
330
20
100
AcDbEntity
  8
siatka
  6
Continuous
 62
     7
370
    13
100
AcDb2dPolyline
 66
     1
 10
0.0
 20
0.0
 30
0.0
 70
   128
  0
VERTEX
  5
73
330
72
100
AcDbEntity
  8
siatka
100
AcDbVertex
100
AcDb2dVertex
 10
7566847.5
 20
5717900.000000001
 30
0.0
  0
VERTEX
  5
74
330
72
100
AcDbEntity
  8
siatka
100
AcDbVertex
100
AcDb2dVertex
 10
7566852.5
 20
5717900.000000001
 30
0.0
  0
SEQEND
  5
75
330
0
100
AcDbEntity
  8
siatka
  0
POLYLINE
  5
76
330
20
100
AcDbEntity
  8
siatka
  6
Continuous
 62
     7
370
    13
100
AcDb2dPolyline
 66
     1
 10
0.0
 20
0.0
 30
0.0
 70
   128
  0
VERTEX
  5
77
330
76
100
AcDbEntity
  8
siatka
100
AcDbVertex
100
AcDb2dVertex
 10
7566850.0
 20
5717897.5
 30
0.0
  0
VERTEX
  5
78
330
76
100
AcDbEntity
  8
siatka
100
AcDbVertex
100
AcDb2dVertex
 10
7566850.0
 20
5717902.5
 30
0.0
  0
SEQEND
  5
79
330
0
100
AcDbEntity
  8
siatka
  0
POLYLINE
  5
7A
330
20
100
AcDbEntity
  8
siatka
  6
Continuous
 62
     7
370
    13
100
AcDb2dPolyline
 66
     1
 10
0.0
 20
0.0
 30
0.0
 70
   128
  0
VERTEX
  5
7B
330
7A
100
AcDbEntity
  8
siatka
100
AcDbVertex
100
AcDb2dVertex
 10
7566897.5
 20
5717900.000000001
 30
0.0
  0
VERTEX
  5
7C
330
7A
100
AcDbEntity
  8
siatka
100
AcDbVertex
100
AcDb2dVertex
 10
7566902.5
 20
5717900.000000001
 30
0.0
  0
SEQEND
  5
7D
330
0
100
AcDbEntity
  8
siatka
  0
POLYLINE
  5
7E
330
20
100
AcDbEntity
  8
siatka
  6
Continuous
 62
     7
370
    13
100
AcDb2dPolyline
 66
     1
 10
0.0
 20
0.0
 30
0.0
 70
   128
  0
VERTEX
  5
7F
330
7E
100
AcDbEntity
  8
siatka
100
AcDbVertex
100
AcDb2dVertex
 10
7566900.0
 20
5717897.5
 30
0.0
  0
VERTEX
  5
80
330
7E
100
AcDbEntity
  8
siatka
100
AcDbVertex
100
AcDb2dVertex
 10
7566900.0
 20
5717902.5
 30
0.0
  0
SEQEND
  5
81
330
0
100
AcDbEntity
  8
siatka
  0
POLYLINE
  5
82
330
20
100
AcDbEntity
  8
siatka
  6
Continuous
 62
     7
370
    13
100
AcDb2dPolyline
 66
     1
 10
0.0
 20
0.0
 30
0.0
 70
   128
  0
VERTEX
  5
83
330
82
100
AcDbEntity
  8
siatka
100
AcDbVertex
100
AcDb2dVertex
 10
7566947.5
 20
5717900.000000001
 30
0.0
  0
VERTEX
  5
84
330
82
100
AcDbEntity
  8
siatka
100
AcDbVertex
100
AcDb2dVertex
 10
7566952.5
 20
5717900.000000001
 30
0.0
  0
SEQEND
  5
85
330
0
100
AcDbEntity
  8
siatka
  0
POLYLINE
  5
86
330
20
100
AcDbEntity
  8
siatka
  6
Continuous
 62
     7
370
    13
100
AcDb2dPolyline
 66
     1
 10
0.0
 20
0.0
 30
0.0
 70
   128
  0
VERTEX
  5
87
330
86
100
AcDbEntity
  8
siatka
100
AcDbVertex
100
AcDb2dVertex
 10
7566950.0
 20
5717897.5
 30
0.0
  0
VERTEX
  5
88
330
86
100
AcDbEntity
  8
siatka
100
AcDbVertex
100
AcDb2dVertex
 10
7566950.0
 20
5717902.5
 30
0.0
  0
SEQEND
  5
89
330
0
100
AcDbEntity
  8
siatka
  0
POLYLINE
  5
8A
330
20
100
AcDbEntity
  8
siatka
  6
Continuous
 62
     7
370
    13
100
AcDb2dPolyline
 66
     1
 10
0.0
 20
0.0
 30
0.0
 70
   128
  0
VERTEX
  5
8B
330
8A
100
AcDbEntity
  8
siatka
100
AcDbVertex
100
AcDb2dVertex
 10
7566547.5
 20
5717950.0
 30
0.0
  0
VERTEX
  5
8C
330
8A
100
AcDbEntity
  8
siatka
100
AcDbVertex
100
AcDb2dVertex
 10
7566552.5
 20
5717950.0
 30
0.0
  0
SEQEND
  5
8D
330
0
100
AcDbEntity
  8
siatka
  0
POLYLINE
  5
8E
330
20
100
AcDbEntity
  8
siatka
  6
Continuous
 62
     7
370
    13
100
AcDb2dPolyline
 66
     1
 10
0.0
 20
0.0
 30
0.0
 70
   128
  0
VERTEX
  5
8F
330
8E
100
AcDbEntity
  8
siatka
100
AcDbVertex
100
AcDb2dVertex
 10
7566550.000000001
 20
5717947.5
 30
0.0
  0
VERTEX
  5
90
330
8E
100
AcDbEntity
  8
siatka
100
AcDbVertex
100
AcDb2dVertex
 10
7566550.000000001
 20
5717952.499999999
 30
0.0
  0
SEQEND
  5
91
330
0
100
AcDbEntity
  8
siatka
  0
POLYLINE
  5
92
330
20
100
AcDbEntity
  8
siatka
  6
Continuous
 62
     7
370
    13
100
AcDb2dPolyline
 66
     1
 10
0.0
 20
0.0
 30
0.0
 70
   128
  0
VERTEX
  5
93
330
92
100
AcDbEntity
  8
siatka
100
AcDbVertex
100
AcDb2dVertex
 10
7566597.5
 20
5717950.0
 30
0.0
  0
VERTEX
  5
94
330
92
100
AcDbEntity
  8
siatka
100
AcDbVertex
100
AcDb2dVertex
 10
7566602.5
 20
5717950.0
 30
0.0
  0
SEQEND
  5
95
330
0
100
AcDbEntity
  8
siatka
  0
POLYLINE
  5
96
330
20
100
AcDbEntity
  8
siatka
  6
Continuous
 62
     7
370
    13
100
AcDb2dPolyline
 66
     1
 10
0.0
 20
0.0
 30
0.0
 70
   128
  0
VERTEX
  5
97
330
96
100
AcDbEntity
  8
siatka
100
AcDbVertex
100
AcDb2dVertex
 10
7566600.000000001
 20
5717947.5
 30
0.0
  0
VERTEX
  5
98
330
96
100
AcDbEntity
  8
siatka
100
AcDbVertex
100
AcDb2dVertex
 10
7566600.000000001
 20
5717952.499999999
 30
0.0
  0
SEQEND
  5
99
330
0
100
AcDbEntity
  8
siatka
  0
POLYLINE
  5
9A
330
20
100
AcDbEntity
  8
siatka
  6
Continuous
 62
     7
370
    13
100
AcDb2dPolyline
 66
     1
 10
0.0
 20
0.0
 30
0.0
 70
   128
  0
VERTEX
  5
9B
330
9A
100
AcDbEntity
  8
siatka
100
AcDbVertex
100
AcDb2dVertex
 10
7566647.5
 20
5717950.0
 30
0.0
  0
VERTEX
  5
9C
330
9A
100
AcDbEntity
  8
siatka
100
AcDbVertex
100
AcDb2dVertex
 10
7566652.5
 20
5717950.0
 30
0.0
  0
SEQEND
  5
9D
330
0
100
AcDbEntity
  8
siatka
  0
POLYLINE
  5
9E
330
20
100
AcDbEntity
  8
siatka
  6
Continuous
 62
     7
370
    13
100
AcDb2dPolyline
 66
     1
 10
0.0
 20
0.0
 30
0.0
 70
   128
  0
VERTEX
  5
9F
330
9E
100
AcDbEntity
  8
siatka
100
AcDbVertex
100
AcDb2dVertex
 10
7566650.0
 20
5717947.5
 30
0.0
  0
VERTEX
  5
A0
330
9E
100
AcDbEntity
  8
siatka
100
AcDbVertex
100
AcDb2dVertex
 10
7566650.0
 20
5717952.499999999
 30
0.0
  0
SEQEND
  5
A1
330
0
100
AcDbEntity
  8
siatka
  0
POLYLINE
  5
A2
330
20
100
AcDbEntity
  8
siatka
  6
Continuous
 62
     7
370
    13
100
AcDb2dPolyline
 66
     1
 10
0.0
 20
0.0
 30
0.0
 70
   128
  0
VERTEX
  5
A3
330
A2
100
AcDbEntity
  8
siatka
100
AcDbVertex
100
AcDb2dVertex
 10
7566697.5
 20
5717950.0
 30
0.0
  0
VERTEX
  5
A4
330
A2
100
AcDbEntity
  8
siatka
100
AcDbVertex
100
AcDb2dVertex
 10
7566702.499999999
 20
5717950.0
 30
0.0
  0
SEQEND
  5
A5
330
0
100
AcDbEntity
  8
siatka
  0
POLYLINE
  5
A6
330
20
100
AcDbEntity
  8
siatka
  6
Continuous
 62
     7
370
    13
100
AcDb2dPolyline
 66
     1
 10
0.0
 20
0.0
 30
0.0
 70
   128
  0
VERTEX
  5
A7
330
A6
100
AcDbEntity
  8
siatka
100
AcDbVertex
100
AcDb2dVertex
 10
7566700.0
 20
5717947.5
 30
0.0
  0
VERTEX
  5
A8
330
A6
100
AcDbEntity
  8
siatka
100
AcDbVertex
100
AcDb2dVertex
 10
7566700.0
 20
5717952.499999999
 30
0.0
  0
SEQEND
  5
A9
330
0
100
AcDbEntity
  8
siatka
  0
POLYLINE
  5
AA
330
20
100
AcDbEntity
  8
siatka
  6
Continuous
 62
     7
370
    13
100
AcDb2dPolyline
 66
     1
 10
0.0
 20
0.0
 30
0.0
 70
   128
  0
VERTEX
  5
AB
330
AA
100
AcDbEntity
  8
siatka
100
AcDbVertex
100
AcDb2dVertex
 10
7566747.499999999
 20
5717950.0
 30
0.0
  0
VERTEX
  5
AC
330
AA
100
AcDbEntity
  8
siatka
100
AcDbVertex
100
AcDb2dVertex
 10
7566752.499999999
 20
5717950.0
 30
0.0
  0
SEQEND
  5
AD
330
0
100
AcDbEntity
  8
siatka
  0
POLYLINE
  5
AE
330
20
100
AcDbEntity
  8
siatka
  6
Continuous
 62
     7
370
    13
100
AcDb2dPolyline
 66
     1
 10
0.0
 20
0.0
 30
0.0
 70
   128
  0
VERTEX
  5
AF
330
AE
100
AcDbEntity
  8
siatka
100
AcDbVertex
100
AcDb2dVertex
 10
7566750.0
 20
5717947.5
 30
0.0
  0
VERTEX
  5
B0
330
AE
100
AcDbEntity
  8
siatka
100
AcDbVertex
100
AcDb2dVertex
 10
7566750.0
 20
5717952.499999999
 30
0.0
  0
SEQEND
  5
B1
330
0
100
AcDbEntity
  8
siatka
  0
POLYLINE
  5
B2
330
20
100
AcDbEntity
  8
siatka
  6
Continuous
 62
     7
370
    13
100
AcDb2dPolyline
 66
     1
 10
0.0
 20
0.0
 30
0.0
 70
   128
  0
VERTEX
  5
B3
330
B2
100
AcDbEntity
  8
siatka
100
AcDbVertex
100
AcDb2dVertex
 10
7566797.499999999
 20
5717950.0
 30
0.0
  0
VERTEX
  5
B4
330
B2
100
AcDbEntity
  8
siatka
100
AcDbVertex
100
AcDb2dVertex
 10
7566802.5
 20
5717950.0
 30
0.0
  0
SEQEND
  5
B5
330
0
100
AcDbEntity
  8
siatka
  0
POLYLINE
  5
B6
330
20
100
AcDbEntity
  8
siatka
  6
Continuous
 62
     7
370
    13
100
AcDb2dPolyline
 66
     1
 10
0.0
 20
0.0
 30
0.0
 70
   128
  0
VERTEX
  5
B7
330
B6
100
AcDbEntity
  8
siatka
100
AcDbVertex
100
AcDb2dVertex
 10
7566800.0
 20
5717947.5
 30
0.0
  0
VERTEX
  5
B8
330
B6
100
AcDbEntity
  8
siatka
100
AcDbVertex
100
AcDb2dVertex
 10
7566800.0
 20
5717952.499999999
 30
0.0
  0
SEQEND
  5
B9
330
0
100
AcDbEntity
  8
siatka
  0
POLYLINE
  5
BA
330
20
100
AcDbEntity
  8
siatka
  6
Continuous
 62
     7
370
    13
100
AcDb2dPolyline
 66
     1
 10
0.0
 20
0.0
 30
0.0
 70
   128
  0
VERTEX
  5
BB
330
BA
100
AcDbEntity
  8
siatka
100
AcDbVertex
100
AcDb2dVertex
 10
7566847.5
 20
5717950.0
 30
0.0
  0
VERTEX
  5
BC
330
BA
100
AcDbEntity
  8
siatka
100
AcDbVertex
100
AcDb2dVertex
 10
7566852.5
 20
5717950.0
 30
0.0
  0
SEQEND
  5
BD
330
0
100
AcDbEntity
  8
siatka
  0
POLYLINE
  5
BE
330
20
100
AcDbEntity
  8
siatka
  6
Continuous
 62
     7
370
    13
100
AcDb2dPolyline
 66
     1
 10
0.0
 20
0.0
 30
0.0
 70
   128
  0
VERTEX
  5
BF
330
BE
100
AcDbEntity
  8
siatka
100
AcDbVertex
100
AcDb2dVertex
 10
7566850.0
 20
5717947.5
 30
0.0
  0
VERTEX
  5
C0
330
BE
100
AcDbEntity
  8
siatka
100
AcDbVertex
100
AcDb2dVertex
 10
7566850.0
 20
5717952.499999999
 30
0.0
  0
SEQEND
  5
C1
330
0
100
AcDbEntity
  8
siatka
  0
POLYLINE
  5
C2
330
20
100
AcDbEntity
  8
siatka
  6
Continuous
 62
     7
370
    13
100
AcDb2dPolyline
 66
     1
 10
0.0
 20
0.0
 30
0.0
 70
   128
  0
VERTEX
  5
C3
330
C2
100
AcDbEntity
  8
siatka
100
AcDbVertex
100
AcDb2dVertex
 10
7566897.5
 20
5717950.0
 30
0.0
  0
VERTEX
  5
C4
330
C2
100
AcDbEntity
  8
siatka
100
AcDbVertex
100
AcDb2dVertex
 10
7566902.5
 20
5717950.0
 30
0.0
  0
SEQEND
  5
C5
330
0
100
AcDbEntity
  8
siatka
  0
POLYLINE
  5
C6
330
20
100
AcDbEntity
  8
siatka
  6
Continuous
 62
     7
370
    13
100
AcDb2dPolyline
 66
     1
 10
0.0
 20
0.0
 30
0.0
 70
   128
  0
VERTEX
  5
C7
330
C6
100
AcDbEntity
  8
siatka
100
AcDbVertex
100
AcDb2dVertex
 10
7566900.0
 20
5717947.5
 30
0.0
  0
VERTEX
  5
C8
330
C6
100
AcDbEntity
  8
siatka
100
AcDbVertex
100
AcDb2dVertex
 10
7566900.0
 20
5717952.499999999
 30
0.0
  0
SEQEND
  5
C9
330
0
100
AcDbEntity
  8
siatka
  0
POLYLINE
  5
CA
330
20
100
AcDbEntity
  8
siatka
  6
Continuous
 62
     7
370
    13
100
AcDb2dPolyline
 66
     1
 10
0.0
 20
0.0
 30
0.0
 70
   128
  0
VERTEX
  5
CB
330
CA
100
AcDbEntity
  8
siatka
100
AcDbVertex
100
AcDb2dVertex
 10
7566947.5
 20
5717950.0
 30
0.0
  0
VERTEX
  5
CC
330
CA
100
AcDbEntity
  8
siatka
100
AcDbVertex
100
AcDb2dVertex
 10
7566952.5
 20
5717950.0
 30
0.0
  0
SEQEND
  5
CD
330
0
100
AcDbEntity
  8
siatka
  0
POLYLINE
  5
CE
330
20
100
AcDbEntity
  8
siatka
  6
Continuous
 62
     7
370
    13
100
AcDb2dPolyline
 66
     1
 10
0.0
 20
0.0
 30
0.0
 70
   128
  0
VERTEX
  5
CF
330
CE
100
AcDbEntity
  8
siatka
100
AcDbVertex
100
AcDb2dVertex
 10
7566950.0
 20
5717947.5
 30
0.0
  0
VERTEX
  5
D0
330
CE
100
AcDbEntity
  8
siatka
100
AcDbVertex
100
AcDb2dVertex
 10
7566950.0
 20
5717952.499999999
 30
0.0
  0
SEQEND
  5
D1
330
0
100
AcDbEntity
  8
siatka
  0
POLYLINE
  5
D2
330
20
100
AcDbEntity
  8
siatka
  6
Continuous
 62
     7
370
    13
100
AcDb2dPolyline
 66
     1
 10
0.0
 20
0.0
 30
0.0
 70
   128
  0
VERTEX
  5
D3
330
D2
100
AcDbEntity
  8
siatka
100
AcDbVertex
100
AcDb2dVertex
 10
7566547.5
 20
5718000.0
 30
0.0
  0
VERTEX
  5
D4
330
D2
100
AcDbEntity
  8
siatka
100
AcDbVertex
100
AcDb2dVertex
 10
7566552.5
 20
5718000.0
 30
0.0
  0
SEQEND
  5
D5
330
0
100
AcDbEntity
  8
siatka
  0
POLYLINE
  5
D6
330
20
100
AcDbEntity
  8
siatka
  6
Continuous
 62
     7
370
    13
100
AcDb2dPolyline
 66
     1
 10
0.0
 20
0.0
 30
0.0
 70
   128
  0
VERTEX
  5
D7
330
D6
100
AcDbEntity
  8
siatka
100
AcDbVertex
100
AcDb2dVertex
 10
7566550.000000001
 20
5717997.5
 30
0.0
  0
VERTEX
  5
D8
330
D6
100
AcDbEntity
  8
siatka
100
AcDbVertex
100
AcDb2dVertex
 10
7566550.000000001
 20
5718002.499999999
 30
0.0
  0
SEQEND
  5
D9
330
0
100
AcDbEntity
  8
siatka
  0
POLYLINE
  5
DA
330
20
100
AcDbEntity
  8
siatka
  6
Continuous
 62
     7
370
    13
100
AcDb2dPolyline
 66
     1
 10
0.0
 20
0.0
 30
0.0
 70
   128
  0
VERTEX
  5
DB
330
DA
100
AcDbEntity
  8
siatka
100
AcDbVertex
100
AcDb2dVertex
 10
7566597.5
 20
5718000.0
 30
0.0
  0
VERTEX
  5
DC
330
DA
100
AcDbEntity
  8
siatka
100
AcDbVertex
100
AcDb2dVertex
 10
7566602.5
 20
5718000.0
 30
0.0
  0
SEQEND
  5
DD
330
0
100
AcDbEntity
  8
siatka
  0
POLYLINE
  5
DE
330
20
100
AcDbEntity
  8
siatka
  6
Continuous
 62
     7
370
    13
100
AcDb2dPolyline
 66
     1
 10
0.0
 20
0.0
 30
0.0
 70
   128
  0
VERTEX
  5
DF
330
DE
100
AcDbEntity
  8
siatka
100
AcDbVertex
100
AcDb2dVertex
 10
7566600.000000001
 20
5717997.5
 30
0.0
  0
VERTEX
  5
E0
330
DE
100
AcDbEntity
  8
siatka
100
AcDbVertex
100
AcDb2dVertex
 10
7566600.000000001
 20
5718002.499999999
 30
0.0
  0
SEQEND
  5
E1
330
0
100
AcDbEntity
  8
siatka
  0
POLYLINE
  5
E2
330
20
100
AcDbEntity
  8
siatka
  6
Continuous
 62
     7
370
    13
100
AcDb2dPolyline
 66
     1
 10
0.0
 20
0.0
 30
0.0
 70
   128
  0
VERTEX
  5
E3
330
E2
100
AcDbEntity
  8
siatka
100
AcDbVertex
100
AcDb2dVertex
 10
7566647.5
 20
5718000.0
 30
0.0
  0
VERTEX
  5
E4
330
E2
100
AcDbEntity
  8
siatka
100
AcDbVertex
100
AcDb2dVertex
 10
7566652.5
 20
5718000.0
 30
0.0
  0
SEQEND
  5
E5
330
0
100
AcDbEntity
  8
siatka
  0
POLYLINE
  5
E6
330
20
100
AcDbEntity
  8
siatka
  6
Continuous
 62
     7
370
    13
100
AcDb2dPolyline
 66
     1
 10
0.0
 20
0.0
 30
0.0
 70
   128
  0
VERTEX
  5
E7
330
E6
100
AcDbEntity
  8
siatka
100
AcDbVertex
100
AcDb2dVertex
 10
7566650.0
 20
5717997.5
 30
0.0
  0
VERTEX
  5
E8
330
E6
100
AcDbEntity
  8
siatka
100
AcDbVertex
100
AcDb2dVertex
 10
7566650.0
 20
5718002.499999999
 30
0.0
  0
SEQEND
  5
E9
330
0
100
AcDbEntity
  8
siatka
  0
POLYLINE
  5
EA
330
20
100
AcDbEntity
  8
siatka
  6
Continuous
 62
     7
370
    13
100
AcDb2dPolyline
 66
     1
 10
0.0
 20
0.0
 30
0.0
 70
   128
  0
VERTEX
  5
EB
330
EA
100
AcDbEntity
  8
siatka
100
AcDbVertex
100
AcDb2dVertex
 10
7566697.5
 20
5718000.0
 30
0.0
  0
VERTEX
  5
EC
330
EA
100
AcDbEntity
  8
siatka
100
AcDbVertex
100
AcDb2dVertex
 10
7566702.499999999
 20
5718000.0
 30
0.0
  0
SEQEND
  5
ED
330
0
100
AcDbEntity
  8
siatka
  0
POLYLINE
  5
EE
330
20
100
AcDbEntity
  8
siatka
  6
Continuous
 62
     7
370
    13
100
AcDb2dPolyline
 66
     1
 10
0.0
 20
0.0
 30
0.0
 70
   128
  0
VERTEX
  5
EF
330
EE
100
AcDbEntity
  8
siatka
100
AcDbVertex
100
AcDb2dVertex
 10
7566700.0
 20
5717997.5
 30
0.0
  0
VERTEX
  5
F0
330
EE
100
AcDbEntity
  8
siatka
100
AcDbVertex
100
AcDb2dVertex
 10
7566700.0
 20
5718002.499999999
 30
0.0
  0
SEQEND
  5
F1
330
0
100
AcDbEntity
  8
siatka
  0
POLYLINE
  5
F2
330
20
100
AcDbEntity
  8
siatka
  6
Continuous
 62
     7
370
    13
100
AcDb2dPolyline
 66
     1
 10
0.0
 20
0.0
 30
0.0
 70
   128
  0
VERTEX
  5
F3
330
F2
100
AcDbEntity
  8
siatka
100
AcDbVertex
100
AcDb2dVertex
 10
7566747.499999999
 20
5718000.0
 30
0.0
  0
VERTEX
  5
F4
330
F2
100
AcDbEntity
  8
siatka
100
AcDbVertex
100
AcDb2dVertex
 10
7566752.499999999
 20
5718000.0
 30
0.0
  0
SEQEND
  5
F5
330
0
100
AcDbEntity
  8
siatka
  0
POLYLINE
  5
F6
330
20
100
AcDbEntity
  8
siatka
  6
Continuous
 62
     7
370
    13
100
AcDb2dPolyline
 66
     1
 10
0.0
 20
0.0
 30
0.0
 70
   128
  0
VERTEX
  5
F7
330
F6
100
AcDbEntity
  8
siatka
100
AcDbVertex
100
AcDb2dVertex
 10
7566750.0
 20
5717997.5
 30
0.0
  0
VERTEX
  5
F8
330
F6
100
AcDbEntity
  8
siatka
100
AcDbVertex
100
AcDb2dVertex
 10
7566750.0
 20
5718002.499999999
 30
0.0
  0
SEQEND
  5
F9
330
0
100
AcDbEntity
  8
siatka
  0
POLYLINE
  5
FA
330
20
100
AcDbEntity
  8
siatka
  6
Continuous
 62
     7
370
    13
100
AcDb2dPolyline
 66
     1
 10
0.0
 20
0.0
 30
0.0
 70
   128
  0
VERTEX
  5
FB
330
FA
100
AcDbEntity
  8
siatka
100
AcDbVertex
100
AcDb2dVertex
 10
7566797.499999999
 20
5718000.0
 30
0.0
  0
VERTEX
  5
FC
330
FA
100
AcDbEntity
  8
siatka
100
AcDbVertex
100
AcDb2dVertex
 10
7566802.5
 20
5718000.0
 30
0.0
  0
SEQEND
  5
FD
330
0
100
AcDbEntity
  8
siatka
  0
POLYLINE
  5
FE
330
20
100
AcDbEntity
  8
siatka
  6
Continuous
 62
     7
370
    13
100
AcDb2dPolyline
 66
     1
 10
0.0
 20
0.0
 30
0.0
 70
   128
  0
VERTEX
  5
FF
330
FE
100
AcDbEntity
  8
siatka
100
AcDbVertex
100
AcDb2dVertex
 10
7566800.0
 20
5717997.5
 30
0.0
  0
VERTEX
  5
100
330
FE
100
AcDbEntity
  8
siatka
100
AcDbVertex
100
AcDb2dVertex
 10
7566800.0
 20
5718002.499999999
 30
0.0
  0
SEQEND
  5
101
330
0
100
AcDbEntity
  8
siatka
  0
POLYLINE
  5
102
330
20
100
AcDbEntity
  8
siatka
  6
Continuous
 62
     7
370
    13
100
AcDb2dPolyline
 66
     1
 10
0.0
 20
0.0
 30
0.0
 70
   128
  0
VERTEX
  5
103
330
102
100
AcDbEntity
  8
siatka
100
AcDbVertex
100
AcDb2dVertex
 10
7566847.5
 20
5718000.0
 30
0.0
  0
VERTEX
  5
104
330
102
100
AcDbEntity
  8
siatka
100
AcDbVertex
100
AcDb2dVertex
 10
7566852.5
 20
5718000.0
 30
0.0
  0
SEQEND
  5
105
330
0
100
AcDbEntity
  8
siatka
  0
POLYLINE
  5
106
330
20
100
AcDbEntity
  8
siatka
  6
Continuous
 62
     7
370
    13
100
AcDb2dPolyline
 66
     1
 10
0.0
 20
0.0
 30
0.0
 70
   128
  0
VERTEX
  5
107
330
106
100
AcDbEntity
  8
siatka
100
AcDbVertex
100
AcDb2dVertex
 10
7566850.0
 20
5717997.5
 30
0.0
  0
VERTEX
  5
108
330
106
100
AcDbEntity
  8
siatka
100
AcDbVertex
100
AcDb2dVertex
 10
7566850.0
 20
5718002.499999999
 30
0.0
  0
SEQEND
  5
109
330
0
100
AcDbEntity
  8
siatka
  0
POLYLINE
  5
10A
330
20
100
AcDbEntity
  8
siatka
  6
Continuous
 62
     7
370
    13
100
AcDb2dPolyline
 66
     1
 10
0.0
 20
0.0
 30
0.0
 70
   128
  0
VERTEX
  5
10B
330
10A
100
AcDbEntity
  8
siatka
100
AcDbVertex
100
AcDb2dVertex
 10
7566897.5
 20
5718000.0
 30
0.0
  0
VERTEX
  5
10C
330
10A
100
AcDbEntity
  8
siatka
100
AcDbVertex
100
AcDb2dVertex
 10
7566902.5
 20
5718000.0
 30
0.0
  0
SEQEND
  5
10D
330
0
100
AcDbEntity
  8
siatka
  0
POLYLINE
  5
10E
330
20
100
AcDbEntity
  8
siatka
  6
Continuous
 62
     7
370
    13
100
AcDb2dPolyline
 66
     1
 10
0.0
 20
0.0
 30
0.0
 70
   128
  0
VERTEX
  5
10F
330
10E
100
AcDbEntity
  8
siatka
100
AcDbVertex
100
AcDb2dVertex
 10
7566900.0
 20
5717997.5
 30
0.0
  0
VERTEX
  5
110
330
10E
100
AcDbEntity
  8
siatka
100
AcDbVertex
100
AcDb2dVertex
 10
7566900.0
 20
5718002.499999999
 30
0.0
  0
SEQEND
  5
111
330
0
100
AcDbEntity
  8
siatka
  0
POLYLINE
  5
112
330
20
100
AcDbEntity
  8
siatka
  6
Continuous
 62
     7
370
    13
100
AcDb2dPolyline
 66
     1
 10
0.0
 20
0.0
 30
0.0
 70
   128
  0
VERTEX
  5
113
330
112
100
AcDbEntity
  8
siatka
100
AcDbVertex
100
AcDb2dVertex
 10
7566947.5
 20
5718000.0
 30
0.0
  0
VERTEX
  5
114
330
112
100
AcDbEntity
  8
siatka
100
AcDbVertex
100
AcDb2dVertex
 10
7566952.5
 20
5718000.0
 30
0.0
  0
SEQEND
  5
115
330
0
100
AcDbEntity
  8
siatka
  0
POLYLINE
  5
116
330
20
100
AcDbEntity
  8
siatka
  6
Continuous
 62
     7
370
    13
100
AcDb2dPolyline
 66
     1
 10
0.0
 20
0.0
 30
0.0
 70
   128
  0
VERTEX
  5
117
330
116
100
AcDbEntity
  8
siatka
100
AcDbVertex
100
AcDb2dVertex
 10
7566950.0
 20
5717997.5
 30
0.0
  0
VERTEX
  5
118
330
116
100
AcDbEntity
  8
siatka
100
AcDbVertex
100
AcDb2dVertex
 10
7566950.0
 20
5718002.499999999
 30
0.0
  0
SEQEND
  5
119
330
0
100
AcDbEntity
  8
siatka
  0
POLYLINE
  5
11A
330
20
100
AcDbEntity
  8
siatka
  6
Continuous
 62
     7
370
    13
100
AcDb2dPolyline
 66
     1
 10
0.0
 20
0.0
 30
0.0
 70
   128
  0
VERTEX
  5
11B
330
11A
100
AcDbEntity
  8
siatka
100
AcDbVertex
100
AcDb2dVertex
 10
7566547.5
 20
5718050.0
 30
0.0
  0
VERTEX
  5
11C
330
11A
100
AcDbEntity
  8
siatka
100
AcDbVertex
100
AcDb2dVertex
 10
7566552.5
 20
5718050.0
 30
0.0
  0
SEQEND
  5
11D
330
0
100
AcDbEntity
  8
siatka
  0
POLYLINE
  5
11E
330
20
100
AcDbEntity
  8
siatka
  6
Continuous
 62
     7
370
    13
100
AcDb2dPolyline
 66
     1
 10
0.0
 20
0.0
 30
0.0
 70
   128
  0
VERTEX
  5
11F
330
11E
100
AcDbEntity
  8
siatka
100
AcDbVertex
100
AcDb2dVertex
 10
7566550.000000001
 20
5718047.499999999
 30
0.0
  0
VERTEX
  5
120
330
11E
100
AcDbEntity
  8
siatka
100
AcDbVertex
100
AcDb2dVertex
 10
7566550.000000001
 20
5718052.499999999
 30
0.0
  0
SEQEND
  5
121
330
0
100
AcDbEntity
  8
siatka
  0
POLYLINE
  5
122
330
20
100
AcDbEntity
  8
siatka
  6
Continuous
 62
     7
370
    13
100
AcDb2dPolyline
 66
     1
 10
0.0
 20
0.0
 30
0.0
 70
   128
  0
VERTEX
  5
123
330
122
100
AcDbEntity
  8
siatka
100
AcDbVertex
100
AcDb2dVertex
 10
7566597.5
 20
5718050.0
 30
0.0
  0
VERTEX
  5
124
330
122
100
AcDbEntity
  8
siatka
100
AcDbVertex
100
AcDb2dVertex
 10
7566602.5
 20
5718050.0
 30
0.0
  0
SEQEND
  5
125
330
0
100
AcDbEntity
  8
siatka
  0
POLYLINE
  5
126
330
20
100
AcDbEntity
  8
siatka
  6
Continuous
 62
     7
370
    13
100
AcDb2dPolyline
 66
     1
 10
0.0
 20
0.0
 30
0.0
 70
   128
  0
VERTEX
  5
127
330
126
100
AcDbEntity
  8
siatka
100
AcDbVertex
100
AcDb2dVertex
 10
7566600.000000001
 20
5718047.499999999
 30
0.0
  0
VERTEX
  5
128
330
126
100
AcDbEntity
  8
siatka
100
AcDbVertex
100
AcDb2dVertex
 10
7566600.000000001
 20
5718052.499999999
 30
0.0
  0
SEQEND
  5
129
330
0
100
AcDbEntity
  8
siatka
  0
POLYLINE
  5
12A
330
20
100
AcDbEntity
  8
siatka
  6
Continuous
 62
     7
370
    13
100
AcDb2dPolyline
 66
     1
 10
0.0
 20
0.0
 30
0.0
 70
   128
  0
VERTEX
  5
12B
330
12A
100
AcDbEntity
  8
siatka
100
AcDbVertex
100
AcDb2dVertex
 10
7566647.5
 20
5718050.0
 30
0.0
  0
VERTEX
  5
12C
330
12A
100
AcDbEntity
  8
siatka
100
AcDbVertex
100
AcDb2dVertex
 10
7566652.5
 20
5718050.0
 30
0.0
  0
SEQEND
  5
12D
330
0
100
AcDbEntity
  8
siatka
  0
POLYLINE
  5
12E
330
20
100
AcDbEntity
  8
siatka
  6
Continuous
 62
     7
370
    13
100
AcDb2dPolyline
 66
     1
 10
0.0
 20
0.0
 30
0.0
 70
   128
  0
VERTEX
  5
12F
330
12E
100
AcDbEntity
  8
siatka
100
AcDbVertex
100
AcDb2dVertex
 10
7566650.0
 20
5718047.499999999
 30
0.0
  0
VERTEX
  5
130
330
12E
100
AcDbEntity
  8
siatka
100
AcDbVertex
100
AcDb2dVertex
 10
7566650.0
 20
5718052.499999999
 30
0.0
  0
SEQEND
  5
131
330
0
100
AcDbEntity
  8
siatka
  0
POLYLINE
  5
132
330
20
100
AcDbEntity
  8
siatka
  6
Continuous
 62
     7
370
    13
100
AcDb2dPolyline
 66
     1
 10
0.0
 20
0.0
 30
0.0
 70
   128
  0
VERTEX
  5
133
330
132
100
AcDbEntity
  8
siatka
100
AcDbVertex
100
AcDb2dVertex
 10
7566697.5
 20
5718050.0
 30
0.0
  0
VERTEX
  5
134
330
132
100
AcDbEntity
  8
siatka
100
AcDbVertex
100
AcDb2dVertex
 10
7566702.499999999
 20
5718050.0
 30
0.0
  0
SEQEND
  5
135
330
0
100
AcDbEntity
  8
siatka
  0
POLYLINE
  5
136
330
20
100
AcDbEntity
  8
siatka
  6
Continuous
 62
     7
370
    13
100
AcDb2dPolyline
 66
     1
 10
0.0
 20
0.0
 30
0.0
 70
   128
  0
VERTEX
  5
137
330
136
100
AcDbEntity
  8
siatka
100
AcDbVertex
100
AcDb2dVertex
 10
7566700.0
 20
5718047.499999999
 30
0.0
  0
VERTEX
  5
138
330
136
100
AcDbEntity
  8
siatka
100
AcDbVertex
100
AcDb2dVertex
 10
7566700.0
 20
5718052.499999999
 30
0.0
  0
SEQEND
  5
139
330
0
100
AcDbEntity
  8
siatka
  0
POLYLINE
  5
13A
330
20
100
AcDbEntity
  8
siatka
  6
Continuous
 62
     7
370
    13
100
AcDb2dPolyline
 66
     1
 10
0.0
 20
0.0
 30
0.0
 70
   128
  0
VERTEX
  5
13B
330
13A
100
AcDbEntity
  8
siatka
100
AcDbVertex
100
AcDb2dVertex
 10
7566747.499999999
 20
5718050.0
 30
0.0
  0
VERTEX
  5
13C
330
13A
100
AcDbEntity
  8
siatka
100
AcDbVertex
100
AcDb2dVertex
 10
7566752.499999999
 20
5718050.0
 30
0.0
  0
SEQEND
  5
13D
330
0
100
AcDbEntity
  8
siatka
  0
POLYLINE
  5
13E
330
20
100
AcDbEntity
  8
siatka
  6
Continuous
 62
     7
370
    13
100
AcDb2dPolyline
 66
     1
 10
0.0
 20
0.0
 30
0.0
 70
   128
  0
VERTEX
  5
13F
330
13E
100
AcDbEntity
  8
siatka
100
AcDbVertex
100
AcDb2dVertex
 10
7566750.0
 20
5718047.499999999
 30
0.0
  0
VERTEX
  5
140
330
13E
100
AcDbEntity
  8
siatka
100
AcDbVertex
100
AcDb2dVertex
 10
7566750.0
 20
5718052.499999999
 30
0.0
  0
SEQEND
  5
141
330
0
100
AcDbEntity
  8
siatka
  0
POLYLINE
  5
142
330
20
100
AcDbEntity
  8
siatka
  6
Continuous
 62
     7
370
    13
100
AcDb2dPolyline
 66
     1
 10
0.0
 20
0.0
 30
0.0
 70
   128
  0
VERTEX
  5
143
330
142
100
AcDbEntity
  8
siatka
100
AcDbVertex
100
AcDb2dVertex
 10
7566797.499999999
 20
5718050.0
 30
0.0
  0
VERTEX
  5
144
330
142
100
AcDbEntity
  8
siatka
100
AcDbVertex
100
AcDb2dVertex
 10
7566802.5
 20
5718050.0
 30
0.0
  0
SEQEND
  5
145
330
0
100
AcDbEntity
  8
siatka
  0
POLYLINE
  5
146
330
20
100
AcDbEntity
  8
siatka
  6
Continuous
 62
     7
370
    13
100
AcDb2dPolyline
 66
     1
 10
0.0
 20
0.0
 30
0.0
 70
   128
  0
VERTEX
  5
147
330
146
100
AcDbEntity
  8
siatka
100
AcDbVertex
100
AcDb2dVertex
 10
7566800.0
 20
5718047.499999999
 30
0.0
  0
VERTEX
  5
148
330
146
100
AcDbEntity
  8
siatka
100
AcDbVertex
100
AcDb2dVertex
 10
7566800.0
 20
5718052.499999999
 30
0.0
  0
SEQEND
  5
149
330
0
100
AcDbEntity
  8
siatka
  0
POLYLINE
  5
14A
330
20
100
AcDbEntity
  8
siatka
  6
Continuous
 62
     7
370
    13
100
AcDb2dPolyline
 66
     1
 10
0.0
 20
0.0
 30
0.0
 70
   128
  0
VERTEX
  5
14B
330
14A
100
AcDbEntity
  8
siatka
100
AcDbVertex
100
AcDb2dVertex
 10
7566847.5
 20
5718050.0
 30
0.0
  0
VERTEX
  5
14C
330
14A
100
AcDbEntity
  8
siatka
100
AcDbVertex
100
AcDb2dVertex
 10
7566852.5
 20
5718050.0
 30
0.0
  0
SEQEND
  5
14D
330
0
100
AcDbEntity
  8
siatka
  0
POLYLINE
  5
14E
330
20
100
AcDbEntity
  8
siatka
  6
Continuous
 62
     7
370
    13
100
AcDb2dPolyline
 66
     1
 10
0.0
 20
0.0
 30
0.0
 70
   128
  0
VERTEX
  5
14F
330
14E
100
AcDbEntity
  8
siatka
100
AcDbVertex
100
AcDb2dVertex
 10
7566850.0
 20
5718047.499999999
 30
0.0
  0
VERTEX
  5
150
330
14E
100
AcDbEntity
  8
siatka
100
AcDbVertex
100
AcDb2dVertex
 10
7566850.0
 20
5718052.499999999
 30
0.0
  0
SEQEND
  5
151
330
0
100
AcDbEntity
  8
siatka
  0
POLYLINE
  5
152
330
20
100
AcDbEntity
  8
siatka
  6
Continuous
 62
     7
370
    13
100
AcDb2dPolyline
 66
     1
 10
0.0
 20
0.0
 30
0.0
 70
   128
  0
VERTEX
  5
153
330
152
100
AcDbEntity
  8
siatka
100
AcDbVertex
100
AcDb2dVertex
 10
7566897.5
 20
5718050.0
 30
0.0
  0
VERTEX
  5
154
330
152
100
AcDbEntity
  8
siatka
100
AcDbVertex
100
AcDb2dVertex
 10
7566902.5
 20
5718050.0
 30
0.0
  0
SEQEND
  5
155
330
0
100
AcDbEntity
  8
siatka
  0
POLYLINE
  5
156
330
20
100
AcDbEntity
  8
siatka
  6
Continuous
 62
     7
370
    13
100
AcDb2dPolyline
 66
     1
 10
0.0
 20
0.0
 30
0.0
 70
   128
  0
VERTEX
  5
157
330
156
100
AcDbEntity
  8
siatka
100
AcDbVertex
100
AcDb2dVertex
 10
7566900.0
 20
5718047.499999999
 30
0.0
  0
VERTEX
  5
158
330
156
100
AcDbEntity
  8
siatka
100
AcDbVertex
100
AcDb2dVertex
 10
7566900.0
 20
5718052.499999999
 30
0.0
  0
SEQEND
  5
159
330
0
100
AcDbEntity
  8
siatka
  0
POLYLINE
  5
15A
330
20
100
AcDbEntity
  8
siatka
  6
Continuous
 62
     7
370
    13
100
AcDb2dPolyline
 66
     1
 10
0.0
 20
0.0
 30
0.0
 70
   128
  0
VERTEX
  5
15B
330
15A
100
AcDbEntity
  8
siatka
100
AcDbVertex
100
AcDb2dVertex
 10
7566947.5
 20
5718050.0
 30
0.0
  0
VERTEX
  5
15C
330
15A
100
AcDbEntity
  8
siatka
100
AcDbVertex
100
AcDb2dVertex
 10
7566952.5
 20
5718050.0
 30
0.0
  0
SEQEND
  5
15D
330
0
100
AcDbEntity
  8
siatka
  0
POLYLINE
  5
15E
330
20
100
AcDbEntity
  8
siatka
  6
Continuous
 62
     7
370
    13
100
AcDb2dPolyline
 66
     1
 10
0.0
 20
0.0
 30
0.0
 70
   128
  0
VERTEX
  5
15F
330
15E
100
AcDbEntity
  8
siatka
100
AcDbVertex
100
AcDb2dVertex
 10
7566950.0
 20
5718047.499999999
 30
0.0
  0
VERTEX
  5
160
330
15E
100
AcDbEntity
  8
siatka
100
AcDbVertex
100
AcDb2dVertex
 10
7566950.0
 20
5718052.499999999
 30
0.0
  0
SEQEND
  5
161
330
0
100
AcDbEntity
  8
siatka
  0
POLYLINE
  5
162
330
20
100
AcDbEntity
  8
siatka
  6
Continuous
 62
     7
370
    13
100
AcDb2dPolyline
 66
     1
 10
0.0
 20
0.0
 30
0.0
 70
   128
  0
VERTEX
  5
163
330
162
100
AcDbEntity
  8
siatka
100
AcDbVertex
100
AcDb2dVertex
 10
7566547.5
 20
5718100.0
 30
0.0
  0
VERTEX
  5
164
330
162
100
AcDbEntity
  8
siatka
100
AcDbVertex
100
AcDb2dVertex
 10
7566552.5
 20
5718100.0
 30
0.0
  0
SEQEND
  5
165
330
0
100
AcDbEntity
  8
siatka
  0
POLYLINE
  5
166
330
20
100
AcDbEntity
  8
siatka
  6
Continuous
 62
     7
370
    13
100
AcDb2dPolyline
 66
     1
 10
0.0
 20
0.0
 30
0.0
 70
   128
  0
VERTEX
  5
167
330
166
100
AcDbEntity
  8
siatka
100
AcDbVertex
100
AcDb2dVertex
 10
7566550.000000001
 20
5718097.499999999
 30
0.0
  0
VERTEX
  5
168
330
166
100
AcDbEntity
  8
siatka
100
AcDbVertex
100
AcDb2dVertex
 10
7566550.000000001
 20
5718102.499999999
 30
0.0
  0
SEQEND
  5
169
330
0
100
AcDbEntity
  8
siatka
  0
POLYLINE
  5
16A
330
20
100
AcDbEntity
  8
siatka
  6
Continuous
 62
     7
370
    13
100
AcDb2dPolyline
 66
     1
 10
0.0
 20
0.0
 30
0.0
 70
   128
  0
VERTEX
  5
16B
330
16A
100
AcDbEntity
  8
siatka
100
AcDbVertex
100
AcDb2dVertex
 10
7566597.5
 20
5718100.0
 30
0.0
  0
VERTEX
  5
16C
330
16A
100
AcDbEntity
  8
siatka
100
AcDbVertex
100
AcDb2dVertex
 10
7566602.5
 20
5718100.0
 30
0.0
  0
SEQEND
  5
16D
330
0
100
AcDbEntity
  8
siatka
  0
POLYLINE
  5
16E
330
20
100
AcDbEntity
  8
siatka
  6
Continuous
 62
     7
370
    13
100
AcDb2dPolyline
 66
     1
 10
0.0
 20
0.0
 30
0.0
 70
   128
  0
VERTEX
  5
16F
330
16E
100
AcDbEntity
  8
siatka
100
AcDbVertex
100
AcDb2dVertex
 10
7566600.000000001
 20
5718097.499999999
 30
0.0
  0
VERTEX
  5
170
330
16E
100
AcDbEntity
  8
siatka
100
AcDbVertex
100
AcDb2dVertex
 10
7566600.000000001
 20
5718102.499999999
 30
0.0
  0
SEQEND
  5
171
330
0
100
AcDbEntity
  8
siatka
  0
POLYLINE
  5
172
330
20
100
AcDbEntity
  8
siatka
  6
Continuous
 62
     7
370
    13
100
AcDb2dPolyline
 66
     1
 10
0.0
 20
0.0
 30
0.0
 70
   128
  0
VERTEX
  5
173
330
172
100
AcDbEntity
  8
siatka
100
AcDbVertex
100
AcDb2dVertex
 10
7566647.5
 20
5718100.0
 30
0.0
  0
VERTEX
  5
174
330
172
100
AcDbEntity
  8
siatka
100
AcDbVertex
100
AcDb2dVertex
 10
7566652.5
 20
5718100.0
 30
0.0
  0
SEQEND
  5
175
330
0
100
AcDbEntity
  8
siatka
  0
POLYLINE
  5
176
330
20
100
AcDbEntity
  8
siatka
  6
Continuous
 62
     7
370
    13
100
AcDb2dPolyline
 66
     1
 10
0.0
 20
0.0
 30
0.0
 70
   128
  0
VERTEX
  5
177
330
176
100
AcDbEntity
  8
siatka
100
AcDbVertex
100
AcDb2dVertex
 10
7566650.0
 20
5718097.499999999
 30
0.0
  0
VERTEX
  5
178
330
176
100
AcDbEntity
  8
siatka
100
AcDbVertex
100
AcDb2dVertex
 10
7566650.0
 20
5718102.499999999
 30
0.0
  0
SEQEND
  5
179
330
0
100
AcDbEntity
  8
siatka
  0
POLYLINE
  5
17A
330
20
100
AcDbEntity
  8
siatka
  6
Continuous
 62
     7
370
    13
100
AcDb2dPolyline
 66
     1
 10
0.0
 20
0.0
 30
0.0
 70
   128
  0
VERTEX
  5
17B
330
17A
100
AcDbEntity
  8
siatka
100
AcDbVertex
100
AcDb2dVertex
 10
7566697.5
 20
5718100.0
 30
0.0
  0
VERTEX
  5
17C
330
17A
100
AcDbEntity
  8
siatka
100
AcDbVertex
100
AcDb2dVertex
 10
7566702.499999999
 20
5718100.0
 30
0.0
  0
SEQEND
  5
17D
330
0
100
AcDbEntity
  8
siatka
  0
POLYLINE
  5
17E
330
20
100
AcDbEntity
  8
siatka
  6
Continuous
 62
     7
370
    13
100
AcDb2dPolyline
 66
     1
 10
0.0
 20
0.0
 30
0.0
 70
   128
  0
VERTEX
  5
17F
330
17E
100
AcDbEntity
  8
siatka
100
AcDbVertex
100
AcDb2dVertex
 10
7566700.0
 20
5718097.499999999
 30
0.0
  0
VERTEX
  5
180
330
17E
100
AcDbEntity
  8
siatka
100
AcDbVertex
100
AcDb2dVertex
 10
7566700.0
 20
5718102.499999999
 30
0.0
  0
SEQEND
  5
181
330
0
100
AcDbEntity
  8
siatka
  0
POLYLINE
  5
182
330
20
100
AcDbEntity
  8
siatka
  6
Continuous
 62
     7
370
    13
100
AcDb2dPolyline
 66
     1
 10
0.0
 20
0.0
 30
0.0
 70
   128
  0
VERTEX
  5
183
330
182
100
AcDbEntity
  8
siatka
100
AcDbVertex
100
AcDb2dVertex
 10
7566747.499999999
 20
5718100.0
 30
0.0
  0
VERTEX
  5
184
330
182
100
AcDbEntity
  8
siatka
100
AcDbVertex
100
AcDb2dVertex
 10
7566752.499999999
 20
5718100.0
 30
0.0
  0
SEQEND
  5
185
330
0
100
AcDbEntity
  8
siatka
  0
POLYLINE
  5
186
330
20
100
AcDbEntity
  8
siatka
  6
Continuous
 62
     7
370
    13
100
AcDb2dPolyline
 66
     1
 10
0.0
 20
0.0
 30
0.0
 70
   128
  0
VERTEX
  5
187
330
186
100
AcDbEntity
  8
siatka
100
AcDbVertex
100
AcDb2dVertex
 10
7566750.0
 20
5718097.499999999
 30
0.0
  0
VERTEX
  5
188
330
186
100
AcDbEntity
  8
siatka
100
AcDbVertex
100
AcDb2dVertex
 10
7566750.0
 20
5718102.499999999
 30
0.0
  0
SEQEND
  5
189
330
0
100
AcDbEntity
  8
siatka
  0
POLYLINE
  5
18A
330
20
100
AcDbEntity
  8
siatka
  6
Continuous
 62
     7
370
    13
100
AcDb2dPolyline
 66
     1
 10
0.0
 20
0.0
 30
0.0
 70
   128
  0
VERTEX
  5
18B
330
18A
100
AcDbEntity
  8
siatka
100
AcDbVertex
100
AcDb2dVertex
 10
7566797.499999999
 20
5718100.0
 30
0.0
  0
VERTEX
  5
18C
330
18A
100
AcDbEntity
  8
siatka
100
AcDbVertex
100
AcDb2dVertex
 10
7566802.5
 20
5718100.0
 30
0.0
  0
SEQEND
  5
18D
330
0
100
AcDbEntity
  8
siatka
  0
POLYLINE
  5
18E
330
20
100
AcDbEntity
  8
siatka
  6
Continuous
 62
     7
370
    13
100
AcDb2dPolyline
 66
     1
 10
0.0
 20
0.0
 30
0.0
 70
   128
  0
VERTEX
  5
18F
330
18E
100
AcDbEntity
  8
siatka
100
AcDbVertex
100
AcDb2dVertex
 10
7566800.0
 20
5718097.499999999
 30
0.0
  0
VERTEX
  5
190
330
18E
100
AcDbEntity
  8
siatka
100
AcDbVertex
100
AcDb2dVertex
 10
7566800.0
 20
5718102.499999999
 30
0.0
  0
SEQEND
  5
191
330
0
100
AcDbEntity
  8
siatka
  0
POLYLINE
  5
192
330
20
100
AcDbEntity
  8
siatka
  6
Continuous
 62
     7
370
    13
100
AcDb2dPolyline
 66
     1
 10
0.0
 20
0.0
 30
0.0
 70
   128
  0
VERTEX
  5
193
330
192
100
AcDbEntity
  8
siatka
100
AcDbVertex
100
AcDb2dVertex
 10
7566847.5
 20
5718100.0
 30
0.0
  0
VERTEX
  5
194
330
192
100
AcDbEntity
  8
siatka
100
AcDbVertex
100
AcDb2dVertex
 10
7566852.5
 20
5718100.0
 30
0.0
  0
SEQEND
  5
195
330
0
100
AcDbEntity
  8
siatka
  0
POLYLINE
  5
196
330
20
100
AcDbEntity
  8
siatka
  6
Continuous
 62
     7
370
    13
100
AcDb2dPolyline
 66
     1
 10
0.0
 20
0.0
 30
0.0
 70
   128
  0
VERTEX
  5
197
330
196
100
AcDbEntity
  8
siatka
100
AcDbVertex
100
AcDb2dVertex
 10
7566850.0
 20
5718097.499999999
 30
0.0
  0
VERTEX
  5
198
330
196
100
AcDbEntity
  8
siatka
100
AcDbVertex
100
AcDb2dVertex
 10
7566850.0
 20
5718102.499999999
 30
0.0
  0
SEQEND
  5
199
330
0
100
AcDbEntity
  8
siatka
  0
POLYLINE
  5
19A
330
20
100
AcDbEntity
  8
siatka
  6
Continuous
 62
     7
370
    13
100
AcDb2dPolyline
 66
     1
 10
0.0
 20
0.0
 30
0.0
 70
   128
  0
VERTEX
  5
19B
330
19A
100
AcDbEntity
  8
siatka
100
AcDbVertex
100
AcDb2dVertex
 10
7566897.5
 20
5718100.0
 30
0.0
  0
VERTEX
  5
19C
330
19A
100
AcDbEntity
  8
siatka
100
AcDbVertex
100
AcDb2dVertex
 10
7566902.5
 20
5718100.0
 30
0.0
  0
SEQEND
  5
19D
330
0
100
AcDbEntity
  8
siatka
  0
POLYLINE
  5
19E
330
20
100
AcDbEntity
  8
siatka
  6
Continuous
 62
     7
370
    13
100
AcDb2dPolyline
 66
     1
 10
0.0
 20
0.0
 30
0.0
 70
   128
  0
VERTEX
  5
19F
330
19E
100
AcDbEntity
  8
siatka
100
AcDbVertex
100
AcDb2dVertex
 10
7566900.0
 20
5718097.499999999
 30
0.0
  0
VERTEX
  5
1A0
330
19E
100
AcDbEntity
  8
siatka
100
AcDbVertex
100
AcDb2dVertex
 10
7566900.0
 20
5718102.499999999
 30
0.0
  0
SEQEND
  5
1A1
330
0
100
AcDbEntity
  8
siatka
  0
POLYLINE
  5
1A2
330
20
100
AcDbEntity
  8
siatka
  6
Continuous
 62
     7
370
    13
100
AcDb2dPolyline
 66
     1
 10
0.0
 20
0.0
 30
0.0
 70
   128
  0
VERTEX
  5
1A3
330
1A2
100
AcDbEntity
  8
siatka
100
AcDbVertex
100
AcDb2dVertex
 10
7566947.5
 20
5718100.0
 30
0.0
  0
VERTEX
  5
1A4
330
1A2
100
AcDbEntity
  8
siatka
100
AcDbVertex
100
AcDb2dVertex
 10
7566952.5
 20
5718100.0
 30
0.0
  0
SEQEND
  5
1A5
330
0
100
AcDbEntity
  8
siatka
  0
POLYLINE
  5
1A6
330
20
100
AcDbEntity
  8
siatka
  6
Continuous
 62
     7
370
    13
100
AcDb2dPolyline
 66
     1
 10
0.0
 20
0.0
 30
0.0
 70
   128
  0
VERTEX
  5
1A7
330
1A6
100
AcDbEntity
  8
siatka
100
AcDbVertex
100
AcDb2dVertex
 10
7566950.0
 20
5718097.499999999
 30
0.0
  0
VERTEX
  5
1A8
330
1A6
100
AcDbEntity
  8
siatka
100
AcDbVertex
100
AcDb2dVertex
 10
7566950.0
 20
5718102.499999999
 30
0.0
  0
SEQEND
  5
1A9
330
0
100
AcDbEntity
  8
siatka
  0
POLYLINE
  5
1AA
330
20
100
AcDbEntity
  8
siatka
  6
Continuous
 62
     7
370
    13
100
AcDb2dPolyline
 66
     1
 10
0.0
 20
0.0
 30
0.0
 70
   128
  0
VERTEX
  5
1AB
330
1AA
100
AcDbEntity
  8
siatka
100
AcDbVertex
100
AcDb2dVertex
 10
7566547.5
 20
5718150.0
 30
0.0
  0
VERTEX
  5
1AC
330
1AA
100
AcDbEntity
  8
siatka
100
AcDbVertex
100
AcDb2dVertex
 10
7566552.5
 20
5718150.0
 30
0.0
  0
SEQEND
  5
1AD
330
0
100
AcDbEntity
  8
siatka
  0
POLYLINE
  5
1AE
330
20
100
AcDbEntity
  8
siatka
  6
Continuous
 62
     7
370
    13
100
AcDb2dPolyline
 66
     1
 10
0.0
 20
0.0
 30
0.0
 70
   128
  0
VERTEX
  5
1AF
330
1AE
100
AcDbEntity
  8
siatka
100
AcDbVertex
100
AcDb2dVertex
 10
7566550.000000001
 20
5718147.499999999
 30
0.0
  0
VERTEX
  5
1B0
330
1AE
100
AcDbEntity
  8
siatka
100
AcDbVertex
100
AcDb2dVertex
 10
7566550.000000001
 20
5718152.5
 30
0.0
  0
SEQEND
  5
1B1
330
0
100
AcDbEntity
  8
siatka
  0
POLYLINE
  5
1B2
330
20
100
AcDbEntity
  8
siatka
  6
Continuous
 62
     7
370
    13
100
AcDb2dPolyline
 66
     1
 10
0.0
 20
0.0
 30
0.0
 70
   128
  0
VERTEX
  5
1B3
330
1B2
100
AcDbEntity
  8
siatka
100
AcDbVertex
100
AcDb2dVertex
 10
7566597.5
 20
5718150.0
 30
0.0
  0
VERTEX
  5
1B4
330
1B2
100
AcDbEntity
  8
siatka
100
AcDbVertex
100
AcDb2dVertex
 10
7566602.5
 20
5718150.0
 30
0.0
  0
SEQEND
  5
1B5
330
0
100
AcDbEntity
  8
siatka
  0
POLYLINE
  5
1B6
330
20
100
AcDbEntity
  8
siatka
  6
Continuous
 62
     7
370
    13
100
AcDb2dPolyline
 66
     1
 10
0.0
 20
0.0
 30
0.0
 70
   128
  0
VERTEX
  5
1B7
330
1B6
100
AcDbEntity
  8
siatka
100
AcDbVertex
100
AcDb2dVertex
 10
7566600.000000001
 20
5718147.499999999
 30
0.0
  0
VERTEX
  5
1B8
330
1B6
100
AcDbEntity
  8
siatka
100
AcDbVertex
100
AcDb2dVertex
 10
7566600.000000001
 20
5718152.5
 30
0.0
  0
SEQEND
  5
1B9
330
0
100
AcDbEntity
  8
siatka
  0
POLYLINE
  5
1BA
330
20
100
AcDbEntity
  8
siatka
  6
Continuous
 62
     7
370
    13
100
AcDb2dPolyline
 66
     1
 10
0.0
 20
0.0
 30
0.0
 70
   128
  0
VERTEX
  5
1BB
330
1BA
100
AcDbEntity
  8
siatka
100
AcDbVertex
100
AcDb2dVertex
 10
7566647.5
 20
5718150.0
 30
0.0
  0
VERTEX
  5
1BC
330
1BA
100
AcDbEntity
  8
siatka
100
AcDbVertex
100
AcDb2dVertex
 10
7566652.5
 20
5718150.0
 30
0.0
  0
SEQEND
  5
1BD
330
0
100
AcDbEntity
  8
siatka
  0
POLYLINE
  5
1BE
330
20
100
AcDbEntity
  8
siatka
  6
Continuous
 62
     7
370
    13
100
AcDb2dPolyline
 66
     1
 10
0.0
 20
0.0
 30
0.0
 70
   128
  0
VERTEX
  5
1BF
330
1BE
100
AcDbEntity
  8
siatka
100
AcDbVertex
100
AcDb2dVertex
 10
7566650.0
 20
5718147.499999999
 30
0.0
  0
VERTEX
  5
1C0
330
1BE
100
AcDbEntity
  8
siatka
100
AcDbVertex
100
AcDb2dVertex
 10
7566650.0
 20
5718152.5
 30
0.0
  0
SEQEND
  5
1C1
330
0
100
AcDbEntity
  8
siatka
  0
POLYLINE
  5
1C2
330
20
100
AcDbEntity
  8
siatka
  6
Continuous
 62
     7
370
    13
100
AcDb2dPolyline
 66
     1
 10
0.0
 20
0.0
 30
0.0
 70
   128
  0
VERTEX
  5
1C3
330
1C2
100
AcDbEntity
  8
siatka
100
AcDbVertex
100
AcDb2dVertex
 10
7566697.5
 20
5718150.0
 30
0.0
  0
VERTEX
  5
1C4
330
1C2
100
AcDbEntity
  8
siatka
100
AcDbVertex
100
AcDb2dVertex
 10
7566702.499999999
 20
5718150.0
 30
0.0
  0
SEQEND
  5
1C5
330
0
100
AcDbEntity
  8
siatka
  0
POLYLINE
  5
1C6
330
20
100
AcDbEntity
  8
siatka
  6
Continuous
 62
     7
370
    13
100
AcDb2dPolyline
 66
     1
 10
0.0
 20
0.0
 30
0.0
 70
   128
  0
VERTEX
  5
1C7
330
1C6
100
AcDbEntity
  8
siatka
100
AcDbVertex
100
AcDb2dVertex
 10
7566700.0
 20
5718147.499999999
 30
0.0
  0
VERTEX
  5
1C8
330
1C6
100
AcDbEntity
  8
siatka
100
AcDbVertex
100
AcDb2dVertex
 10
7566700.0
 20
5718152.5
 30
0.0
  0
SEQEND
  5
1C9
330
0
100
AcDbEntity
  8
siatka
  0
POLYLINE
  5
1CA
330
20
100
AcDbEntity
  8
siatka
  6
Continuous
 62
     7
370
    13
100
AcDb2dPolyline
 66
     1
 10
0.0
 20
0.0
 30
0.0
 70
   128
  0
VERTEX
  5
1CB
330
1CA
100
AcDbEntity
  8
siatka
100
AcDbVertex
100
AcDb2dVertex
 10
7566747.499999999
 20
5718150.0
 30
0.0
  0
VERTEX
  5
1CC
330
1CA
100
AcDbEntity
  8
siatka
100
AcDbVertex
100
AcDb2dVertex
 10
7566752.499999999
 20
5718150.0
 30
0.0
  0
SEQEND
  5
1CD
330
0
100
AcDbEntity
  8
siatka
  0
POLYLINE
  5
1CE
330
20
100
AcDbEntity
  8
siatka
  6
Continuous
 62
     7
370
    13
100
AcDb2dPolyline
 66
     1
 10
0.0
 20
0.0
 30
0.0
 70
   128
  0
VERTEX
  5
1CF
330
1CE
100
AcDbEntity
  8
siatka
100
AcDbVertex
100
AcDb2dVertex
 10
7566750.0
 20
5718147.499999999
 30
0.0
  0
VERTEX
  5
1D0
330
1CE
100
AcDbEntity
  8
siatka
100
AcDbVertex
100
AcDb2dVertex
 10
7566750.0
 20
5718152.5
 30
0.0
  0
SEQEND
  5
1D1
330
0
100
AcDbEntity
  8
siatka
  0
POLYLINE
  5
1D2
330
20
100
AcDbEntity
  8
siatka
  6
Continuous
 62
     7
370
    13
100
AcDb2dPolyline
 66
     1
 10
0.0
 20
0.0
 30
0.0
 70
   128
  0
VERTEX
  5
1D3
330
1D2
100
AcDbEntity
  8
siatka
100
AcDbVertex
100
AcDb2dVertex
 10
7566797.499999999
 20
5718150.0
 30
0.0
  0
VERTEX
  5
1D4
330
1D2
100
AcDbEntity
  8
siatka
100
AcDbVertex
100
AcDb2dVertex
 10
7566802.5
 20
5718150.0
 30
0.0
  0
SEQEND
  5
1D5
330
0
100
AcDbEntity
  8
siatka
  0
POLYLINE
  5
1D6
330
20
100
AcDbEntity
  8
siatka
  6
Continuous
 62
     7
370
    13
100
AcDb2dPolyline
 66
     1
 10
0.0
 20
0.0
 30
0.0
 70
   128
  0
VERTEX
  5
1D7
330
1D6
100
AcDbEntity
  8
siatka
100
AcDbVertex
100
AcDb2dVertex
 10
7566800.0
 20
5718147.499999999
 30
0.0
  0
VERTEX
  5
1D8
330
1D6
100
AcDbEntity
  8
siatka
100
AcDbVertex
100
AcDb2dVertex
 10
7566800.0
 20
5718152.5
 30
0.0
  0
SEQEND
  5
1D9
330
0
100
AcDbEntity
  8
siatka
  0
POLYLINE
  5
1DA
330
20
100
AcDbEntity
  8
siatka
  6
Continuous
 62
     7
370
    13
100
AcDb2dPolyline
 66
     1
 10
0.0
 20
0.0
 30
0.0
 70
   128
  0
VERTEX
  5
1DB
330
1DA
100
AcDbEntity
  8
siatka
100
AcDbVertex
100
AcDb2dVertex
 10
7566847.5
 20
5718150.0
 30
0.0
  0
VERTEX
  5
1DC
330
1DA
100
AcDbEntity
  8
siatka
100
AcDbVertex
100
AcDb2dVertex
 10
7566852.5
 20
5718150.0
 30
0.0
  0
SEQEND
  5
1DD
330
0
100
AcDbEntity
  8
siatka
  0
POLYLINE
  5
1DE
330
20
100
AcDbEntity
  8
siatka
  6
Continuous
 62
     7
370
    13
100
AcDb2dPolyline
 66
     1
 10
0.0
 20
0.0
 30
0.0
 70
   128
  0
VERTEX
  5
1DF
330
1DE
100
AcDbEntity
  8
siatka
100
AcDbVertex
100
AcDb2dVertex
 10
7566850.0
 20
5718147.499999999
 30
0.0
  0
VERTEX
  5
1E0
330
1DE
100
AcDbEntity
  8
siatka
100
AcDbVertex
100
AcDb2dVertex
 10
7566850.0
 20
5718152.5
 30
0.0
  0
SEQEND
  5
1E1
330
0
100
AcDbEntity
  8
siatka
  0
POLYLINE
  5
1E2
330
20
100
AcDbEntity
  8
siatka
  6
Continuous
 62
     7
370
    13
100
AcDb2dPolyline
 66
     1
 10
0.0
 20
0.0
 30
0.0
 70
   128
  0
VERTEX
  5
1E3
330
1E2
100
AcDbEntity
  8
siatka
100
AcDbVertex
100
AcDb2dVertex
 10
7566897.5
 20
5718150.0
 30
0.0
  0
VERTEX
  5
1E4
330
1E2
100
AcDbEntity
  8
siatka
100
AcDbVertex
100
AcDb2dVertex
 10
7566902.5
 20
5718150.0
 30
0.0
  0
SEQEND
  5
1E5
330
0
100
AcDbEntity
  8
siatka
  0
POLYLINE
  5
1E6
330
20
100
AcDbEntity
  8
siatka
  6
Continuous
 62
     7
370
    13
100
AcDb2dPolyline
 66
     1
 10
0.0
 20
0.0
 30
0.0
 70
   128
  0
VERTEX
  5
1E7
330
1E6
100
AcDbEntity
  8
siatka
100
AcDbVertex
100
AcDb2dVertex
 10
7566900.0
 20
5718147.499999999
 30
0.0
  0
VERTEX
  5
1E8
330
1E6
100
AcDbEntity
  8
siatka
100
AcDbVertex
100
AcDb2dVertex
 10
7566900.0
 20
5718152.5
 30
0.0
  0
SEQEND
  5
1E9
330
0
100
AcDbEntity
  8
siatka
  0
POLYLINE
  5
1EA
330
20
100
AcDbEntity
  8
siatka
  6
Continuous
 62
     7
370
    13
100
AcDb2dPolyline
 66
     1
 10
0.0
 20
0.0
 30
0.0
 70
   128
  0
VERTEX
  5
1EB
330
1EA
100
AcDbEntity
  8
siatka
100
AcDbVertex
100
AcDb2dVertex
 10
7566947.5
 20
5718150.0
 30
0.0
  0
VERTEX
  5
1EC
330
1EA
100
AcDbEntity
  8
siatka
100
AcDbVertex
100
AcDb2dVertex
 10
7566952.5
 20
5718150.0
 30
0.0
  0
SEQEND
  5
1ED
330
0
100
AcDbEntity
  8
siatka
  0
POLYLINE
  5
1EE
330
20
100
AcDbEntity
  8
siatka
  6
Continuous
 62
     7
370
    13
100
AcDb2dPolyline
 66
     1
 10
0.0
 20
0.0
 30
0.0
 70
   128
  0
VERTEX
  5
1EF
330
1EE
100
AcDbEntity
  8
siatka
100
AcDbVertex
100
AcDb2dVertex
 10
7566950.0
 20
5718147.499999999
 30
0.0
  0
VERTEX
  5
1F0
330
1EE
100
AcDbEntity
  8
siatka
100
AcDbVertex
100
AcDb2dVertex
 10
7566950.0
 20
5718152.5
 30
0.0
  0
SEQEND
  5
1F1
330
0
100
AcDbEntity
  8
siatka
  0
POLYLINE
  5
1F2
330
20
100
AcDbEntity
  8
siatka
  6
Continuous
 62
     7
370
    13
100
AcDb2dPolyline
 66
     1
 10
0.0
 20
0.0
 30
0.0
 70
   128
  0
VERTEX
  5
1F3
330
1F2
100
AcDbEntity
  8
siatka
100
AcDbVertex
100
AcDb2dVertex
 10
7566547.5
 20
5718200.0
 30
0.0
  0
VERTEX
  5
1F4
330
1F2
100
AcDbEntity
  8
siatka
100
AcDbVertex
100
AcDb2dVertex
 10
7566552.5
 20
5718200.0
 30
0.0
  0
SEQEND
  5
1F5
330
0
100
AcDbEntity
  8
siatka
  0
POLYLINE
  5
1F6
330
20
100
AcDbEntity
  8
siatka
  6
Continuous
 62
     7
370
    13
100
AcDb2dPolyline
 66
     1
 10
0.0
 20
0.0
 30
0.0
 70
   128
  0
VERTEX
  5
1F7
330
1F6
100
AcDbEntity
  8
siatka
100
AcDbVertex
100
AcDb2dVertex
 10
7566550.000000001
 20
5718197.5
 30
0.0
  0
VERTEX
  5
1F8
330
1F6
100
AcDbEntity
  8
siatka
100
AcDbVertex
100
AcDb2dVertex
 10
7566550.000000001
 20
5718202.5
 30
0.0
  0
SEQEND
  5
1F9
330
0
100
AcDbEntity
  8
siatka
  0
POLYLINE
  5
1FA
330
20
100
AcDbEntity
  8
siatka
  6
Continuous
 62
     7
370
    13
100
AcDb2dPolyline
 66
     1
 10
0.0
 20
0.0
 30
0.0
 70
   128
  0
VERTEX
  5
1FB
330
1FA
100
AcDbEntity
  8
siatka
100
AcDbVertex
100
AcDb2dVertex
 10
7566597.5
 20
5718200.0
 30
0.0
  0
VERTEX
  5
1FC
330
1FA
100
AcDbEntity
  8
siatka
100
AcDbVertex
100
AcDb2dVertex
 10
7566602.5
 20
5718200.0
 30
0.0
  0
SEQEND
  5
1FD
330
0
100
AcDbEntity
  8
siatka
  0
POLYLINE
  5
1FE
330
20
100
AcDbEntity
  8
siatka
  6
Continuous
 62
     7
370
    13
100
AcDb2dPolyline
 66
     1
 10
0.0
 20
0.0
 30
0.0
 70
   128
  0
VERTEX
  5
1FF
330
1FE
100
AcDbEntity
  8
siatka
100
AcDbVertex
100
AcDb2dVertex
 10
7566600.000000001
 20
5718197.5
 30
0.0
  0
VERTEX
  5
200
330
1FE
100
AcDbEntity
  8
siatka
100
AcDbVertex
100
AcDb2dVertex
 10
7566600.000000001
 20
5718202.5
 30
0.0
  0
SEQEND
  5
201
330
0
100
AcDbEntity
  8
siatka
  0
POLYLINE
  5
202
330
20
100
AcDbEntity
  8
siatka
  6
Continuous
 62
     7
370
    13
100
AcDb2dPolyline
 66
     1
 10
0.0
 20
0.0
 30
0.0
 70
   128
  0
VERTEX
  5
203
330
202
100
AcDbEntity
  8
siatka
100
AcDbVertex
100
AcDb2dVertex
 10
7566647.5
 20
5718200.0
 30
0.0
  0
VERTEX
  5
204
330
202
100
AcDbEntity
  8
siatka
100
AcDbVertex
100
AcDb2dVertex
 10
7566652.5
 20
5718200.0
 30
0.0
  0
SEQEND
  5
205
330
0
100
AcDbEntity
  8
siatka
  0
POLYLINE
  5
206
330
20
100
AcDbEntity
  8
siatka
  6
Continuous
 62
     7
370
    13
100
AcDb2dPolyline
 66
     1
 10
0.0
 20
0.0
 30
0.0
 70
   128
  0
VERTEX
  5
207
330
206
100
AcDbEntity
  8
siatka
100
AcDbVertex
100
AcDb2dVertex
 10
7566650.0
 20
5718197.5
 30
0.0
  0
VERTEX
  5
208
330
206
100
AcDbEntity
  8
siatka
100
AcDbVertex
100
AcDb2dVertex
 10
7566650.0
 20
5718202.5
 30
0.0
  0
SEQEND
  5
209
330
0
100
AcDbEntity
  8
siatka
  0
POLYLINE
  5
20A
330
20
100
AcDbEntity
  8
siatka
  6
Continuous
 62
     7
370
    13
100
AcDb2dPolyline
 66
     1
 10
0.0
 20
0.0
 30
0.0
 70
   128
  0
VERTEX
  5
20B
330
20A
100
AcDbEntity
  8
siatka
100
AcDbVertex
100
AcDb2dVertex
 10
7566697.5
 20
5718200.0
 30
0.0
  0
VERTEX
  5
20C
330
20A
100
AcDbEntity
  8
siatka
100
AcDbVertex
100
AcDb2dVertex
 10
7566702.499999999
 20
5718200.0
 30
0.0
  0
SEQEND
  5
20D
330
0
100
AcDbEntity
  8
siatka
  0
POLYLINE
  5
20E
330
20
100
AcDbEntity
  8
siatka
  6
Continuous
 62
     7
370
    13
100
AcDb2dPolyline
 66
     1
 10
0.0
 20
0.0
 30
0.0
 70
   128
  0
VERTEX
  5
20F
330
20E
100
AcDbEntity
  8
siatka
100
AcDbVertex
100
AcDb2dVertex
 10
7566700.0
 20
5718197.5
 30
0.0
  0
VERTEX
  5
210
330
20E
100
AcDbEntity
  8
siatka
100
AcDbVertex
100
AcDb2dVertex
 10
7566700.0
 20
5718202.5
 30
0.0
  0
SEQEND
  5
211
330
0
100
AcDbEntity
  8
siatka
  0
POLYLINE
  5
212
330
20
100
AcDbEntity
  8
siatka
  6
Continuous
 62
     7
370
    13
100
AcDb2dPolyline
 66
     1
 10
0.0
 20
0.0
 30
0.0
 70
   128
  0
VERTEX
  5
213
330
212
100
AcDbEntity
  8
siatka
100
AcDbVertex
100
AcDb2dVertex
 10
7566747.499999999
 20
5718200.0
 30
0.0
  0
VERTEX
  5
214
330
212
100
AcDbEntity
  8
siatka
100
AcDbVertex
100
AcDb2dVertex
 10
7566752.499999999
 20
5718200.0
 30
0.0
  0
SEQEND
  5
215
330
0
100
AcDbEntity
  8
siatka
  0
POLYLINE
  5
216
330
20
100
AcDbEntity
  8
siatka
  6
Continuous
 62
     7
370
    13
100
AcDb2dPolyline
 66
     1
 10
0.0
 20
0.0
 30
0.0
 70
   128
  0
VERTEX
  5
217
330
216
100
AcDbEntity
  8
siatka
100
AcDbVertex
100
AcDb2dVertex
 10
7566750.0
 20
5718197.5
 30
0.0
  0
VERTEX
  5
218
330
216
100
AcDbEntity
  8
siatka
100
AcDbVertex
100
AcDb2dVertex
 10
7566750.0
 20
5718202.5
 30
0.0
  0
SEQEND
  5
219
330
0
100
AcDbEntity
  8
siatka
  0
POLYLINE
  5
21A
330
20
100
AcDbEntity
  8
siatka
  6
Continuous
 62
     7
370
    13
100
AcDb2dPolyline
 66
     1
 10
0.0
 20
0.0
 30
0.0
 70
   128
  0
VERTEX
  5
21B
330
21A
100
AcDbEntity
  8
siatka
100
AcDbVertex
100
AcDb2dVertex
 10
7566797.499999999
 20
5718200.0
 30
0.0
  0
VERTEX
  5
21C
330
21A
100
AcDbEntity
  8
siatka
100
AcDbVertex
100
AcDb2dVertex
 10
7566802.5
 20
5718200.0
 30
0.0
  0
SEQEND
  5
21D
330
0
100
AcDbEntity
  8
siatka
  0
POLYLINE
  5
21E
330
20
100
AcDbEntity
  8
siatka
  6
Continuous
 62
     7
370
    13
100
AcDb2dPolyline
 66
     1
 10
0.0
 20
0.0
 30
0.0
 70
   128
  0
VERTEX
  5
21F
330
21E
100
AcDbEntity
  8
siatka
100
AcDbVertex
100
AcDb2dVertex
 10
7566800.0
 20
5718197.5
 30
0.0
  0
VERTEX
  5
220
330
21E
100
AcDbEntity
  8
siatka
100
AcDbVertex
100
AcDb2dVertex
 10
7566800.0
 20
5718202.5
 30
0.0
  0
SEQEND
  5
221
330
0
100
AcDbEntity
  8
siatka
  0
POLYLINE
  5
222
330
20
100
AcDbEntity
  8
siatka
  6
Continuous
 62
     7
370
    13
100
AcDb2dPolyline
 66
     1
 10
0.0
 20
0.0
 30
0.0
 70
   128
  0
VERTEX
  5
223
330
222
100
AcDbEntity
  8
siatka
100
AcDbVertex
100
AcDb2dVertex
 10
7566847.5
 20
5718200.0
 30
0.0
  0
VERTEX
  5
224
330
222
100
AcDbEntity
  8
siatka
100
AcDbVertex
100
AcDb2dVertex
 10
7566852.5
 20
5718200.0
 30
0.0
  0
SEQEND
  5
225
330
0
100
AcDbEntity
  8
siatka
  0
POLYLINE
  5
226
330
20
100
AcDbEntity
  8
siatka
  6
Continuous
 62
     7
370
    13
100
AcDb2dPolyline
 66
     1
 10
0.0
 20
0.0
 30
0.0
 70
   128
  0
VERTEX
  5
227
330
226
100
AcDbEntity
  8
siatka
100
AcDbVertex
100
AcDb2dVertex
 10
7566850.0
 20
5718197.5
 30
0.0
  0
VERTEX
  5
228
330
226
100
AcDbEntity
  8
siatka
100
AcDbVertex
100
AcDb2dVertex
 10
7566850.0
 20
5718202.5
 30
0.0
  0
SEQEND
  5
229
330
0
100
AcDbEntity
  8
siatka
  0
POLYLINE
  5
22A
330
20
100
AcDbEntity
  8
siatka
  6
Continuous
 62
     7
370
    13
100
AcDb2dPolyline
 66
     1
 10
0.0
 20
0.0
 30
0.0
 70
   128
  0
VERTEX
  5
22B
330
22A
100
AcDbEntity
  8
siatka
100
AcDbVertex
100
AcDb2dVertex
 10
7566897.5
 20
5718200.0
 30
0.0
  0
VERTEX
  5
22C
330
22A
100
AcDbEntity
  8
siatka
100
AcDbVertex
100
AcDb2dVertex
 10
7566902.5
 20
5718200.0
 30
0.0
  0
SEQEND
  5
22D
330
0
100
AcDbEntity
  8
siatka
  0
POLYLINE
  5
22E
330
20
100
AcDbEntity
  8
siatka
  6
Continuous
 62
     7
370
    13
100
AcDb2dPolyline
 66
     1
 10
0.0
 20
0.0
 30
0.0
 70
   128
  0
VERTEX
  5
22F
330
22E
100
AcDbEntity
  8
siatka
100
AcDbVertex
100
AcDb2dVertex
 10
7566900.0
 20
5718197.5
 30
0.0
  0
VERTEX
  5
230
330
22E
100
AcDbEntity
  8
siatka
100
AcDbVertex
100
AcDb2dVertex
 10
7566900.0
 20
5718202.5
 30
0.0
  0
SEQEND
  5
231
330
0
100
AcDbEntity
  8
siatka
  0
POLYLINE
  5
232
330
20
100
AcDbEntity
  8
siatka
  6
Continuous
 62
     7
370
    13
100
AcDb2dPolyline
 66
     1
 10
0.0
 20
0.0
 30
0.0
 70
   128
  0
VERTEX
  5
233
330
232
100
AcDbEntity
  8
siatka
100
AcDbVertex
100
AcDb2dVertex
 10
7566947.5
 20
5718200.0
 30
0.0
  0
VERTEX
  5
234
330
232
100
AcDbEntity
  8
siatka
100
AcDbVertex
100
AcDb2dVertex
 10
7566952.5
 20
5718200.0
 30
0.0
  0
SEQEND
  5
235
330
0
100
AcDbEntity
  8
siatka
  0
POLYLINE
  5
236
330
20
100
AcDbEntity
  8
siatka
  6
Continuous
 62
     7
370
    13
100
AcDb2dPolyline
 66
     1
 10
0.0
 20
0.0
 30
0.0
 70
   128
  0
VERTEX
  5
237
330
236
100
AcDbEntity
  8
siatka
100
AcDbVertex
100
AcDb2dVertex
 10
7566950.0
 20
5718197.5
 30
0.0
  0
VERTEX
  5
238
330
236
100
AcDbEntity
  8
siatka
100
AcDbVertex
100
AcDb2dVertex
 10
7566950.0
 20
5718202.5
 30
0.0
  0
SEQEND
  5
239
330
0
100
AcDbEntity
  8
siatka
  0
POLYLINE
  5
23A
330
20
100
AcDbEntity
  8
siatka
  6
Continuous
 62
     7
370
    13
100
AcDb2dPolyline
 66
     1
 10
0.0
 20
0.0
 30
0.0
 70
   128
  0
VERTEX
  5
23B
330
23A
100
AcDbEntity
  8
siatka
100
AcDbVertex
100
AcDb2dVertex
 10
7566547.5
 20
5718250.0
 30
0.0
  0
VERTEX
  5
23C
330
23A
100
AcDbEntity
  8
siatka
100
AcDbVertex
100
AcDb2dVertex
 10
7566552.5
 20
5718250.0
 30
0.0
  0
SEQEND
  5
23D
330
0
100
AcDbEntity
  8
siatka
  0
POLYLINE
  5
23E
330
20
100
AcDbEntity
  8
siatka
  6
Continuous
 62
     7
370
    13
100
AcDb2dPolyline
 66
     1
 10
0.0
 20
0.0
 30
0.0
 70
   128
  0
VERTEX
  5
23F
330
23E
100
AcDbEntity
  8
siatka
100
AcDbVertex
100
AcDb2dVertex
 10
7566550.000000001
 20
5718247.5
 30
0.0
  0
VERTEX
  5
240
330
23E
100
AcDbEntity
  8
siatka
100
AcDbVertex
100
AcDb2dVertex
 10
7566550.000000001
 20
5718252.5
 30
0.0
  0
SEQEND
  5
241
330
0
100
AcDbEntity
  8
siatka
  0
POLYLINE
  5
242
330
20
100
AcDbEntity
  8
siatka
  6
Continuous
 62
     7
370
    13
100
AcDb2dPolyline
 66
     1
 10
0.0
 20
0.0
 30
0.0
 70
   128
  0
VERTEX
  5
243
330
242
100
AcDbEntity
  8
siatka
100
AcDbVertex
100
AcDb2dVertex
 10
7566597.5
 20
5718250.0
 30
0.0
  0
VERTEX
  5
244
330
242
100
AcDbEntity
  8
siatka
100
AcDbVertex
100
AcDb2dVertex
 10
7566602.5
 20
5718250.0
 30
0.0
  0
SEQEND
  5
245
330
0
100
AcDbEntity
  8
siatka
  0
POLYLINE
  5
246
330
20
100
AcDbEntity
  8
siatka
  6
Continuous
 62
     7
370
    13
100
AcDb2dPolyline
 66
     1
 10
0.0
 20
0.0
 30
0.0
 70
   128
  0
VERTEX
  5
247
330
246
100
AcDbEntity
  8
siatka
100
AcDbVertex
100
AcDb2dVertex
 10
7566600.000000001
 20
5718247.5
 30
0.0
  0
VERTEX
  5
248
330
246
100
AcDbEntity
  8
siatka
100
AcDbVertex
100
AcDb2dVertex
 10
7566600.000000001
 20
5718252.5
 30
0.0
  0
SEQEND
  5
249
330
0
100
AcDbEntity
  8
siatka
  0
POLYLINE
  5
24A
330
20
100
AcDbEntity
  8
siatka
  6
Continuous
 62
     7
370
    13
100
AcDb2dPolyline
 66
     1
 10
0.0
 20
0.0
 30
0.0
 70
   128
  0
VERTEX
  5
24B
330
24A
100
AcDbEntity
  8
siatka
100
AcDbVertex
100
AcDb2dVertex
 10
7566647.5
 20
5718250.0
 30
0.0
  0
VERTEX
  5
24C
330
24A
100
AcDbEntity
  8
siatka
100
AcDbVertex
100
AcDb2dVertex
 10
7566652.5
 20
5718250.0
 30
0.0
  0
SEQEND
  5
24D
330
0
100
AcDbEntity
  8
siatka
  0
POLYLINE
  5
24E
330
20
100
AcDbEntity
  8
siatka
  6
Continuous
 62
     7
370
    13
100
AcDb2dPolyline
 66
     1
 10
0.0
 20
0.0
 30
0.0
 70
   128
  0
VERTEX
  5
24F
330
24E
100
AcDbEntity
  8
siatka
100
AcDbVertex
100
AcDb2dVertex
 10
7566650.0
 20
5718247.5
 30
0.0
  0
VERTEX
  5
250
330
24E
100
AcDbEntity
  8
siatka
100
AcDbVertex
100
AcDb2dVertex
 10
7566650.0
 20
5718252.5
 30
0.0
  0
SEQEND
  5
251
330
0
100
AcDbEntity
  8
siatka
  0
POLYLINE
  5
252
330
20
100
AcDbEntity
  8
siatka
  6
Continuous
 62
     7
370
    13
100
AcDb2dPolyline
 66
     1
 10
0.0
 20
0.0
 30
0.0
 70
   128
  0
VERTEX
  5
253
330
252
100
AcDbEntity
  8
siatka
100
AcDbVertex
100
AcDb2dVertex
 10
7566697.5
 20
5718250.0
 30
0.0
  0
VERTEX
  5
254
330
252
100
AcDbEntity
  8
siatka
100
AcDbVertex
100
AcDb2dVertex
 10
7566702.499999999
 20
5718250.0
 30
0.0
  0
SEQEND
  5
255
330
0
100
AcDbEntity
  8
siatka
  0
POLYLINE
  5
256
330
20
100
AcDbEntity
  8
siatka
  6
Continuous
 62
     7
370
    13
100
AcDb2dPolyline
 66
     1
 10
0.0
 20
0.0
 30
0.0
 70
   128
  0
VERTEX
  5
257
330
256
100
AcDbEntity
  8
siatka
100
AcDbVertex
100
AcDb2dVertex
 10
7566700.0
 20
5718247.5
 30
0.0
  0
VERTEX
  5
258
330
256
100
AcDbEntity
  8
siatka
100
AcDbVertex
100
AcDb2dVertex
 10
7566700.0
 20
5718252.5
 30
0.0
  0
SEQEND
  5
259
330
0
100
AcDbEntity
  8
siatka
  0
POLYLINE
  5
25A
330
20
100
AcDbEntity
  8
siatka
  6
Continuous
 62
     7
370
    13
100
AcDb2dPolyline
 66
     1
 10
0.0
 20
0.0
 30
0.0
 70
   128
  0
VERTEX
  5
25B
330
25A
100
AcDbEntity
  8
siatka
100
AcDbVertex
100
AcDb2dVertex
 10
7566747.499999999
 20
5718250.0
 30
0.0
  0
VERTEX
  5
25C
330
25A
100
AcDbEntity
  8
siatka
100
AcDbVertex
100
AcDb2dVertex
 10
7566752.499999999
 20
5718250.0
 30
0.0
  0
SEQEND
  5
25D
330
0
100
AcDbEntity
  8
siatka
  0
POLYLINE
  5
25E
330
20
100
AcDbEntity
  8
siatka
  6
Continuous
 62
     7
370
    13
100
AcDb2dPolyline
 66
     1
 10
0.0
 20
0.0
 30
0.0
 70
   128
  0
VERTEX
  5
25F
330
25E
100
AcDbEntity
  8
siatka
100
AcDbVertex
100
AcDb2dVertex
 10
7566750.0
 20
5718247.5
 30
0.0
  0
VERTEX
  5
260
330
25E
100
AcDbEntity
  8
siatka
100
AcDbVertex
100
AcDb2dVertex
 10
7566750.0
 20
5718252.5
 30
0.0
  0
SEQEND
  5
261
330
0
100
AcDbEntity
  8
siatka
  0
POLYLINE
  5
262
330
20
100
AcDbEntity
  8
siatka
  6
Continuous
 62
     7
370
    13
100
AcDb2dPolyline
 66
     1
 10
0.0
 20
0.0
 30
0.0
 70
   128
  0
VERTEX
  5
263
330
262
100
AcDbEntity
  8
siatka
100
AcDbVertex
100
AcDb2dVertex
 10
7566797.499999999
 20
5718250.0
 30
0.0
  0
VERTEX
  5
264
330
262
100
AcDbEntity
  8
siatka
100
AcDbVertex
100
AcDb2dVertex
 10
7566802.5
 20
5718250.0
 30
0.0
  0
SEQEND
  5
265
330
0
100
AcDbEntity
  8
siatka
  0
POLYLINE
  5
266
330
20
100
AcDbEntity
  8
siatka
  6
Continuous
 62
     7
370
    13
100
AcDb2dPolyline
 66
     1
 10
0.0
 20
0.0
 30
0.0
 70
   128
  0
VERTEX
  5
267
330
266
100
AcDbEntity
  8
siatka
100
AcDbVertex
100
AcDb2dVertex
 10
7566800.0
 20
5718247.5
 30
0.0
  0
VERTEX
  5
268
330
266
100
AcDbEntity
  8
siatka
100
AcDbVertex
100
AcDb2dVertex
 10
7566800.0
 20
5718252.5
 30
0.0
  0
SEQEND
  5
269
330
0
100
AcDbEntity
  8
siatka
  0
POLYLINE
  5
26A
330
20
100
AcDbEntity
  8
siatka
  6
Continuous
 62
     7
370
    13
100
AcDb2dPolyline
 66
     1
 10
0.0
 20
0.0
 30
0.0
 70
   128
  0
VERTEX
  5
26B
330
26A
100
AcDbEntity
  8
siatka
100
AcDbVertex
100
AcDb2dVertex
 10
7566847.5
 20
5718250.0
 30
0.0
  0
VERTEX
  5
26C
330
26A
100
AcDbEntity
  8
siatka
100
AcDbVertex
100
AcDb2dVertex
 10
7566852.5
 20
5718250.0
 30
0.0
  0
SEQEND
  5
26D
330
0
100
AcDbEntity
  8
siatka
  0
POLYLINE
  5
26E
330
20
100
AcDbEntity
  8
siatka
  6
Continuous
 62
     7
370
    13
100
AcDb2dPolyline
 66
     1
 10
0.0
 20
0.0
 30
0.0
 70
   128
  0
VERTEX
  5
26F
330
26E
100
AcDbEntity
  8
siatka
100
AcDbVertex
100
AcDb2dVertex
 10
7566850.0
 20
5718247.5
 30
0.0
  0
VERTEX
  5
270
330
26E
100
AcDbEntity
  8
siatka
100
AcDbVertex
100
AcDb2dVertex
 10
7566850.0
 20
5718252.5
 30
0.0
  0
SEQEND
  5
271
330
0
100
AcDbEntity
  8
siatka
  0
POLYLINE
  5
272
330
20
100
AcDbEntity
  8
siatka
  6
Continuous
 62
     7
370
    13
100
AcDb2dPolyline
 66
     1
 10
0.0
 20
0.0
 30
0.0
 70
   128
  0
VERTEX
  5
273
330
272
100
AcDbEntity
  8
siatka
100
AcDbVertex
100
AcDb2dVertex
 10
7566897.5
 20
5718250.0
 30
0.0
  0
VERTEX
  5
274
330
272
100
AcDbEntity
  8
siatka
100
AcDbVertex
100
AcDb2dVertex
 10
7566902.5
 20
5718250.0
 30
0.0
  0
SEQEND
  5
275
330
0
100
AcDbEntity
  8
siatka
  0
POLYLINE
  5
276
330
20
100
AcDbEntity
  8
siatka
  6
Continuous
 62
     7
370
    13
100
AcDb2dPolyline
 66
     1
 10
0.0
 20
0.0
 30
0.0
 70
   128
  0
VERTEX
  5
277
330
276
100
AcDbEntity
  8
siatka
100
AcDbVertex
100
AcDb2dVertex
 10
7566900.0
 20
5718247.5
 30
0.0
  0
VERTEX
  5
278
330
276
100
AcDbEntity
  8
siatka
100
AcDbVertex
100
AcDb2dVertex
 10
7566900.0
 20
5718252.5
 30
0.0
  0
SEQEND
  5
279
330
0
100
AcDbEntity
  8
siatka
  0
POLYLINE
  5
27A
330
20
100
AcDbEntity
  8
siatka
  6
Continuous
 62
     7
370
    13
100
AcDb2dPolyline
 66
     1
 10
0.0
 20
0.0
 30
0.0
 70
   128
  0
VERTEX
  5
27B
330
27A
100
AcDbEntity
  8
siatka
100
AcDbVertex
100
AcDb2dVertex
 10
7566947.5
 20
5718250.0
 30
0.0
  0
VERTEX
  5
27C
330
27A
100
AcDbEntity
  8
siatka
100
AcDbVertex
100
AcDb2dVertex
 10
7566952.5
 20
5718250.0
 30
0.0
  0
SEQEND
  5
27D
330
0
100
AcDbEntity
  8
siatka
  0
POLYLINE
  5
27E
330
20
100
AcDbEntity
  8
siatka
  6
Continuous
 62
     7
370
    13
100
AcDb2dPolyline
 66
     1
 10
0.0
 20
0.0
 30
0.0
 70
   128
  0
VERTEX
  5
27F
330
27E
100
AcDbEntity
  8
siatka
100
AcDbVertex
100
AcDb2dVertex
 10
7566950.0
 20
5718247.5
 30
0.0
  0
VERTEX
  5
280
330
27E
100
AcDbEntity
  8
siatka
100
AcDbVertex
100
AcDb2dVertex
 10
7566950.0
 20
5718252.5
 30
0.0
  0
SEQEND
  5
281
330
0
100
AcDbEntity
  8
siatka
  0
POLYLINE
  5
282
330
20
100
AcDbEntity
  8
siatka
  6
Continuous
 62
     7
370
    13
100
AcDb2dPolyline
 66
     1
 10
0.0
 20
0.0
 30
0.0
 70
   128
  0
VERTEX
  5
283
330
282
100
AcDbEntity
  8
siatka
100
AcDbVertex
100
AcDb2dVertex
 10
7566547.5
 20
5718300.0
 30
0.0
  0
VERTEX
  5
284
330
282
100
AcDbEntity
  8
siatka
100
AcDbVertex
100
AcDb2dVertex
 10
7566552.5
 20
5718300.0
 30
0.0
  0
SEQEND
  5
285
330
0
100
AcDbEntity
  8
siatka
  0
POLYLINE
  5
286
330
20
100
AcDbEntity
  8
siatka
  6
Continuous
 62
     7
370
    13
100
AcDb2dPolyline
 66
     1
 10
0.0
 20
0.0
 30
0.0
 70
   128
  0
VERTEX
  5
287
330
286
100
AcDbEntity
  8
siatka
100
AcDbVertex
100
AcDb2dVertex
 10
7566550.000000001
 20
5718297.5
 30
0.0
  0
VERTEX
  5
288
330
286
100
AcDbEntity
  8
siatka
100
AcDbVertex
100
AcDb2dVertex
 10
7566550.000000001
 20
5718302.5
 30
0.0
  0
SEQEND
  5
289
330
0
100
AcDbEntity
  8
siatka
  0
POLYLINE
  5
28A
330
20
100
AcDbEntity
  8
siatka
  6
Continuous
 62
     7
370
    13
100
AcDb2dPolyline
 66
     1
 10
0.0
 20
0.0
 30
0.0
 70
   128
  0
VERTEX
  5
28B
330
28A
100
AcDbEntity
  8
siatka
100
AcDbVertex
100
AcDb2dVertex
 10
7566597.5
 20
5718300.0
 30
0.0
  0
VERTEX
  5
28C
330
28A
100
AcDbEntity
  8
siatka
100
AcDbVertex
100
AcDb2dVertex
 10
7566602.5
 20
5718300.0
 30
0.0
  0
SEQEND
  5
28D
330
0
100
AcDbEntity
  8
siatka
  0
POLYLINE
  5
28E
330
20
100
AcDbEntity
  8
siatka
  6
Continuous
 62
     7
370
    13
100
AcDb2dPolyline
 66
     1
 10
0.0
 20
0.0
 30
0.0
 70
   128
  0
VERTEX
  5
28F
330
28E
100
AcDbEntity
  8
siatka
100
AcDbVertex
100
AcDb2dVertex
 10
7566600.000000001
 20
5718297.5
 30
0.0
  0
VERTEX
  5
290
330
28E
100
AcDbEntity
  8
siatka
100
AcDbVertex
100
AcDb2dVertex
 10
7566600.000000001
 20
5718302.5
 30
0.0
  0
SEQEND
  5
291
330
0
100
AcDbEntity
  8
siatka
  0
POLYLINE
  5
292
330
20
100
AcDbEntity
  8
siatka
  6
Continuous
 62
     7
370
    13
100
AcDb2dPolyline
 66
     1
 10
0.0
 20
0.0
 30
0.0
 70
   128
  0
VERTEX
  5
293
330
292
100
AcDbEntity
  8
siatka
100
AcDbVertex
100
AcDb2dVertex
 10
7566647.5
 20
5718300.0
 30
0.0
  0
VERTEX
  5
294
330
292
100
AcDbEntity
  8
siatka
100
AcDbVertex
100
AcDb2dVertex
 10
7566652.5
 20
5718300.0
 30
0.0
  0
SEQEND
  5
295
330
0
100
AcDbEntity
  8
siatka
  0
POLYLINE
  5
296
330
20
100
AcDbEntity
  8
siatka
  6
Continuous
 62
     7
370
    13
100
AcDb2dPolyline
 66
     1
 10
0.0
 20
0.0
 30
0.0
 70
   128
  0
VERTEX
  5
297
330
296
100
AcDbEntity
  8
siatka
100
AcDbVertex
100
AcDb2dVertex
 10
7566650.0
 20
5718297.5
 30
0.0
  0
VERTEX
  5
298
330
296
100
AcDbEntity
  8
siatka
100
AcDbVertex
100
AcDb2dVertex
 10
7566650.0
 20
5718302.5
 30
0.0
  0
SEQEND
  5
299
330
0
100
AcDbEntity
  8
siatka
  0
POLYLINE
  5
29A
330
20
100
AcDbEntity
  8
siatka
  6
Continuous
 62
     7
370
    13
100
AcDb2dPolyline
 66
     1
 10
0.0
 20
0.0
 30
0.0
 70
   128
  0
VERTEX
  5
29B
330
29A
100
AcDbEntity
  8
siatka
100
AcDbVertex
100
AcDb2dVertex
 10
7566697.5
 20
5718300.0
 30
0.0
  0
VERTEX
  5
29C
330
29A
100
AcDbEntity
  8
siatka
100
AcDbVertex
100
AcDb2dVertex
 10
7566702.499999999
 20
5718300.0
 30
0.0
  0
SEQEND
  5
29D
330
0
100
AcDbEntity
  8
siatka
  0
POLYLINE
  5
29E
330
20
100
AcDbEntity
  8
siatka
  6
Continuous
 62
     7
370
    13
100
AcDb2dPolyline
 66
     1
 10
0.0
 20
0.0
 30
0.0
 70
   128
  0
VERTEX
  5
29F
330
29E
100
AcDbEntity
  8
siatka
100
AcDbVertex
100
AcDb2dVertex
 10
7566700.0
 20
5718297.5
 30
0.0
  0
VERTEX
  5
2A0
330
29E
100
AcDbEntity
  8
siatka
100
AcDbVertex
100
AcDb2dVertex
 10
7566700.0
 20
5718302.5
 30
0.0
  0
SEQEND
  5
2A1
330
0
100
AcDbEntity
  8
siatka
  0
POLYLINE
  5
2A2
330
20
100
AcDbEntity
  8
siatka
  6
Continuous
 62
     7
370
    13
100
AcDb2dPolyline
 66
     1
 10
0.0
 20
0.0
 30
0.0
 70
   128
  0
VERTEX
  5
2A3
330
2A2
100
AcDbEntity
  8
siatka
100
AcDbVertex
100
AcDb2dVertex
 10
7566747.499999999
 20
5718300.0
 30
0.0
  0
VERTEX
  5
2A4
330
2A2
100
AcDbEntity
  8
siatka
100
AcDbVertex
100
AcDb2dVertex
 10
7566752.499999999
 20
5718300.0
 30
0.0
  0
SEQEND
  5
2A5
330
0
100
AcDbEntity
  8
siatka
  0
POLYLINE
  5
2A6
330
20
100
AcDbEntity
  8
siatka
  6
Continuous
 62
     7
370
    13
100
AcDb2dPolyline
 66
     1
 10
0.0
 20
0.0
 30
0.0
 70
   128
  0
VERTEX
  5
2A7
330
2A6
100
AcDbEntity
  8
siatka
100
AcDbVertex
100
AcDb2dVertex
 10
7566750.0
 20
5718297.5
 30
0.0
  0
VERTEX
  5
2A8
330
2A6
100
AcDbEntity
  8
siatka
100
AcDbVertex
100
AcDb2dVertex
 10
7566750.0
 20
5718302.5
 30
0.0
  0
SEQEND
  5
2A9
330
0
100
AcDbEntity
  8
siatka
  0
POLYLINE
  5
2AA
330
20
100
AcDbEntity
  8
siatka
  6
Continuous
 62
     7
370
    13
100
AcDb2dPolyline
 66
     1
 10
0.0
 20
0.0
 30
0.0
 70
   128
  0
VERTEX
  5
2AB
330
2AA
100
AcDbEntity
  8
siatka
100
AcDbVertex
100
AcDb2dVertex
 10
7566797.499999999
 20
5718300.0
 30
0.0
  0
VERTEX
  5
2AC
330
2AA
100
AcDbEntity
  8
siatka
100
AcDbVertex
100
AcDb2dVertex
 10
7566802.5
 20
5718300.0
 30
0.0
  0
SEQEND
  5
2AD
330
0
100
AcDbEntity
  8
siatka
  0
POLYLINE
  5
2AE
330
20
100
AcDbEntity
  8
siatka
  6
Continuous
 62
     7
370
    13
100
AcDb2dPolyline
 66
     1
 10
0.0
 20
0.0
 30
0.0
 70
   128
  0
VERTEX
  5
2AF
330
2AE
100
AcDbEntity
  8
siatka
100
AcDbVertex
100
AcDb2dVertex
 10
7566800.0
 20
5718297.5
 30
0.0
  0
VERTEX
  5
2B0
330
2AE
100
AcDbEntity
  8
siatka
100
AcDbVertex
100
AcDb2dVertex
 10
7566800.0
 20
5718302.5
 30
0.0
  0
SEQEND
  5
2B1
330
0
100
AcDbEntity
  8
siatka
  0
POLYLINE
  5
2B2
330
20
100
AcDbEntity
  8
siatka
  6
Continuous
 62
     7
370
    13
100
AcDb2dPolyline
 66
     1
 10
0.0
 20
0.0
 30
0.0
 70
   128
  0
VERTEX
  5
2B3
330
2B2
100
AcDbEntity
  8
siatka
100
AcDbVertex
100
AcDb2dVertex
 10
7566847.5
 20
5718300.0
 30
0.0
  0
VERTEX
  5
2B4
330
2B2
100
AcDbEntity
  8
siatka
100
AcDbVertex
100
AcDb2dVertex
 10
7566852.5
 20
5718300.0
 30
0.0
  0
SEQEND
  5
2B5
330
0
100
AcDbEntity
  8
siatka
  0
POLYLINE
  5
2B6
330
20
100
AcDbEntity
  8
siatka
  6
Continuous
 62
     7
370
    13
100
AcDb2dPolyline
 66
     1
 10
0.0
 20
0.0
 30
0.0
 70
   128
  0
VERTEX
  5
2B7
330
2B6
100
AcDbEntity
  8
siatka
100
AcDbVertex
100
AcDb2dVertex
 10
7566850.0
 20
5718297.5
 30
0.0
  0
VERTEX
  5
2B8
330
2B6
100
AcDbEntity
  8
siatka
100
AcDbVertex
100
AcDb2dVertex
 10
7566850.0
 20
5718302.5
 30
0.0
  0
SEQEND
  5
2B9
330
0
100
AcDbEntity
  8
siatka
  0
POLYLINE
  5
2BA
330
20
100
AcDbEntity
  8
siatka
  6
Continuous
 62
     7
370
    13
100
AcDb2dPolyline
 66
     1
 10
0.0
 20
0.0
 30
0.0
 70
   128
  0
VERTEX
  5
2BB
330
2BA
100
AcDbEntity
  8
siatka
100
AcDbVertex
100
AcDb2dVertex
 10
7566897.5
 20
5718300.0
 30
0.0
  0
VERTEX
  5
2BC
330
2BA
100
AcDbEntity
  8
siatka
100
AcDbVertex
100
AcDb2dVertex
 10
7566902.5
 20
5718300.0
 30
0.0
  0
SEQEND
  5
2BD
330
0
100
AcDbEntity
  8
siatka
  0
POLYLINE
  5
2BE
330
20
100
AcDbEntity
  8
siatka
  6
Continuous
 62
     7
370
    13
100
AcDb2dPolyline
 66
     1
 10
0.0
 20
0.0
 30
0.0
 70
   128
  0
VERTEX
  5
2BF
330
2BE
100
AcDbEntity
  8
siatka
100
AcDbVertex
100
AcDb2dVertex
 10
7566900.0
 20
5718297.5
 30
0.0
  0
VERTEX
  5
2C0
330
2BE
100
AcDbEntity
  8
siatka
100
AcDbVertex
100
AcDb2dVertex
 10
7566900.0
 20
5718302.5
 30
0.0
  0
SEQEND
  5
2C1
330
0
100
AcDbEntity
  8
siatka
  0
POLYLINE
  5
2C2
330
20
100
AcDbEntity
  8
siatka
  6
Continuous
 62
     7
370
    13
100
AcDb2dPolyline
 66
     1
 10
0.0
 20
0.0
 30
0.0
 70
   128
  0
VERTEX
  5
2C3
330
2C2
100
AcDbEntity
  8
siatka
100
AcDbVertex
100
AcDb2dVertex
 10
7566947.5
 20
5718300.0
 30
0.0
  0
VERTEX
  5
2C4
330
2C2
100
AcDbEntity
  8
siatka
100
AcDbVertex
100
AcDb2dVertex
 10
7566952.5
 20
5718300.0
 30
0.0
  0
SEQEND
  5
2C5
330
0
100
AcDbEntity
  8
siatka
  0
POLYLINE
  5
2C6
330
20
100
AcDbEntity
  8
siatka
  6
Continuous
 62
     7
370
    13
100
AcDb2dPolyline
 66
     1
 10
0.0
 20
0.0
 30
0.0
 70
   128
  0
VERTEX
  5
2C7
330
2C6
100
AcDbEntity
  8
siatka
100
AcDbVertex
100
AcDb2dVertex
 10
7566950.0
 20
5718297.5
 30
0.0
  0
VERTEX
  5
2C8
330
2C6
100
AcDbEntity
  8
siatka
100
AcDbVertex
100
AcDb2dVertex
 10
7566950.0
 20
5718302.5
 30
0.0
  0
SEQEND
  5
2C9
330
0
100
AcDbEntity
  8
siatka
  0
POLYLINE
  5
2CA
330
20
100
AcDbEntity
  8
siatka
  6
Continuous
 62
     7
370
    13
100
AcDb2dPolyline
 66
     1
 10
0.0
 20
0.0
 30
0.0
 70
   128
  0
VERTEX
  5
2CB
330
2CA
100
AcDbEntity
  8
siatka
100
AcDbVertex
100
AcDb2dVertex
 10
7566547.5
 20
5718350.0
 30
0.0
  0
VERTEX
  5
2CC
330
2CA
100
AcDbEntity
  8
siatka
100
AcDbVertex
100
AcDb2dVertex
 10
7566552.5
 20
5718350.0
 30
0.0
  0
SEQEND
  5
2CD
330
0
100
AcDbEntity
  8
siatka
  0
POLYLINE
  5
2CE
330
20
100
AcDbEntity
  8
siatka
  6
Continuous
 62
     7
370
    13
100
AcDb2dPolyline
 66
     1
 10
0.0
 20
0.0
 30
0.0
 70
   128
  0
VERTEX
  5
2CF
330
2CE
100
AcDbEntity
  8
siatka
100
AcDbVertex
100
AcDb2dVertex
 10
7566550.000000001
 20
5718347.5
 30
0.0
  0
VERTEX
  5
2D0
330
2CE
100
AcDbEntity
  8
siatka
100
AcDbVertex
100
AcDb2dVertex
 10
7566550.000000001
 20
5718352.499999999
 30
0.0
  0
SEQEND
  5
2D1
330
0
100
AcDbEntity
  8
siatka
  0
POLYLINE
  5
2D2
330
20
100
AcDbEntity
  8
siatka
  6
Continuous
 62
     7
370
    13
100
AcDb2dPolyline
 66
     1
 10
0.0
 20
0.0
 30
0.0
 70
   128
  0
VERTEX
  5
2D3
330
2D2
100
AcDbEntity
  8
siatka
100
AcDbVertex
100
AcDb2dVertex
 10
7566597.5
 20
5718350.0
 30
0.0
  0
VERTEX
  5
2D4
330
2D2
100
AcDbEntity
  8
siatka
100
AcDbVertex
100
AcDb2dVertex
 10
7566602.5
 20
5718350.0
 30
0.0
  0
SEQEND
  5
2D5
330
0
100
AcDbEntity
  8
siatka
  0
POLYLINE
  5
2D6
330
20
100
AcDbEntity
  8
siatka
  6
Continuous
 62
     7
370
    13
100
AcDb2dPolyline
 66
     1
 10
0.0
 20
0.0
 30
0.0
 70
   128
  0
VERTEX
  5
2D7
330
2D6
100
AcDbEntity
  8
siatka
100
AcDbVertex
100
AcDb2dVertex
 10
7566600.000000001
 20
5718347.5
 30
0.0
  0
VERTEX
  5
2D8
330
2D6
100
AcDbEntity
  8
siatka
100
AcDbVertex
100
AcDb2dVertex
 10
7566600.000000001
 20
5718352.499999999
 30
0.0
  0
SEQEND
  5
2D9
330
0
100
AcDbEntity
  8
siatka
  0
POLYLINE
  5
2DA
330
20
100
AcDbEntity
  8
siatka
  6
Continuous
 62
     7
370
    13
100
AcDb2dPolyline
 66
     1
 10
0.0
 20
0.0
 30
0.0
 70
   128
  0
VERTEX
  5
2DB
330
2DA
100
AcDbEntity
  8
siatka
100
AcDbVertex
100
AcDb2dVertex
 10
7566647.5
 20
5718350.0
 30
0.0
  0
VERTEX
  5
2DC
330
2DA
100
AcDbEntity
  8
siatka
100
AcDbVertex
100
AcDb2dVertex
 10
7566652.5
 20
5718350.0
 30
0.0
  0
SEQEND
  5
2DD
330
0
100
AcDbEntity
  8
siatka
  0
POLYLINE
  5
2DE
330
20
100
AcDbEntity
  8
siatka
  6
Continuous
 62
     7
370
    13
100
AcDb2dPolyline
 66
     1
 10
0.0
 20
0.0
 30
0.0
 70
   128
  0
VERTEX
  5
2DF
330
2DE
100
AcDbEntity
  8
siatka
100
AcDbVertex
100
AcDb2dVertex
 10
7566650.0
 20
5718347.5
 30
0.0
  0
VERTEX
  5
2E0
330
2DE
100
AcDbEntity
  8
siatka
100
AcDbVertex
100
AcDb2dVertex
 10
7566650.0
 20
5718352.499999999
 30
0.0
  0
SEQEND
  5
2E1
330
0
100
AcDbEntity
  8
siatka
  0
POLYLINE
  5
2E2
330
20
100
AcDbEntity
  8
siatka
  6
Continuous
 62
     7
370
    13
100
AcDb2dPolyline
 66
     1
 10
0.0
 20
0.0
 30
0.0
 70
   128
  0
VERTEX
  5
2E3
330
2E2
100
AcDbEntity
  8
siatka
100
AcDbVertex
100
AcDb2dVertex
 10
7566697.5
 20
5718350.0
 30
0.0
  0
VERTEX
  5
2E4
330
2E2
100
AcDbEntity
  8
siatka
100
AcDbVertex
100
AcDb2dVertex
 10
7566702.499999999
 20
5718350.0
 30
0.0
  0
SEQEND
  5
2E5
330
0
100
AcDbEntity
  8
siatka
  0
POLYLINE
  5
2E6
330
20
100
AcDbEntity
  8
siatka
  6
Continuous
 62
     7
370
    13
100
AcDb2dPolyline
 66
     1
 10
0.0
 20
0.0
 30
0.0
 70
   128
  0
VERTEX
  5
2E7
330
2E6
100
AcDbEntity
  8
siatka
100
AcDbVertex
100
AcDb2dVertex
 10
7566700.0
 20
5718347.5
 30
0.0
  0
VERTEX
  5
2E8
330
2E6
100
AcDbEntity
  8
siatka
100
AcDbVertex
100
AcDb2dVertex
 10
7566700.0
 20
5718352.499999999
 30
0.0
  0
SEQEND
  5
2E9
330
0
100
AcDbEntity
  8
siatka
  0
POLYLINE
  5
2EA
330
20
100
AcDbEntity
  8
siatka
  6
Continuous
 62
     7
370
    13
100
AcDb2dPolyline
 66
     1
 10
0.0
 20
0.0
 30
0.0
 70
   128
  0
VERTEX
  5
2EB
330
2EA
100
AcDbEntity
  8
siatka
100
AcDbVertex
100
AcDb2dVertex
 10
7566747.499999999
 20
5718350.0
 30
0.0
  0
VERTEX
  5
2EC
330
2EA
100
AcDbEntity
  8
siatka
100
AcDbVertex
100
AcDb2dVertex
 10
7566752.499999999
 20
5718350.0
 30
0.0
  0
SEQEND
  5
2ED
330
0
100
AcDbEntity
  8
siatka
  0
POLYLINE
  5
2EE
330
20
100
AcDbEntity
  8
siatka
  6
Continuous
 62
     7
370
    13
100
AcDb2dPolyline
 66
     1
 10
0.0
 20
0.0
 30
0.0
 70
   128
  0
VERTEX
  5
2EF
330
2EE
100
AcDbEntity
  8
siatka
100
AcDbVertex
100
AcDb2dVertex
 10
7566750.0
 20
5718347.5
 30
0.0
  0
VERTEX
  5
2F0
330
2EE
100
AcDbEntity
  8
siatka
100
AcDbVertex
100
AcDb2dVertex
 10
7566750.0
 20
5718352.499999999
 30
0.0
  0
SEQEND
  5
2F1
330
0
100
AcDbEntity
  8
siatka
  0
POLYLINE
  5
2F2
330
20
100
AcDbEntity
  8
siatka
  6
Continuous
 62
     7
370
    13
100
AcDb2dPolyline
 66
     1
 10
0.0
 20
0.0
 30
0.0
 70
   128
  0
VERTEX
  5
2F3
330
2F2
100
AcDbEntity
  8
siatka
100
AcDbVertex
100
AcDb2dVertex
 10
7566797.499999999
 20
5718350.0
 30
0.0
  0
VERTEX
  5
2F4
330
2F2
100
AcDbEntity
  8
siatka
100
AcDbVertex
100
AcDb2dVertex
 10
7566802.5
 20
5718350.0
 30
0.0
  0
SEQEND
  5
2F5
330
0
100
AcDbEntity
  8
siatka
  0
POLYLINE
  5
2F6
330
20
100
AcDbEntity
  8
siatka
  6
Continuous
 62
     7
370
    13
100
AcDb2dPolyline
 66
     1
 10
0.0
 20
0.0
 30
0.0
 70
   128
  0
VERTEX
  5
2F7
330
2F6
100
AcDbEntity
  8
siatka
100
AcDbVertex
100
AcDb2dVertex
 10
7566800.0
 20
5718347.5
 30
0.0
  0
VERTEX
  5
2F8
330
2F6
100
AcDbEntity
  8
siatka
100
AcDbVertex
100
AcDb2dVertex
 10
7566800.0
 20
5718352.499999999
 30
0.0
  0
SEQEND
  5
2F9
330
0
100
AcDbEntity
  8
siatka
  0
POLYLINE
  5
2FA
330
20
100
AcDbEntity
  8
siatka
  6
Continuous
 62
     7
370
    13
100
AcDb2dPolyline
 66
     1
 10
0.0
 20
0.0
 30
0.0
 70
   128
  0
VERTEX
  5
2FB
330
2FA
100
AcDbEntity
  8
siatka
100
AcDbVertex
100
AcDb2dVertex
 10
7566847.5
 20
5718350.0
 30
0.0
  0
VERTEX
  5
2FC
330
2FA
100
AcDbEntity
  8
siatka
100
AcDbVertex
100
AcDb2dVertex
 10
7566852.5
 20
5718350.0
 30
0.0
  0
SEQEND
  5
2FD
330
0
100
AcDbEntity
  8
siatka
  0
POLYLINE
  5
2FE
330
20
100
AcDbEntity
  8
siatka
  6
Continuous
 62
     7
370
    13
100
AcDb2dPolyline
 66
     1
 10
0.0
 20
0.0
 30
0.0
 70
   128
  0
VERTEX
  5
2FF
330
2FE
100
AcDbEntity
  8
siatka
100
AcDbVertex
100
AcDb2dVertex
 10
7566850.0
 20
5718347.5
 30
0.0
  0
VERTEX
  5
300
330
2FE
100
AcDbEntity
  8
siatka
100
AcDbVertex
100
AcDb2dVertex
 10
7566850.0
 20
5718352.499999999
 30
0.0
  0
SEQEND
  5
301
330
0
100
AcDbEntity
  8
siatka
  0
POLYLINE
  5
302
330
20
100
AcDbEntity
  8
siatka
  6
Continuous
 62
     7
370
    13
100
AcDb2dPolyline
 66
     1
 10
0.0
 20
0.0
 30
0.0
 70
   128
  0
VERTEX
  5
303
330
302
100
AcDbEntity
  8
siatka
100
AcDbVertex
100
AcDb2dVertex
 10
7566897.5
 20
5718350.0
 30
0.0
  0
VERTEX
  5
304
330
302
100
AcDbEntity
  8
siatka
100
AcDbVertex
100
AcDb2dVertex
 10
7566902.5
 20
5718350.0
 30
0.0
  0
SEQEND
  5
305
330
0
100
AcDbEntity
  8
siatka
  0
POLYLINE
  5
306
330
20
100
AcDbEntity
  8
siatka
  6
Continuous
 62
     7
370
    13
100
AcDb2dPolyline
 66
     1
 10
0.0
 20
0.0
 30
0.0
 70
   128
  0
VERTEX
  5
307
330
306
100
AcDbEntity
  8
siatka
100
AcDbVertex
100
AcDb2dVertex
 10
7566900.0
 20
5718347.5
 30
0.0
  0
VERTEX
  5
308
330
306
100
AcDbEntity
  8
siatka
100
AcDbVertex
100
AcDb2dVertex
 10
7566900.0
 20
5718352.499999999
 30
0.0
  0
SEQEND
  5
309
330
0
100
AcDbEntity
  8
siatka
  0
POLYLINE
  5
30A
330
20
100
AcDbEntity
  8
siatka
  6
Continuous
 62
     7
370
    13
100
AcDb2dPolyline
 66
     1
 10
0.0
 20
0.0
 30
0.0
 70
   128
  0
VERTEX
  5
30B
330
30A
100
AcDbEntity
  8
siatka
100
AcDbVertex
100
AcDb2dVertex
 10
7566947.5
 20
5718350.0
 30
0.0
  0
VERTEX
  5
30C
330
30A
100
AcDbEntity
  8
siatka
100
AcDbVertex
100
AcDb2dVertex
 10
7566952.5
 20
5718350.0
 30
0.0
  0
SEQEND
  5
30D
330
0
100
AcDbEntity
  8
siatka
  0
POLYLINE
  5
30E
330
20
100
AcDbEntity
  8
siatka
  6
Continuous
 62
     7
370
    13
100
AcDb2dPolyline
 66
     1
 10
0.0
 20
0.0
 30
0.0
 70
   128
  0
VERTEX
  5
30F
330
30E
100
AcDbEntity
  8
siatka
100
AcDbVertex
100
AcDb2dVertex
 10
7566950.0
 20
5718347.5
 30
0.0
  0
VERTEX
  5
310
330
30E
100
AcDbEntity
  8
siatka
100
AcDbVertex
100
AcDb2dVertex
 10
7566950.0
 20
5718352.499999999
 30
0.0
  0
SEQEND
  5
311
330
0
100
AcDbEntity
  8
siatka
  0
POLYLINE
  5
312
330
20
100
AcDbEntity
  8
siatka
  6
Continuous
 62
     7
370
    13
100
AcDb2dPolyline
 66
     1
 10
0.0
 20
0.0
 30
0.0
 70
   128
  0
VERTEX
  5
313
330
312
100
AcDbEntity
  8
siatka
100
AcDbVertex
100
AcDb2dVertex
 10
7566547.5
 20
5718400.0
 30
0.0
  0
VERTEX
  5
314
330
312
100
AcDbEntity
  8
siatka
100
AcDbVertex
100
AcDb2dVertex
 10
7566552.5
 20
5718400.0
 30
0.0
  0
SEQEND
  5
315
330
0
100
AcDbEntity
  8
siatka
  0
POLYLINE
  5
316
330
20
100
AcDbEntity
  8
siatka
  6
Continuous
 62
     7
370
    13
100
AcDb2dPolyline
 66
     1
 10
0.0
 20
0.0
 30
0.0
 70
   128
  0
VERTEX
  5
317
330
316
100
AcDbEntity
  8
siatka
100
AcDbVertex
100
AcDb2dVertex
 10
7566550.000000001
 20
5718397.5
 30
0.0
  0
VERTEX
  5
318
330
316
100
AcDbEntity
  8
siatka
100
AcDbVertex
100
AcDb2dVertex
 10
7566550.000000001
 20
5718402.5
 30
0.0
  0
SEQEND
  5
319
330
0
100
AcDbEntity
  8
siatka
  0
POLYLINE
  5
31A
330
20
100
AcDbEntity
  8
siatka
  6
Continuous
 62
     7
370
    13
100
AcDb2dPolyline
 66
     1
 10
0.0
 20
0.0
 30
0.0
 70
   128
  0
VERTEX
  5
31B
330
31A
100
AcDbEntity
  8
siatka
100
AcDbVertex
100
AcDb2dVertex
 10
7566597.5
 20
5718400.0
 30
0.0
  0
VERTEX
  5
31C
330
31A
100
AcDbEntity
  8
siatka
100
AcDbVertex
100
AcDb2dVertex
 10
7566602.5
 20
5718400.0
 30
0.0
  0
SEQEND
  5
31D
330
0
100
AcDbEntity
  8
siatka
  0
POLYLINE
  5
31E
330
20
100
AcDbEntity
  8
siatka
  6
Continuous
 62
     7
370
    13
100
AcDb2dPolyline
 66
     1
 10
0.0
 20
0.0
 30
0.0
 70
   128
  0
VERTEX
  5
31F
330
31E
100
AcDbEntity
  8
siatka
100
AcDbVertex
100
AcDb2dVertex
 10
7566600.000000001
 20
5718397.5
 30
0.0
  0
VERTEX
  5
320
330
31E
100
AcDbEntity
  8
siatka
100
AcDbVertex
100
AcDb2dVertex
 10
7566600.000000001
 20
5718402.5
 30
0.0
  0
SEQEND
  5
321
330
0
100
AcDbEntity
  8
siatka
  0
POLYLINE
  5
322
330
20
100
AcDbEntity
  8
siatka
  6
Continuous
 62
     7
370
    13
100
AcDb2dPolyline
 66
     1
 10
0.0
 20
0.0
 30
0.0
 70
   128
  0
VERTEX
  5
323
330
322
100
AcDbEntity
  8
siatka
100
AcDbVertex
100
AcDb2dVertex
 10
7566647.5
 20
5718400.0
 30
0.0
  0
VERTEX
  5
324
330
322
100
AcDbEntity
  8
siatka
100
AcDbVertex
100
AcDb2dVertex
 10
7566652.5
 20
5718400.0
 30
0.0
  0
SEQEND
  5
325
330
0
100
AcDbEntity
  8
siatka
  0
POLYLINE
  5
326
330
20
100
AcDbEntity
  8
siatka
  6
Continuous
 62
     7
370
    13
100
AcDb2dPolyline
 66
     1
 10
0.0
 20
0.0
 30
0.0
 70
   128
  0
VERTEX
  5
327
330
326
100
AcDbEntity
  8
siatka
100
AcDbVertex
100
AcDb2dVertex
 10
7566650.0
 20
5718397.5
 30
0.0
  0
VERTEX
  5
328
330
326
100
AcDbEntity
  8
siatka
100
AcDbVertex
100
AcDb2dVertex
 10
7566650.0
 20
5718402.5
 30
0.0
  0
SEQEND
  5
329
330
0
100
AcDbEntity
  8
siatka
  0
POLYLINE
  5
32A
330
20
100
AcDbEntity
  8
siatka
  6
Continuous
 62
     7
370
    13
100
AcDb2dPolyline
 66
     1
 10
0.0
 20
0.0
 30
0.0
 70
   128
  0
VERTEX
  5
32B
330
32A
100
AcDbEntity
  8
siatka
100
AcDbVertex
100
AcDb2dVertex
 10
7566697.5
 20
5718400.0
 30
0.0
  0
VERTEX
  5
32C
330
32A
100
AcDbEntity
  8
siatka
100
AcDbVertex
100
AcDb2dVertex
 10
7566702.499999999
 20
5718400.0
 30
0.0
  0
SEQEND
  5
32D
330
0
100
AcDbEntity
  8
siatka
  0
POLYLINE
  5
32E
330
20
100
AcDbEntity
  8
siatka
  6
Continuous
 62
     7
370
    13
100
AcDb2dPolyline
 66
     1
 10
0.0
 20
0.0
 30
0.0
 70
   128
  0
VERTEX
  5
32F
330
32E
100
AcDbEntity
  8
siatka
100
AcDbVertex
100
AcDb2dVertex
 10
7566700.0
 20
5718397.5
 30
0.0
  0
VERTEX
  5
330
330
32E
100
AcDbEntity
  8
siatka
100
AcDbVertex
100
AcDb2dVertex
 10
7566700.0
 20
5718402.5
 30
0.0
  0
SEQEND
  5
331
330
0
100
AcDbEntity
  8
siatka
  0
POLYLINE
  5
332
330
20
100
AcDbEntity
  8
siatka
  6
Continuous
 62
     7
370
    13
100
AcDb2dPolyline
 66
     1
 10
0.0
 20
0.0
 30
0.0
 70
   128
  0
VERTEX
  5
333
330
332
100
AcDbEntity
  8
siatka
100
AcDbVertex
100
AcDb2dVertex
 10
7566747.499999999
 20
5718400.0
 30
0.0
  0
VERTEX
  5
334
330
332
100
AcDbEntity
  8
siatka
100
AcDbVertex
100
AcDb2dVertex
 10
7566752.499999999
 20
5718400.0
 30
0.0
  0
SEQEND
  5
335
330
0
100
AcDbEntity
  8
siatka
  0
POLYLINE
  5
336
330
20
100
AcDbEntity
  8
siatka
  6
Continuous
 62
     7
370
    13
100
AcDb2dPolyline
 66
     1
 10
0.0
 20
0.0
 30
0.0
 70
   128
  0
VERTEX
  5
337
330
336
100
AcDbEntity
  8
siatka
100
AcDbVertex
100
AcDb2dVertex
 10
7566750.0
 20
5718397.5
 30
0.0
  0
VERTEX
  5
338
330
336
100
AcDbEntity
  8
siatka
100
AcDbVertex
100
AcDb2dVertex
 10
7566750.0
 20
5718402.5
 30
0.0
  0
SEQEND
  5
339
330
0
100
AcDbEntity
  8
siatka
  0
POLYLINE
  5
33A
330
20
100
AcDbEntity
  8
siatka
  6
Continuous
 62
     7
370
    13
100
AcDb2dPolyline
 66
     1
 10
0.0
 20
0.0
 30
0.0
 70
   128
  0
VERTEX
  5
33B
330
33A
100
AcDbEntity
  8
siatka
100
AcDbVertex
100
AcDb2dVertex
 10
7566797.499999999
 20
5718400.0
 30
0.0
  0
VERTEX
  5
33C
330
33A
100
AcDbEntity
  8
siatka
100
AcDbVertex
100
AcDb2dVertex
 10
7566802.5
 20
5718400.0
 30
0.0
  0
SEQEND
  5
33D
330
0
100
AcDbEntity
  8
siatka
  0
POLYLINE
  5
33E
330
20
100
AcDbEntity
  8
siatka
  6
Continuous
 62
     7
370
    13
100
AcDb2dPolyline
 66
     1
 10
0.0
 20
0.0
 30
0.0
 70
   128
  0
VERTEX
  5
33F
330
33E
100
AcDbEntity
  8
siatka
100
AcDbVertex
100
AcDb2dVertex
 10
7566800.0
 20
5718397.5
 30
0.0
  0
VERTEX
  5
340
330
33E
100
AcDbEntity
  8
siatka
100
AcDbVertex
100
AcDb2dVertex
 10
7566800.0
 20
5718402.5
 30
0.0
  0
SEQEND
  5
341
330
0
100
AcDbEntity
  8
siatka
  0
POLYLINE
  5
342
330
20
100
AcDbEntity
  8
siatka
  6
Continuous
 62
     7
370
    13
100
AcDb2dPolyline
 66
     1
 10
0.0
 20
0.0
 30
0.0
 70
   128
  0
VERTEX
  5
343
330
342
100
AcDbEntity
  8
siatka
100
AcDbVertex
100
AcDb2dVertex
 10
7566847.5
 20
5718400.0
 30
0.0
  0
VERTEX
  5
344
330
342
100
AcDbEntity
  8
siatka
100
AcDbVertex
100
AcDb2dVertex
 10
7566852.5
 20
5718400.0
 30
0.0
  0
SEQEND
  5
345
330
0
100
AcDbEntity
  8
siatka
  0
POLYLINE
  5
346
330
20
100
AcDbEntity
  8
siatka
  6
Continuous
 62
     7
370
    13
100
AcDb2dPolyline
 66
     1
 10
0.0
 20
0.0
 30
0.0
 70
   128
  0
VERTEX
  5
347
330
346
100
AcDbEntity
  8
siatka
100
AcDbVertex
100
AcDb2dVertex
 10
7566850.0
 20
5718397.5
 30
0.0
  0
VERTEX
  5
348
330
346
100
AcDbEntity
  8
siatka
100
AcDbVertex
100
AcDb2dVertex
 10
7566850.0
 20
5718402.5
 30
0.0
  0
SEQEND
  5
349
330
0
100
AcDbEntity
  8
siatka
  0
POLYLINE
  5
34A
330
20
100
AcDbEntity
  8
siatka
  6
Continuous
 62
     7
370
    13
100
AcDb2dPolyline
 66
     1
 10
0.0
 20
0.0
 30
0.0
 70
   128
  0
VERTEX
  5
34B
330
34A
100
AcDbEntity
  8
siatka
100
AcDbVertex
100
AcDb2dVertex
 10
7566897.5
 20
5718400.0
 30
0.0
  0
VERTEX
  5
34C
330
34A
100
AcDbEntity
  8
siatka
100
AcDbVertex
100
AcDb2dVertex
 10
7566902.5
 20
5718400.0
 30
0.0
  0
SEQEND
  5
34D
330
0
100
AcDbEntity
  8
siatka
  0
POLYLINE
  5
34E
330
20
100
AcDbEntity
  8
siatka
  6
Continuous
 62
     7
370
    13
100
AcDb2dPolyline
 66
     1
 10
0.0
 20
0.0
 30
0.0
 70
   128
  0
VERTEX
  5
34F
330
34E
100
AcDbEntity
  8
siatka
100
AcDbVertex
100
AcDb2dVertex
 10
7566900.0
 20
5718397.5
 30
0.0
  0
VERTEX
  5
350
330
34E
100
AcDbEntity
  8
siatka
100
AcDbVertex
100
AcDb2dVertex
 10
7566900.0
 20
5718402.5
 30
0.0
  0
SEQEND
  5
351
330
0
100
AcDbEntity
  8
siatka
  0
POLYLINE
  5
352
330
20
100
AcDbEntity
  8
siatka
  6
Continuous
 62
     7
370
    13
100
AcDb2dPolyline
 66
     1
 10
0.0
 20
0.0
 30
0.0
 70
   128
  0
VERTEX
  5
353
330
352
100
AcDbEntity
  8
siatka
100
AcDbVertex
100
AcDb2dVertex
 10
7566947.5
 20
5718400.0
 30
0.0
  0
VERTEX
  5
354
330
352
100
AcDbEntity
  8
siatka
100
AcDbVertex
100
AcDb2dVertex
 10
7566952.5
 20
5718400.0
 30
0.0
  0
SEQEND
  5
355
330
0
100
AcDbEntity
  8
siatka
  0
POLYLINE
  5
356
330
20
100
AcDbEntity
  8
siatka
  6
Continuous
 62
     7
370
    13
100
AcDb2dPolyline
 66
     1
 10
0.0
 20
0.0
 30
0.0
 70
   128
  0
VERTEX
  5
357
330
356
100
AcDbEntity
  8
siatka
100
AcDbVertex
100
AcDb2dVertex
 10
7566950.0
 20
5718397.5
 30
0.0
  0
VERTEX
  5
358
330
356
100
AcDbEntity
  8
siatka
100
AcDbVertex
100
AcDb2dVertex
 10
7566950.0
 20
5718402.5
 30
0.0
  0
SEQEND
  5
359
330
0
100
AcDbEntity
  8
siatka
  0
POLYLINE
  5
35A
330
20
100
AcDbEntity
  8
siatka
  6
Continuous
 62
     7
370
    13
100
AcDb2dPolyline
 66
     1
 10
0.0
 20
0.0
 30
0.0
 70
   128
  0
VERTEX
  5
35B
330
35A
100
AcDbEntity
  8
siatka
100
AcDbVertex
100
AcDb2dVertex
 10
7566547.5
 20
5718450.0
 30
0.0
  0
VERTEX
  5
35C
330
35A
100
AcDbEntity
  8
siatka
100
AcDbVertex
100
AcDb2dVertex
 10
7566552.5
 20
5718450.0
 30
0.0
  0
SEQEND
  5
35D
330
0
100
AcDbEntity
  8
siatka
  0
POLYLINE
  5
35E
330
20
100
AcDbEntity
  8
siatka
  6
Continuous
 62
     7
370
    13
100
AcDb2dPolyline
 66
     1
 10
0.0
 20
0.0
 30
0.0
 70
   128
  0
VERTEX
  5
35F
330
35E
100
AcDbEntity
  8
siatka
100
AcDbVertex
100
AcDb2dVertex
 10
7566550.000000001
 20
5718447.499999999
 30
0.0
  0
VERTEX
  5
360
330
35E
100
AcDbEntity
  8
siatka
100
AcDbVertex
100
AcDb2dVertex
 10
7566550.000000001
 20
5718452.5
 30
0.0
  0
SEQEND
  5
361
330
0
100
AcDbEntity
  8
siatka
  0
POLYLINE
  5
362
330
20
100
AcDbEntity
  8
siatka
  6
Continuous
 62
     7
370
    13
100
AcDb2dPolyline
 66
     1
 10
0.0
 20
0.0
 30
0.0
 70
   128
  0
VERTEX
  5
363
330
362
100
AcDbEntity
  8
siatka
100
AcDbVertex
100
AcDb2dVertex
 10
7566597.5
 20
5718450.0
 30
0.0
  0
VERTEX
  5
364
330
362
100
AcDbEntity
  8
siatka
100
AcDbVertex
100
AcDb2dVertex
 10
7566602.5
 20
5718450.0
 30
0.0
  0
SEQEND
  5
365
330
0
100
AcDbEntity
  8
siatka
  0
POLYLINE
  5
366
330
20
100
AcDbEntity
  8
siatka
  6
Continuous
 62
     7
370
    13
100
AcDb2dPolyline
 66
     1
 10
0.0
 20
0.0
 30
0.0
 70
   128
  0
VERTEX
  5
367
330
366
100
AcDbEntity
  8
siatka
100
AcDbVertex
100
AcDb2dVertex
 10
7566600.000000001
 20
5718447.499999999
 30
0.0
  0
VERTEX
  5
368
330
366
100
AcDbEntity
  8
siatka
100
AcDbVertex
100
AcDb2dVertex
 10
7566600.000000001
 20
5718452.5
 30
0.0
  0
SEQEND
  5
369
330
0
100
AcDbEntity
  8
siatka
  0
POLYLINE
  5
36A
330
20
100
AcDbEntity
  8
siatka
  6
Continuous
 62
     7
370
    13
100
AcDb2dPolyline
 66
     1
 10
0.0
 20
0.0
 30
0.0
 70
   128
  0
VERTEX
  5
36B
330
36A
100
AcDbEntity
  8
siatka
100
AcDbVertex
100
AcDb2dVertex
 10
7566647.5
 20
5718450.0
 30
0.0
  0
VERTEX
  5
36C
330
36A
100
AcDbEntity
  8
siatka
100
AcDbVertex
100
AcDb2dVertex
 10
7566652.5
 20
5718450.0
 30
0.0
  0
SEQEND
  5
36D
330
0
100
AcDbEntity
  8
siatka
  0
POLYLINE
  5
36E
330
20
100
AcDbEntity
  8
siatka
  6
Continuous
 62
     7
370
    13
100
AcDb2dPolyline
 66
     1
 10
0.0
 20
0.0
 30
0.0
 70
   128
  0
VERTEX
  5
36F
330
36E
100
AcDbEntity
  8
siatka
100
AcDbVertex
100
AcDb2dVertex
 10
7566650.0
 20
5718447.499999999
 30
0.0
  0
VERTEX
  5
370
330
36E
100
AcDbEntity
  8
siatka
100
AcDbVertex
100
AcDb2dVertex
 10
7566650.0
 20
5718452.5
 30
0.0
  0
SEQEND
  5
371
330
0
100
AcDbEntity
  8
siatka
  0
POLYLINE
  5
372
330
20
100
AcDbEntity
  8
siatka
  6
Continuous
 62
     7
370
    13
100
AcDb2dPolyline
 66
     1
 10
0.0
 20
0.0
 30
0.0
 70
   128
  0
VERTEX
  5
373
330
372
100
AcDbEntity
  8
siatka
100
AcDbVertex
100
AcDb2dVertex
 10
7566697.5
 20
5718450.0
 30
0.0
  0
VERTEX
  5
374
330
372
100
AcDbEntity
  8
siatka
100
AcDbVertex
100
AcDb2dVertex
 10
7566702.499999999
 20
5718450.0
 30
0.0
  0
SEQEND
  5
375
330
0
100
AcDbEntity
  8
siatka
  0
POLYLINE
  5
376
330
20
100
AcDbEntity
  8
siatka
  6
Continuous
 62
     7
370
    13
100
AcDb2dPolyline
 66
     1
 10
0.0
 20
0.0
 30
0.0
 70
   128
  0
VERTEX
  5
377
330
376
100
AcDbEntity
  8
siatka
100
AcDbVertex
100
AcDb2dVertex
 10
7566700.0
 20
5718447.499999999
 30
0.0
  0
VERTEX
  5
378
330
376
100
AcDbEntity
  8
siatka
100
AcDbVertex
100
AcDb2dVertex
 10
7566700.0
 20
5718452.5
 30
0.0
  0
SEQEND
  5
379
330
0
100
AcDbEntity
  8
siatka
  0
POLYLINE
  5
37A
330
20
100
AcDbEntity
  8
siatka
  6
Continuous
 62
     7
370
    13
100
AcDb2dPolyline
 66
     1
 10
0.0
 20
0.0
 30
0.0
 70
   128
  0
VERTEX
  5
37B
330
37A
100
AcDbEntity
  8
siatka
100
AcDbVertex
100
AcDb2dVertex
 10
7566747.499999999
 20
5718450.0
 30
0.0
  0
VERTEX
  5
37C
330
37A
100
AcDbEntity
  8
siatka
100
AcDbVertex
100
AcDb2dVertex
 10
7566752.499999999
 20
5718450.0
 30
0.0
  0
SEQEND
  5
37D
330
0
100
AcDbEntity
  8
siatka
  0
POLYLINE
  5
37E
330
20
100
AcDbEntity
  8
siatka
  6
Continuous
 62
     7
370
    13
100
AcDb2dPolyline
 66
     1
 10
0.0
 20
0.0
 30
0.0
 70
   128
  0
VERTEX
  5
37F
330
37E
100
AcDbEntity
  8
siatka
100
AcDbVertex
100
AcDb2dVertex
 10
7566750.0
 20
5718447.499999999
 30
0.0
  0
VERTEX
  5
380
330
37E
100
AcDbEntity
  8
siatka
100
AcDbVertex
100
AcDb2dVertex
 10
7566750.0
 20
5718452.5
 30
0.0
  0
SEQEND
  5
381
330
0
100
AcDbEntity
  8
siatka
  0
POLYLINE
  5
382
330
20
100
AcDbEntity
  8
siatka
  6
Continuous
 62
     7
370
    13
100
AcDb2dPolyline
 66
     1
 10
0.0
 20
0.0
 30
0.0
 70
   128
  0
VERTEX
  5
383
330
382
100
AcDbEntity
  8
siatka
100
AcDbVertex
100
AcDb2dVertex
 10
7566797.499999999
 20
5718450.0
 30
0.0
  0
VERTEX
  5
384
330
382
100
AcDbEntity
  8
siatka
100
AcDbVertex
100
AcDb2dVertex
 10
7566802.5
 20
5718450.0
 30
0.0
  0
SEQEND
  5
385
330
0
100
AcDbEntity
  8
siatka
  0
POLYLINE
  5
386
330
20
100
AcDbEntity
  8
siatka
  6
Continuous
 62
     7
370
    13
100
AcDb2dPolyline
 66
     1
 10
0.0
 20
0.0
 30
0.0
 70
   128
  0
VERTEX
  5
387
330
386
100
AcDbEntity
  8
siatka
100
AcDbVertex
100
AcDb2dVertex
 10
7566800.0
 20
5718447.499999999
 30
0.0
  0
VERTEX
  5
388
330
386
100
AcDbEntity
  8
siatka
100
AcDbVertex
100
AcDb2dVertex
 10
7566800.0
 20
5718452.5
 30
0.0
  0
SEQEND
  5
389
330
0
100
AcDbEntity
  8
siatka
  0
POLYLINE
  5
38A
330
20
100
AcDbEntity
  8
siatka
  6
Continuous
 62
     7
370
    13
100
AcDb2dPolyline
 66
     1
 10
0.0
 20
0.0
 30
0.0
 70
   128
  0
VERTEX
  5
38B
330
38A
100
AcDbEntity
  8
siatka
100
AcDbVertex
100
AcDb2dVertex
 10
7566847.5
 20
5718450.0
 30
0.0
  0
VERTEX
  5
38C
330
38A
100
AcDbEntity
  8
siatka
100
AcDbVertex
100
AcDb2dVertex
 10
7566852.5
 20
5718450.0
 30
0.0
  0
SEQEND
  5
38D
330
0
100
AcDbEntity
  8
siatka
  0
POLYLINE
  5
38E
330
20
100
AcDbEntity
  8
siatka
  6
Continuous
 62
     7
370
    13
100
AcDb2dPolyline
 66
     1
 10
0.0
 20
0.0
 30
0.0
 70
   128
  0
VERTEX
  5
38F
330
38E
100
AcDbEntity
  8
siatka
100
AcDbVertex
100
AcDb2dVertex
 10
7566850.0
 20
5718447.499999999
 30
0.0
  0
VERTEX
  5
390
330
38E
100
AcDbEntity
  8
siatka
100
AcDbVertex
100
AcDb2dVertex
 10
7566850.0
 20
5718452.5
 30
0.0
  0
SEQEND
  5
391
330
0
100
AcDbEntity
  8
siatka
  0
POLYLINE
  5
392
330
20
100
AcDbEntity
  8
siatka
  6
Continuous
 62
     7
370
    13
100
AcDb2dPolyline
 66
     1
 10
0.0
 20
0.0
 30
0.0
 70
   128
  0
VERTEX
  5
393
330
392
100
AcDbEntity
  8
siatka
100
AcDbVertex
100
AcDb2dVertex
 10
7566897.5
 20
5718450.0
 30
0.0
  0
VERTEX
  5
394
330
392
100
AcDbEntity
  8
siatka
100
AcDbVertex
100
AcDb2dVertex
 10
7566902.5
 20
5718450.0
 30
0.0
  0
SEQEND
  5
395
330
0
100
AcDbEntity
  8
siatka
  0
POLYLINE
  5
396
330
20
100
AcDbEntity
  8
siatka
  6
Continuous
 62
     7
370
    13
100
AcDb2dPolyline
 66
     1
 10
0.0
 20
0.0
 30
0.0
 70
   128
  0
VERTEX
  5
397
330
396
100
AcDbEntity
  8
siatka
100
AcDbVertex
100
AcDb2dVertex
 10
7566900.0
 20
5718447.499999999
 30
0.0
  0
VERTEX
  5
398
330
396
100
AcDbEntity
  8
siatka
100
AcDbVertex
100
AcDb2dVertex
 10
7566900.0
 20
5718452.5
 30
0.0
  0
SEQEND
  5
399
330
0
100
AcDbEntity
  8
siatka
  0
POLYLINE
  5
39A
330
20
100
AcDbEntity
  8
siatka
  6
Continuous
 62
     7
370
    13
100
AcDb2dPolyline
 66
     1
 10
0.0
 20
0.0
 30
0.0
 70
   128
  0
VERTEX
  5
39B
330
39A
100
AcDbEntity
  8
siatka
100
AcDbVertex
100
AcDb2dVertex
 10
7566947.5
 20
5718450.0
 30
0.0
  0
VERTEX
  5
39C
330
39A
100
AcDbEntity
  8
siatka
100
AcDbVertex
100
AcDb2dVertex
 10
7566952.5
 20
5718450.0
 30
0.0
  0
SEQEND
  5
39D
330
0
100
AcDbEntity
  8
siatka
  0
POLYLINE
  5
39E
330
20
100
AcDbEntity
  8
siatka
  6
Continuous
 62
     7
370
    13
100
AcDb2dPolyline
 66
     1
 10
0.0
 20
0.0
 30
0.0
 70
   128
  0
VERTEX
  5
39F
330
39E
100
AcDbEntity
  8
siatka
100
AcDbVertex
100
AcDb2dVertex
 10
7566950.0
 20
5718447.499999999
 30
0.0
  0
VERTEX
  5
3A0
330
39E
100
AcDbEntity
  8
siatka
100
AcDbVertex
100
AcDb2dVertex
 10
7566950.0
 20
5718452.5
 30
0.0
  0
SEQEND
  5
3A1
330
0
100
AcDbEntity
  8
siatka
  0
POLYLINE
  5
3A2
330
20
100
AcDbEntity
  8
siatka
  6
Continuous
 62
     7
370
    13
100
AcDb2dPolyline
 66
     1
 10
0.0
 20
0.0
 30
0.0
 70
   128
  0
VERTEX
  5
3A3
330
3A2
100
AcDbEntity
  8
siatka
100
AcDbVertex
100
AcDb2dVertex
 10
7566547.5
 20
5718500.0
 30
0.0
  0
VERTEX
  5
3A4
330
3A2
100
AcDbEntity
  8
siatka
100
AcDbVertex
100
AcDb2dVertex
 10
7566552.5
 20
5718500.0
 30
0.0
  0
SEQEND
  5
3A5
330
0
100
AcDbEntity
  8
siatka
  0
POLYLINE
  5
3A6
330
20
100
AcDbEntity
  8
siatka
  6
Continuous
 62
     7
370
    13
100
AcDb2dPolyline
 66
     1
 10
0.0
 20
0.0
 30
0.0
 70
   128
  0
VERTEX
  5
3A7
330
3A6
100
AcDbEntity
  8
siatka
100
AcDbVertex
100
AcDb2dVertex
 10
7566550.000000001
 20
5718497.499999999
 30
0.0
  0
VERTEX
  5
3A8
330
3A6
100
AcDbEntity
  8
siatka
100
AcDbVertex
100
AcDb2dVertex
 10
7566550.000000001
 20
5718502.5
 30
0.0
  0
SEQEND
  5
3A9
330
0
100
AcDbEntity
  8
siatka
  0
POLYLINE
  5
3AA
330
20
100
AcDbEntity
  8
siatka
  6
Continuous
 62
     7
370
    13
100
AcDb2dPolyline
 66
     1
 10
0.0
 20
0.0
 30
0.0
 70
   128
  0
VERTEX
  5
3AB
330
3AA
100
AcDbEntity
  8
siatka
100
AcDbVertex
100
AcDb2dVertex
 10
7566597.5
 20
5718500.0
 30
0.0
  0
VERTEX
  5
3AC
330
3AA
100
AcDbEntity
  8
siatka
100
AcDbVertex
100
AcDb2dVertex
 10
7566602.5
 20
5718500.0
 30
0.0
  0
SEQEND
  5
3AD
330
0
100
AcDbEntity
  8
siatka
  0
POLYLINE
  5
3AE
330
20
100
AcDbEntity
  8
siatka
  6
Continuous
 62
     7
370
    13
100
AcDb2dPolyline
 66
     1
 10
0.0
 20
0.0
 30
0.0
 70
   128
  0
VERTEX
  5
3AF
330
3AE
100
AcDbEntity
  8
siatka
100
AcDbVertex
100
AcDb2dVertex
 10
7566600.000000001
 20
5718497.499999999
 30
0.0
  0
VERTEX
  5
3B0
330
3AE
100
AcDbEntity
  8
siatka
100
AcDbVertex
100
AcDb2dVertex
 10
7566600.000000001
 20
5718502.5
 30
0.0
  0
SEQEND
  5
3B1
330
0
100
AcDbEntity
  8
siatka
  0
POLYLINE
  5
3B2
330
20
100
AcDbEntity
  8
siatka
  6
Continuous
 62
     7
370
    13
100
AcDb2dPolyline
 66
     1
 10
0.0
 20
0.0
 30
0.0
 70
   128
  0
VERTEX
  5
3B3
330
3B2
100
AcDbEntity
  8
siatka
100
AcDbVertex
100
AcDb2dVertex
 10
7566647.5
 20
5718500.0
 30
0.0
  0
VERTEX
  5
3B4
330
3B2
100
AcDbEntity
  8
siatka
100
AcDbVertex
100
AcDb2dVertex
 10
7566652.5
 20
5718500.0
 30
0.0
  0
SEQEND
  5
3B5
330
0
100
AcDbEntity
  8
siatka
  0
POLYLINE
  5
3B6
330
20
100
AcDbEntity
  8
siatka
  6
Continuous
 62
     7
370
    13
100
AcDb2dPolyline
 66
     1
 10
0.0
 20
0.0
 30
0.0
 70
   128
  0
VERTEX
  5
3B7
330
3B6
100
AcDbEntity
  8
siatka
100
AcDbVertex
100
AcDb2dVertex
 10
7566650.0
 20
5718497.499999999
 30
0.0
  0
VERTEX
  5
3B8
330
3B6
100
AcDbEntity
  8
siatka
100
AcDbVertex
100
AcDb2dVertex
 10
7566650.0
 20
5718502.5
 30
0.0
  0
SEQEND
  5
3B9
330
0
100
AcDbEntity
  8
siatka
  0
POLYLINE
  5
3BA
330
20
100
AcDbEntity
  8
siatka
  6
Continuous
 62
     7
370
    13
100
AcDb2dPolyline
 66
     1
 10
0.0
 20
0.0
 30
0.0
 70
   128
  0
VERTEX
  5
3BB
330
3BA
100
AcDbEntity
  8
siatka
100
AcDbVertex
100
AcDb2dVertex
 10
7566697.5
 20
5718500.0
 30
0.0
  0
VERTEX
  5
3BC
330
3BA
100
AcDbEntity
  8
siatka
100
AcDbVertex
100
AcDb2dVertex
 10
7566702.499999999
 20
5718500.0
 30
0.0
  0
SEQEND
  5
3BD
330
0
100
AcDbEntity
  8
siatka
  0
POLYLINE
  5
3BE
330
20
100
AcDbEntity
  8
siatka
  6
Continuous
 62
     7
370
    13
100
AcDb2dPolyline
 66
     1
 10
0.0
 20
0.0
 30
0.0
 70
   128
  0
VERTEX
  5
3BF
330
3BE
100
AcDbEntity
  8
siatka
100
AcDbVertex
100
AcDb2dVertex
 10
7566700.0
 20
5718497.499999999
 30
0.0
  0
VERTEX
  5
3C0
330
3BE
100
AcDbEntity
  8
siatka
100
AcDbVertex
100
AcDb2dVertex
 10
7566700.0
 20
5718502.5
 30
0.0
  0
SEQEND
  5
3C1
330
0
100
AcDbEntity
  8
siatka
  0
POLYLINE
  5
3C2
330
20
100
AcDbEntity
  8
siatka
  6
Continuous
 62
     7
370
    13
100
AcDb2dPolyline
 66
     1
 10
0.0
 20
0.0
 30
0.0
 70
   128
  0
VERTEX
  5
3C3
330
3C2
100
AcDbEntity
  8
siatka
100
AcDbVertex
100
AcDb2dVertex
 10
7566747.499999999
 20
5718500.0
 30
0.0
  0
VERTEX
  5
3C4
330
3C2
100
AcDbEntity
  8
siatka
100
AcDbVertex
100
AcDb2dVertex
 10
7566752.499999999
 20
5718500.0
 30
0.0
  0
SEQEND
  5
3C5
330
0
100
AcDbEntity
  8
siatka
  0
POLYLINE
  5
3C6
330
20
100
AcDbEntity
  8
siatka
  6
Continuous
 62
     7
370
    13
100
AcDb2dPolyline
 66
     1
 10
0.0
 20
0.0
 30
0.0
 70
   128
  0
VERTEX
  5
3C7
330
3C6
100
AcDbEntity
  8
siatka
100
AcDbVertex
100
AcDb2dVertex
 10
7566750.0
 20
5718497.499999999
 30
0.0
  0
VERTEX
  5
3C8
330
3C6
100
AcDbEntity
  8
siatka
100
AcDbVertex
100
AcDb2dVertex
 10
7566750.0
 20
5718502.5
 30
0.0
  0
SEQEND
  5
3C9
330
0
100
AcDbEntity
  8
siatka
  0
POLYLINE
  5
3CA
330
20
100
AcDbEntity
  8
siatka
  6
Continuous
 62
     7
370
    13
100
AcDb2dPolyline
 66
     1
 10
0.0
 20
0.0
 30
0.0
 70
   128
  0
VERTEX
  5
3CB
330
3CA
100
AcDbEntity
  8
siatka
100
AcDbVertex
100
AcDb2dVertex
 10
7566797.499999999
 20
5718500.0
 30
0.0
  0
VERTEX
  5
3CC
330
3CA
100
AcDbEntity
  8
siatka
100
AcDbVertex
100
AcDb2dVertex
 10
7566802.5
 20
5718500.0
 30
0.0
  0
SEQEND
  5
3CD
330
0
100
AcDbEntity
  8
siatka
  0
POLYLINE
  5
3CE
330
20
100
AcDbEntity
  8
siatka
  6
Continuous
 62
     7
370
    13
100
AcDb2dPolyline
 66
     1
 10
0.0
 20
0.0
 30
0.0
 70
   128
  0
VERTEX
  5
3CF
330
3CE
100
AcDbEntity
  8
siatka
100
AcDbVertex
100
AcDb2dVertex
 10
7566800.0
 20
5718497.499999999
 30
0.0
  0
VERTEX
  5
3D0
330
3CE
100
AcDbEntity
  8
siatka
100
AcDbVertex
100
AcDb2dVertex
 10
7566800.0
 20
5718502.5
 30
0.0
  0
SEQEND
  5
3D1
330
0
100
AcDbEntity
  8
siatka
  0
POLYLINE
  5
3D2
330
20
100
AcDbEntity
  8
siatka
  6
Continuous
 62
     7
370
    13
100
AcDb2dPolyline
 66
     1
 10
0.0
 20
0.0
 30
0.0
 70
   128
  0
VERTEX
  5
3D3
330
3D2
100
AcDbEntity
  8
siatka
100
AcDbVertex
100
AcDb2dVertex
 10
7566847.5
 20
5718500.0
 30
0.0
  0
VERTEX
  5
3D4
330
3D2
100
AcDbEntity
  8
siatka
100
AcDbVertex
100
AcDb2dVertex
 10
7566852.5
 20
5718500.0
 30
0.0
  0
SEQEND
  5
3D5
330
0
100
AcDbEntity
  8
siatka
  0
POLYLINE
  5
3D6
330
20
100
AcDbEntity
  8
siatka
  6
Continuous
 62
     7
370
    13
100
AcDb2dPolyline
 66
     1
 10
0.0
 20
0.0
 30
0.0
 70
   128
  0
VERTEX
  5
3D7
330
3D6
100
AcDbEntity
  8
siatka
100
AcDbVertex
100
AcDb2dVertex
 10
7566850.0
 20
5718497.499999999
 30
0.0
  0
VERTEX
  5
3D8
330
3D6
100
AcDbEntity
  8
siatka
100
AcDbVertex
100
AcDb2dVertex
 10
7566850.0
 20
5718502.5
 30
0.0
  0
SEQEND
  5
3D9
330
0
100
AcDbEntity
  8
siatka
  0
POLYLINE
  5
3DA
330
20
100
AcDbEntity
  8
siatka
  6
Continuous
 62
     7
370
    13
100
AcDb2dPolyline
 66
     1
 10
0.0
 20
0.0
 30
0.0
 70
   128
  0
VERTEX
  5
3DB
330
3DA
100
AcDbEntity
  8
siatka
100
AcDbVertex
100
AcDb2dVertex
 10
7566897.5
 20
5718500.0
 30
0.0
  0
VERTEX
  5
3DC
330
3DA
100
AcDbEntity
  8
siatka
100
AcDbVertex
100
AcDb2dVertex
 10
7566902.5
 20
5718500.0
 30
0.0
  0
SEQEND
  5
3DD
330
0
100
AcDbEntity
  8
siatka
  0
POLYLINE
  5
3DE
330
20
100
AcDbEntity
  8
siatka
  6
Continuous
 62
     7
370
    13
100
AcDb2dPolyline
 66
     1
 10
0.0
 20
0.0
 30
0.0
 70
   128
  0
VERTEX
  5
3DF
330
3DE
100
AcDbEntity
  8
siatka
100
AcDbVertex
100
AcDb2dVertex
 10
7566900.0
 20
5718497.499999999
 30
0.0
  0
VERTEX
  5
3E0
330
3DE
100
AcDbEntity
  8
siatka
100
AcDbVertex
100
AcDb2dVertex
 10
7566900.0
 20
5718502.5
 30
0.0
  0
SEQEND
  5
3E1
330
0
100
AcDbEntity
  8
siatka
  0
POLYLINE
  5
3E2
330
20
100
AcDbEntity
  8
siatka
  6
Continuous
 62
     7
370
    13
100
AcDb2dPolyline
 66
     1
 10
0.0
 20
0.0
 30
0.0
 70
   128
  0
VERTEX
  5
3E3
330
3E2
100
AcDbEntity
  8
siatka
100
AcDbVertex
100
AcDb2dVertex
 10
7566947.5
 20
5718500.0
 30
0.0
  0
VERTEX
  5
3E4
330
3E2
100
AcDbEntity
  8
siatka
100
AcDbVertex
100
AcDb2dVertex
 10
7566952.5
 20
5718500.0
 30
0.0
  0
SEQEND
  5
3E5
330
0
100
AcDbEntity
  8
siatka
  0
POLYLINE
  5
3E6
330
20
100
AcDbEntity
  8
siatka
  6
Continuous
 62
     7
370
    13
100
AcDb2dPolyline
 66
     1
 10
0.0
 20
0.0
 30
0.0
 70
   128
  0
VERTEX
  5
3E7
330
3E6
100
AcDbEntity
  8
siatka
100
AcDbVertex
100
AcDb2dVertex
 10
7566950.0
 20
5718497.499999999
 30
0.0
  0
VERTEX
  5
3E8
330
3E6
100
AcDbEntity
  8
siatka
100
AcDbVertex
100
AcDb2dVertex
 10
7566950.0
 20
5718502.5
 30
0.0
  0
SEQEND
  5
3E9
330
0
100
AcDbEntity
  8
siatka
  0
POLYLINE
  5
3EA
330
20
100
AcDbEntity
  8
siatka
  6
Continuous
 62
     7
370
    13
100
AcDb2dPolyline
 66
     1
 10
0.0
 20
0.0
 30
0.0
 70
   128
  0
VERTEX
  5
3EB
330
3EA
100
AcDbEntity
  8
siatka
100
AcDbVertex
100
AcDb2dVertex
 10
7566547.5
 20
5718550.0
 30
0.0
  0
VERTEX
  5
3EC
330
3EA
100
AcDbEntity
  8
siatka
100
AcDbVertex
100
AcDb2dVertex
 10
7566552.5
 20
5718550.0
 30
0.0
  0
SEQEND
  5
3ED
330
0
100
AcDbEntity
  8
siatka
  0
POLYLINE
  5
3EE
330
20
100
AcDbEntity
  8
siatka
  6
Continuous
 62
     7
370
    13
100
AcDb2dPolyline
 66
     1
 10
0.0
 20
0.0
 30
0.0
 70
   128
  0
VERTEX
  5
3EF
330
3EE
100
AcDbEntity
  8
siatka
100
AcDbVertex
100
AcDb2dVertex
 10
7566550.000000001
 20
5718547.5
 30
0.0
  0
VERTEX
  5
3F0
330
3EE
100
AcDbEntity
  8
siatka
100
AcDbVertex
100
AcDb2dVertex
 10
7566550.000000001
 20
5718552.5
 30
0.0
  0
SEQEND
  5
3F1
330
0
100
AcDbEntity
  8
siatka
  0
POLYLINE
  5
3F2
330
20
100
AcDbEntity
  8
siatka
  6
Continuous
 62
     7
370
    13
100
AcDb2dPolyline
 66
     1
 10
0.0
 20
0.0
 30
0.0
 70
   128
  0
VERTEX
  5
3F3
330
3F2
100
AcDbEntity
  8
siatka
100
AcDbVertex
100
AcDb2dVertex
 10
7566597.5
 20
5718550.0
 30
0.0
  0
VERTEX
  5
3F4
330
3F2
100
AcDbEntity
  8
siatka
100
AcDbVertex
100
AcDb2dVertex
 10
7566602.5
 20
5718550.0
 30
0.0
  0
SEQEND
  5
3F5
330
0
100
AcDbEntity
  8
siatka
  0
POLYLINE
  5
3F6
330
20
100
AcDbEntity
  8
siatka
  6
Continuous
 62
     7
370
    13
100
AcDb2dPolyline
 66
     1
 10
0.0
 20
0.0
 30
0.0
 70
   128
  0
VERTEX
  5
3F7
330
3F6
100
AcDbEntity
  8
siatka
100
AcDbVertex
100
AcDb2dVertex
 10
7566600.000000001
 20
5718547.5
 30
0.0
  0
VERTEX
  5
3F8
330
3F6
100
AcDbEntity
  8
siatka
100
AcDbVertex
100
AcDb2dVertex
 10
7566600.000000001
 20
5718552.5
 30
0.0
  0
SEQEND
  5
3F9
330
0
100
AcDbEntity
  8
siatka
  0
POLYLINE
  5
3FA
330
20
100
AcDbEntity
  8
siatka
  6
Continuous
 62
     7
370
    13
100
AcDb2dPolyline
 66
     1
 10
0.0
 20
0.0
 30
0.0
 70
   128
  0
VERTEX
  5
3FB
330
3FA
100
AcDbEntity
  8
siatka
100
AcDbVertex
100
AcDb2dVertex
 10
7566647.5
 20
5718550.0
 30
0.0
  0
VERTEX
  5
3FC
330
3FA
100
AcDbEntity
  8
siatka
100
AcDbVertex
100
AcDb2dVertex
 10
7566652.5
 20
5718550.0
 30
0.0
  0
SEQEND
  5
3FD
330
0
100
AcDbEntity
  8
siatka
  0
POLYLINE
  5
3FE
330
20
100
AcDbEntity
  8
siatka
  6
Continuous
 62
     7
370
    13
100
AcDb2dPolyline
 66
     1
 10
0.0
 20
0.0
 30
0.0
 70
   128
  0
VERTEX
  5
3FF
330
3FE
100
AcDbEntity
  8
siatka
100
AcDbVertex
100
AcDb2dVertex
 10
7566650.0
 20
5718547.5
 30
0.0
  0
VERTEX
  5
400
330
3FE
100
AcDbEntity
  8
siatka
100
AcDbVertex
100
AcDb2dVertex
 10
7566650.0
 20
5718552.5
 30
0.0
  0
SEQEND
  5
401
330
0
100
AcDbEntity
  8
siatka
  0
POLYLINE
  5
402
330
20
100
AcDbEntity
  8
siatka
  6
Continuous
 62
     7
370
    13
100
AcDb2dPolyline
 66
     1
 10
0.0
 20
0.0
 30
0.0
 70
   128
  0
VERTEX
  5
403
330
402
100
AcDbEntity
  8
siatka
100
AcDbVertex
100
AcDb2dVertex
 10
7566697.5
 20
5718550.0
 30
0.0
  0
VERTEX
  5
404
330
402
100
AcDbEntity
  8
siatka
100
AcDbVertex
100
AcDb2dVertex
 10
7566702.499999999
 20
5718550.0
 30
0.0
  0
SEQEND
  5
405
330
0
100
AcDbEntity
  8
siatka
  0
POLYLINE
  5
406
330
20
100
AcDbEntity
  8
siatka
  6
Continuous
 62
     7
370
    13
100
AcDb2dPolyline
 66
     1
 10
0.0
 20
0.0
 30
0.0
 70
   128
  0
VERTEX
  5
407
330
406
100
AcDbEntity
  8
siatka
100
AcDbVertex
100
AcDb2dVertex
 10
7566700.0
 20
5718547.5
 30
0.0
  0
VERTEX
  5
408
330
406
100
AcDbEntity
  8
siatka
100
AcDbVertex
100
AcDb2dVertex
 10
7566700.0
 20
5718552.5
 30
0.0
  0
SEQEND
  5
409
330
0
100
AcDbEntity
  8
siatka
  0
POLYLINE
  5
40A
330
20
100
AcDbEntity
  8
siatka
  6
Continuous
 62
     7
370
    13
100
AcDb2dPolyline
 66
     1
 10
0.0
 20
0.0
 30
0.0
 70
   128
  0
VERTEX
  5
40B
330
40A
100
AcDbEntity
  8
siatka
100
AcDbVertex
100
AcDb2dVertex
 10
7566747.499999999
 20
5718550.0
 30
0.0
  0
VERTEX
  5
40C
330
40A
100
AcDbEntity
  8
siatka
100
AcDbVertex
100
AcDb2dVertex
 10
7566752.499999999
 20
5718550.0
 30
0.0
  0
SEQEND
  5
40D
330
0
100
AcDbEntity
  8
siatka
  0
POLYLINE
  5
40E
330
20
100
AcDbEntity
  8
siatka
  6
Continuous
 62
     7
370
    13
100
AcDb2dPolyline
 66
     1
 10
0.0
 20
0.0
 30
0.0
 70
   128
  0
VERTEX
  5
40F
330
40E
100
AcDbEntity
  8
siatka
100
AcDbVertex
100
AcDb2dVertex
 10
7566750.0
 20
5718547.5
 30
0.0
  0
VERTEX
  5
410
330
40E
100
AcDbEntity
  8
siatka
100
AcDbVertex
100
AcDb2dVertex
 10
7566750.0
 20
5718552.5
 30
0.0
  0
SEQEND
  5
411
330
0
100
AcDbEntity
  8
siatka
  0
POLYLINE
  5
412
330
20
100
AcDbEntity
  8
siatka
  6
Continuous
 62
     7
370
    13
100
AcDb2dPolyline
 66
     1
 10
0.0
 20
0.0
 30
0.0
 70
   128
  0
VERTEX
  5
413
330
412
100
AcDbEntity
  8
siatka
100
AcDbVertex
100
AcDb2dVertex
 10
7566797.499999999
 20
5718550.0
 30
0.0
  0
VERTEX
  5
414
330
412
100
AcDbEntity
  8
siatka
100
AcDbVertex
100
AcDb2dVertex
 10
7566802.5
 20
5718550.0
 30
0.0
  0
SEQEND
  5
415
330
0
100
AcDbEntity
  8
siatka
  0
POLYLINE
  5
416
330
20
100
AcDbEntity
  8
siatka
  6
Continuous
 62
     7
370
    13
100
AcDb2dPolyline
 66
     1
 10
0.0
 20
0.0
 30
0.0
 70
   128
  0
VERTEX
  5
417
330
416
100
AcDbEntity
  8
siatka
100
AcDbVertex
100
AcDb2dVertex
 10
7566800.0
 20
5718547.5
 30
0.0
  0
VERTEX
  5
418
330
416
100
AcDbEntity
  8
siatka
100
AcDbVertex
100
AcDb2dVertex
 10
7566800.0
 20
5718552.5
 30
0.0
  0
SEQEND
  5
419
330
0
100
AcDbEntity
  8
siatka
  0
POLYLINE
  5
41A
330
20
100
AcDbEntity
  8
siatka
  6
Continuous
 62
     7
370
    13
100
AcDb2dPolyline
 66
     1
 10
0.0
 20
0.0
 30
0.0
 70
   128
  0
VERTEX
  5
41B
330
41A
100
AcDbEntity
  8
siatka
100
AcDbVertex
100
AcDb2dVertex
 10
7566847.5
 20
5718550.0
 30
0.0
  0
VERTEX
  5
41C
330
41A
100
AcDbEntity
  8
siatka
100
AcDbVertex
100
AcDb2dVertex
 10
7566852.5
 20
5718550.0
 30
0.0
  0
SEQEND
  5
41D
330
0
100
AcDbEntity
  8
siatka
  0
POLYLINE
  5
41E
330
20
100
AcDbEntity
  8
siatka
  6
Continuous
 62
     7
370
    13
100
AcDb2dPolyline
 66
     1
 10
0.0
 20
0.0
 30
0.0
 70
   128
  0
VERTEX
  5
41F
330
41E
100
AcDbEntity
  8
siatka
100
AcDbVertex
100
AcDb2dVertex
 10
7566850.0
 20
5718547.5
 30
0.0
  0
VERTEX
  5
420
330
41E
100
AcDbEntity
  8
siatka
100
AcDbVertex
100
AcDb2dVertex
 10
7566850.0
 20
5718552.5
 30
0.0
  0
SEQEND
  5
421
330
0
100
AcDbEntity
  8
siatka
  0
POLYLINE
  5
422
330
20
100
AcDbEntity
  8
siatka
  6
Continuous
 62
     7
370
    13
100
AcDb2dPolyline
 66
     1
 10
0.0
 20
0.0
 30
0.0
 70
   128
  0
VERTEX
  5
423
330
422
100
AcDbEntity
  8
siatka
100
AcDbVertex
100
AcDb2dVertex
 10
7566897.5
 20
5718550.0
 30
0.0
  0
VERTEX
  5
424
330
422
100
AcDbEntity
  8
siatka
100
AcDbVertex
100
AcDb2dVertex
 10
7566902.5
 20
5718550.0
 30
0.0
  0
SEQEND
  5
425
330
0
100
AcDbEntity
  8
siatka
  0
POLYLINE
  5
426
330
20
100
AcDbEntity
  8
siatka
  6
Continuous
 62
     7
370
    13
100
AcDb2dPolyline
 66
     1
 10
0.0
 20
0.0
 30
0.0
 70
   128
  0
VERTEX
  5
427
330
426
100
AcDbEntity
  8
siatka
100
AcDbVertex
100
AcDb2dVertex
 10
7566900.0
 20
5718547.5
 30
0.0
  0
VERTEX
  5
428
330
426
100
AcDbEntity
  8
siatka
100
AcDbVertex
100
AcDb2dVertex
 10
7566900.0
 20
5718552.5
 30
0.0
  0
SEQEND
  5
429
330
0
100
AcDbEntity
  8
siatka
  0
POLYLINE
  5
42A
330
20
100
AcDbEntity
  8
siatka
  6
Continuous
 62
     7
370
    13
100
AcDb2dPolyline
 66
     1
 10
0.0
 20
0.0
 30
0.0
 70
   128
  0
VERTEX
  5
42B
330
42A
100
AcDbEntity
  8
siatka
100
AcDbVertex
100
AcDb2dVertex
 10
7566947.5
 20
5718550.0
 30
0.0
  0
VERTEX
  5
42C
330
42A
100
AcDbEntity
  8
siatka
100
AcDbVertex
100
AcDb2dVertex
 10
7566952.5
 20
5718550.0
 30
0.0
  0
SEQEND
  5
42D
330
0
100
AcDbEntity
  8
siatka
  0
POLYLINE
  5
42E
330
20
100
AcDbEntity
  8
siatka
  6
Continuous
 62
     7
370
    13
100
AcDb2dPolyline
 66
     1
 10
0.0
 20
0.0
 30
0.0
 70
   128
  0
VERTEX
  5
42F
330
42E
100
AcDbEntity
  8
siatka
100
AcDbVertex
100
AcDb2dVertex
 10
7566950.0
 20
5718547.5
 30
0.0
  0
VERTEX
  5
430
330
42E
100
AcDbEntity
  8
siatka
100
AcDbVertex
100
AcDb2dVertex
 10
7566950.0
 20
5718552.5
 30
0.0
  0
SEQEND
  5
431
330
0
100
AcDbEntity
  8
siatka
  0
POLYLINE
  5
432
330
20
100
AcDbEntity
  8
siatka
  6
Continuous
 62
     7
370
    13
100
AcDb2dPolyline
 66
     1
 10
0.0
 20
0.0
 30
0.0
 70
   128
  0
VERTEX
  5
433
330
432
100
AcDbEntity
  8
siatka
100
AcDbVertex
100
AcDb2dVertex
 10
7566547.5
 20
5718600.0
 30
0.0
  0
VERTEX
  5
434
330
432
100
AcDbEntity
  8
siatka
100
AcDbVertex
100
AcDb2dVertex
 10
7566552.5
 20
5718600.0
 30
0.0
  0
SEQEND
  5
435
330
0
100
AcDbEntity
  8
siatka
  0
POLYLINE
  5
436
330
20
100
AcDbEntity
  8
siatka
  6
Continuous
 62
     7
370
    13
100
AcDb2dPolyline
 66
     1
 10
0.0
 20
0.0
 30
0.0
 70
   128
  0
VERTEX
  5
437
330
436
100
AcDbEntity
  8
siatka
100
AcDbVertex
100
AcDb2dVertex
 10
7566550.000000001
 20
5718597.5
 30
0.0
  0
VERTEX
  5
438
330
436
100
AcDbEntity
  8
siatka
100
AcDbVertex
100
AcDb2dVertex
 10
7566550.000000001
 20
5718602.500000001
 30
0.0
  0
SEQEND
  5
439
330
0
100
AcDbEntity
  8
siatka
  0
POLYLINE
  5
43A
330
20
100
AcDbEntity
  8
siatka
  6
Continuous
 62
     7
370
    13
100
AcDb2dPolyline
 66
     1
 10
0.0
 20
0.0
 30
0.0
 70
   128
  0
VERTEX
  5
43B
330
43A
100
AcDbEntity
  8
siatka
100
AcDbVertex
100
AcDb2dVertex
 10
7566597.5
 20
5718600.0
 30
0.0
  0
VERTEX
  5
43C
330
43A
100
AcDbEntity
  8
siatka
100
AcDbVertex
100
AcDb2dVertex
 10
7566602.5
 20
5718600.0
 30
0.0
  0
SEQEND
  5
43D
330
0
100
AcDbEntity
  8
siatka
  0
POLYLINE
  5
43E
330
20
100
AcDbEntity
  8
siatka
  6
Continuous
 62
     7
370
    13
100
AcDb2dPolyline
 66
     1
 10
0.0
 20
0.0
 30
0.0
 70
   128
  0
VERTEX
  5
43F
330
43E
100
AcDbEntity
  8
siatka
100
AcDbVertex
100
AcDb2dVertex
 10
7566600.000000001
 20
5718597.5
 30
0.0
  0
VERTEX
  5
440
330
43E
100
AcDbEntity
  8
siatka
100
AcDbVertex
100
AcDb2dVertex
 10
7566600.000000001
 20
5718602.500000001
 30
0.0
  0
SEQEND
  5
441
330
0
100
AcDbEntity
  8
siatka
  0
POLYLINE
  5
442
330
20
100
AcDbEntity
  8
siatka
  6
Continuous
 62
     7
370
    13
100
AcDb2dPolyline
 66
     1
 10
0.0
 20
0.0
 30
0.0
 70
   128
  0
VERTEX
  5
443
330
442
100
AcDbEntity
  8
siatka
100
AcDbVertex
100
AcDb2dVertex
 10
7566647.5
 20
5718600.0
 30
0.0
  0
VERTEX
  5
444
330
442
100
AcDbEntity
  8
siatka
100
AcDbVertex
100
AcDb2dVertex
 10
7566652.5
 20
5718600.0
 30
0.0
  0
SEQEND
  5
445
330
0
100
AcDbEntity
  8
siatka
  0
POLYLINE
  5
446
330
20
100
AcDbEntity
  8
siatka
  6
Continuous
 62
     7
370
    13
100
AcDb2dPolyline
 66
     1
 10
0.0
 20
0.0
 30
0.0
 70
   128
  0
VERTEX
  5
447
330
446
100
AcDbEntity
  8
siatka
100
AcDbVertex
100
AcDb2dVertex
 10
7566650.0
 20
5718597.5
 30
0.0
  0
VERTEX
  5
448
330
446
100
AcDbEntity
  8
siatka
100
AcDbVertex
100
AcDb2dVertex
 10
7566650.0
 20
5718602.500000001
 30
0.0
  0
SEQEND
  5
449
330
0
100
AcDbEntity
  8
siatka
  0
POLYLINE
  5
44A
330
20
100
AcDbEntity
  8
siatka
  6
Continuous
 62
     7
370
    13
100
AcDb2dPolyline
 66
     1
 10
0.0
 20
0.0
 30
0.0
 70
   128
  0
VERTEX
  5
44B
330
44A
100
AcDbEntity
  8
siatka
100
AcDbVertex
100
AcDb2dVertex
 10
7566697.5
 20
5718600.0
 30
0.0
  0
VERTEX
  5
44C
330
44A
100
AcDbEntity
  8
siatka
100
AcDbVertex
100
AcDb2dVertex
 10
7566702.499999999
 20
5718600.0
 30
0.0
  0
SEQEND
  5
44D
330
0
100
AcDbEntity
  8
siatka
  0
POLYLINE
  5
44E
330
20
100
AcDbEntity
  8
siatka
  6
Continuous
 62
     7
370
    13
100
AcDb2dPolyline
 66
     1
 10
0.0
 20
0.0
 30
0.0
 70
   128
  0
VERTEX
  5
44F
330
44E
100
AcDbEntity
  8
siatka
100
AcDbVertex
100
AcDb2dVertex
 10
7566700.0
 20
5718597.5
 30
0.0
  0
VERTEX
  5
450
330
44E
100
AcDbEntity
  8
siatka
100
AcDbVertex
100
AcDb2dVertex
 10
7566700.0
 20
5718602.500000001
 30
0.0
  0
SEQEND
  5
451
330
0
100
AcDbEntity
  8
siatka
  0
POLYLINE
  5
452
330
20
100
AcDbEntity
  8
siatka
  6
Continuous
 62
     7
370
    13
100
AcDb2dPolyline
 66
     1
 10
0.0
 20
0.0
 30
0.0
 70
   128
  0
VERTEX
  5
453
330
452
100
AcDbEntity
  8
siatka
100
AcDbVertex
100
AcDb2dVertex
 10
7566747.499999999
 20
5718600.0
 30
0.0
  0
VERTEX
  5
454
330
452
100
AcDbEntity
  8
siatka
100
AcDbVertex
100
AcDb2dVertex
 10
7566752.499999999
 20
5718600.0
 30
0.0
  0
SEQEND
  5
455
330
0
100
AcDbEntity
  8
siatka
  0
POLYLINE
  5
456
330
20
100
AcDbEntity
  8
siatka
  6
Continuous
 62
     7
370
    13
100
AcDb2dPolyline
 66
     1
 10
0.0
 20
0.0
 30
0.0
 70
   128
  0
VERTEX
  5
457
330
456
100
AcDbEntity
  8
siatka
100
AcDbVertex
100
AcDb2dVertex
 10
7566750.0
 20
5718597.5
 30
0.0
  0
VERTEX
  5
458
330
456
100
AcDbEntity
  8
siatka
100
AcDbVertex
100
AcDb2dVertex
 10
7566750.0
 20
5718602.500000001
 30
0.0
  0
SEQEND
  5
459
330
0
100
AcDbEntity
  8
siatka
  0
POLYLINE
  5
45A
330
20
100
AcDbEntity
  8
siatka
  6
Continuous
 62
     7
370
    13
100
AcDb2dPolyline
 66
     1
 10
0.0
 20
0.0
 30
0.0
 70
   128
  0
VERTEX
  5
45B
330
45A
100
AcDbEntity
  8
siatka
100
AcDbVertex
100
AcDb2dVertex
 10
7566797.499999999
 20
5718600.0
 30
0.0
  0
VERTEX
  5
45C
330
45A
100
AcDbEntity
  8
siatka
100
AcDbVertex
100
AcDb2dVertex
 10
7566802.5
 20
5718600.0
 30
0.0
  0
SEQEND
  5
45D
330
0
100
AcDbEntity
  8
siatka
  0
POLYLINE
  5
45E
330
20
100
AcDbEntity
  8
siatka
  6
Continuous
 62
     7
370
    13
100
AcDb2dPolyline
 66
     1
 10
0.0
 20
0.0
 30
0.0
 70
   128
  0
VERTEX
  5
45F
330
45E
100
AcDbEntity
  8
siatka
100
AcDbVertex
100
AcDb2dVertex
 10
7566800.0
 20
5718597.5
 30
0.0
  0
VERTEX
  5
460
330
45E
100
AcDbEntity
  8
siatka
100
AcDbVertex
100
AcDb2dVertex
 10
7566800.0
 20
5718602.500000001
 30
0.0
  0
SEQEND
  5
461
330
0
100
AcDbEntity
  8
siatka
  0
POLYLINE
  5
462
330
20
100
AcDbEntity
  8
siatka
  6
Continuous
 62
     7
370
    13
100
AcDb2dPolyline
 66
     1
 10
0.0
 20
0.0
 30
0.0
 70
   128
  0
VERTEX
  5
463
330
462
100
AcDbEntity
  8
siatka
100
AcDbVertex
100
AcDb2dVertex
 10
7566847.5
 20
5718600.0
 30
0.0
  0
VERTEX
  5
464
330
462
100
AcDbEntity
  8
siatka
100
AcDbVertex
100
AcDb2dVertex
 10
7566852.5
 20
5718600.0
 30
0.0
  0
SEQEND
  5
465
330
0
100
AcDbEntity
  8
siatka
  0
POLYLINE
  5
466
330
20
100
AcDbEntity
  8
siatka
  6
Continuous
 62
     7
370
    13
100
AcDb2dPolyline
 66
     1
 10
0.0
 20
0.0
 30
0.0
 70
   128
  0
VERTEX
  5
467
330
466
100
AcDbEntity
  8
siatka
100
AcDbVertex
100
AcDb2dVertex
 10
7566850.0
 20
5718597.5
 30
0.0
  0
VERTEX
  5
468
330
466
100
AcDbEntity
  8
siatka
100
AcDbVertex
100
AcDb2dVertex
 10
7566850.0
 20
5718602.500000001
 30
0.0
  0
SEQEND
  5
469
330
0
100
AcDbEntity
  8
siatka
  0
POLYLINE
  5
46A
330
20
100
AcDbEntity
  8
siatka
  6
Continuous
 62
     7
370
    13
100
AcDb2dPolyline
 66
     1
 10
0.0
 20
0.0
 30
0.0
 70
   128
  0
VERTEX
  5
46B
330
46A
100
AcDbEntity
  8
siatka
100
AcDbVertex
100
AcDb2dVertex
 10
7566897.5
 20
5718600.0
 30
0.0
  0
VERTEX
  5
46C
330
46A
100
AcDbEntity
  8
siatka
100
AcDbVertex
100
AcDb2dVertex
 10
7566902.5
 20
5718600.0
 30
0.0
  0
SEQEND
  5
46D
330
0
100
AcDbEntity
  8
siatka
  0
POLYLINE
  5
46E
330
20
100
AcDbEntity
  8
siatka
  6
Continuous
 62
     7
370
    13
100
AcDb2dPolyline
 66
     1
 10
0.0
 20
0.0
 30
0.0
 70
   128
  0
VERTEX
  5
46F
330
46E
100
AcDbEntity
  8
siatka
100
AcDbVertex
100
AcDb2dVertex
 10
7566900.0
 20
5718597.5
 30
0.0
  0
VERTEX
  5
470
330
46E
100
AcDbEntity
  8
siatka
100
AcDbVertex
100
AcDb2dVertex
 10
7566900.0
 20
5718602.500000001
 30
0.0
  0
SEQEND
  5
471
330
0
100
AcDbEntity
  8
siatka
  0
POLYLINE
  5
472
330
20
100
AcDbEntity
  8
siatka
  6
Continuous
 62
     7
370
    13
100
AcDb2dPolyline
 66
     1
 10
0.0
 20
0.0
 30
0.0
 70
   128
  0
VERTEX
  5
473
330
472
100
AcDbEntity
  8
siatka
100
AcDbVertex
100
AcDb2dVertex
 10
7566947.5
 20
5718600.0
 30
0.0
  0
VERTEX
  5
474
330
472
100
AcDbEntity
  8
siatka
100
AcDbVertex
100
AcDb2dVertex
 10
7566952.5
 20
5718600.0
 30
0.0
  0
SEQEND
  5
475
330
0
100
AcDbEntity
  8
siatka
  0
POLYLINE
  5
476
330
20
100
AcDbEntity
  8
siatka
  6
Continuous
 62
     7
370
    13
100
AcDb2dPolyline
 66
     1
 10
0.0
 20
0.0
 30
0.0
 70
   128
  0
VERTEX
  5
477
330
476
100
AcDbEntity
  8
siatka
100
AcDbVertex
100
AcDb2dVertex
 10
7566950.0
 20
5718597.5
 30
0.0
  0
VERTEX
  5
478
330
476
100
AcDbEntity
  8
siatka
100
AcDbVertex
100
AcDb2dVertex
 10
7566950.0
 20
5718602.500000001
 30
0.0
  0
SEQEND
  5
479
330
0
100
AcDbEntity
  8
siatka
  0
POINT
  5
502
330
20
100
AcDbEntity
  8
0
100
AcDbPoint
 10
7566674.78
 20
5718123.97
 30
0.0
  0
POINT
  5
503
330
20
100
AcDbEntity
  8
0
100
AcDbPoint
 10
7566697.94
 20
5718159.299999999
 30
0.0
  0
POINT
  5
504
330
20
100
AcDbEntity
  8
0
100
AcDbPoint
 10
7566669.15
 20
5718129.499999999
 30
0.0
  0
POINT
  5
505
330
20
100
AcDbEntity
  8
0
100
AcDbPoint
 10
7566690.7
 20
5718163.99
 30
0.0
  0
POINT
  5
506
330
20
100
AcDbEntity
  8
0
100
AcDbPoint
 10
7566689.889999999
 20
5718164.5
 30
0.0
  0
POINT
  5
507
330
20
100
AcDbEntity
  8
0
100
AcDbPoint
 10
7566684.269999999
 20
5718167.059999999
 30
0.0
  0
POINT
  5
508
330
20
100
AcDbEntity
  8
0
100
AcDbPoint
 10
7566664.24
 20
5718134.36
 30
0.0
  0
POINT
  5
509
330
20
100
AcDbEntity
  8
0
100
AcDbPoint
 10
7566697.519999999
 20
5718159.56
 30
0.0
  0
POINT
  5
50A
330
20
100
AcDbEntity
  8
0
100
AcDbPoint
 10
7566854.99
 20
5718413.400000001
 30
0.0
  0
POINT
  5
50B
330
20
100
AcDbEntity
  8
0
100
AcDbPoint
 10
7566847.980000001
 20
5718417.01
 30
0.0
  0
TEXT
  5
50C
330
20
100
AcDbEntity
  8
Numery_dzialek
 62
     7
370
    20
100
AcDbText
 39
0.2
 10
7566663.039999996
 20
5718149.589999995
 30
0.0
 40
1.0
  1
13-244/2
 41
0.6600000000000001
 11
7566663.039999996
 21
5718150.589999996
 31
0.0
100
AcDbText
 73
     3
  0
TEXT
  5
50D
330
20
100
AcDbEntity
  8
Numery_dzialek
 62
     7
370
    20
100
AcDbText
 39
0.2
 10
7566674.909999997
 20
5718148.199999997
 30
0.0
 40
1.0
  1
13-244/4
 41
0.6600000000000001
 11
7566674.909999997
 21
5718149.199999997
 31
0.0
100
AcDbText
 73
     3
  0
TEXT
  5
50E
330
20
100
AcDbEntity
  8
Numery_dzialek
 62
     7
370
    20
100
AcDbText
 39
0.2
 10
7566733.44
 20
5718248.64
 30
0.0
 40
1.0
  1
13-244/5
 41
0.6600000000000001
 11
7566733.44
 21
5718249.64
 31
0.0
100
AcDbText
 73
     3
  0
TEXT
  5
50F
330
20
100
AcDbEntity
  8
Numery_dzialek
 62
     7
370
    20
100
AcDbText
 39
0.2
 10
7566680.259999996
 20
5718142.419999996
 30
0.0
 40
1.0
  1
13-245/2
 41
0.6600000000000001
 11
7566680.259999996
 21
5718143.419999996
 31
0.0
100
AcDbText
 73
     3
  0
TEXT
  5
510
330
20
100
AcDbEntity
  8
Numery_dzialek
 62
     7
370
    20
100
AcDbText
 39
0.2
 10
7566740.099999996
 20
5718238.839999997
 30
0.0
 40
1.0
  1
13-245/3
 41
0.6600000000000001
 11
7566740.099999996
 21
5718239.839999996
 31
0.0
100
AcDbText
 73
     3
  0
TEXT
  5
511
330
20
100
AcDbEntity
  8
Numery_dzialek
 62
     7
370
    20
100
AcDbText
 39
0.2
 10
7566711.949999996
 20
5718233.959999996
 30
0.0
 40
1.0
  1
13-243/1
 41
0.6600000000000001
 11
7566711.949999996
 21
5718234.959999996
 31
0.0
100
AcDbText
 73
     3
  0
TEXT
  5
512
330
20
100
AcDbEntity
  8
Numery_dzialek
 62
     7
370
    20
100
AcDbText
 39
0.2
 10
7566686.983544331
 20
5718140.256666601
 30
0.0
 40
1.0
  1
13-246/2
 41
0.6600000000000001
 11
7566686.983544331
 21
5718141.256666601
 31
0.0
100
AcDbText
 73
     3
  0
TEXT
  5
513
330
20
100
AcDbEntity
  8
Numery_dzialek
 62
     7
370
    20
100
AcDbText
 39
0.2
 10
7566650.234713907
 20
5718133.000345893
 30
0.0
 40
1.0
  1
13-286/3
 41
0.6600000000000001
 11
7566650.234713907
 21
5718134.000345892
 31
0.0
100
AcDbText
 73
     3
  0
TEXT
  5
514
330
20
100
AcDbEntity
  8
Numery_dzialek
 62
     7
370
    20
100
AcDbText
 39
0.2
 10
7566658.083008445
 20
5718126.071246804
 30
0.0
 40
1.0
  1
13-287/3
 41
0.6600000000000001
 11
7566658.083008445
 21
5718127.071246803
 31
0.0
100
AcDbText
 73
     3
  0
TEXT
  5
515
330
20
100
AcDbEntity
  8
Numery_dzialek
 62
     7
370
    20
100
AcDbText
 39
0.2
 10
7566667.012209952
 20
5718117.796573024
 30
0.0
 40
1.0
  1
13-288/1
 41
0.6600000000000001
 11
7566667.012209952
 21
5718118.796573025
 31
0.0
100
AcDbText
 73
     3
  0
TEXT
  5
516
330
20
100
AcDbEntity
  8
Numery_dzialek
 62
     7
370
    20
100
AcDbText
 39
0.2
 10
7566670.087435298
 20
5718117.063096153
 30
0.0
 40
1.0
  1
13-289/1
 41
0.6600000000000001
 11
7566670.087435298
 21
5718118.063096153
 31
0.0
100
AcDbText
 73
     3
  0
TEXT
  5
517
330
20
100
AcDbEntity
  8
Numery_dzialek
 62
     7
370
    20
100
AcDbText
 39
0.2
 10
7566662.53281268
 20
5718128.972645792
 30
0.0
 40
1.0
  1
13-552
 41
0.6600000000000001
 11
7566662.53281268
 21
5718129.972645792
 31
0.0
100
AcDbText
 73
     3
  0
TEXT
  5
518
330
20
100
AcDbEntity
  8
Numery_dzialek
 62
     7
370
    20
100
AcDbText
 39
0.2
 10
7566783.451799692
 20
5718293.774350854
 30
0.0
 40
1.0
  1
13-246/3
 41
0.6600000000000001
 11
7566783.451799692
 21
5718294.774350854
 31
0.0
100
AcDbText
 73
     3
  0
TEXT
  5
519
330
20
100
AcDbEntity
  8
Numery_dzialek
 62
     7
370
    20
100
AcDbText
 39
0.2
 10
7566844.355913696
 20
5718418.687372329
 30
0.0
 40
1.0
  1
13-213/3
 41
0.6600000000000001
 11
7566844.355913696
 21
5718419.687372329
 31
0.0
100
AcDbText
 73
     3
  0
TEXT
  5
51A
330
20
100
AcDbEntity
  8
Numery_dzialek
 62
     7
370
    20
100
AcDbText
 39
0.2
 10
7566832.519999995
 20
5718425.249999996
 30
0.0
 40
1.0
  1
13-214
 41
0.6600000000000001
 11
7566832.519999995
 21
5718426.249999996
 31
0.0
100
AcDbText
 73
     3
  0
LINE
  5
1000036
330
20
100
AcDbEntity
  8
Dzialki
  6
Continuous
370
    18
100
AcDbLine
 10
7566675.33
 20
5718173.06
 30
0.0
 11
7566832.790000001
 21
5718424.82
 31
0.0
  0
LINE
  5
1000037
330
20
100
AcDbEntity
  8
Dzialki
  6
Continuous
370
    18
100
AcDbLine
 10
7566832.790000001
 20
5718424.82
 30
0.0
 11
7566817.09
 21
5718432.9
 31
0.0
  0
LINE
  5
1000038
330
20
100
AcDbEntity
  8
Dzialki
  6
Continuous
370
    18
100
AcDbLine
 10
7566641.929999999
 20
5718152.110000001
 30
0.0
 11
7566655.809999998
 21
5718141.809999999
 31
0.0
  0
LINE
  5
1000039
330
20
100
AcDbEntity
  8
Dzialki
  6
Continuous
370
    18
100
AcDbLine
 10
7566655.809999998
 20
5718141.809999999
 30
0.0
 11
7566675.33
 21
5718173.06
 31
0.0
  0
LINE
  5
100003A
330
20
100
AcDbEntity
  8
Dzialki
  6
Continuous
370
    18
100
AcDbLine
 10
7566664.24
 20
5718134.36
 30
0.0
 11
7566684.269999999
 21
5718167.059999999
 31
0.0
  0
LINE
  5
100003B
330
20
100
AcDbEntity
  8
Dzialki
  6
Continuous
370
    18
100
AcDbLine
 10
7566684.269999999
 20
5718167.059999999
 30
0.0
 11
7566679.29
 21
5718170.71
 31
0.0
  0
LINE
  5
100003C
330
20
100
AcDbEntity
  8
Dzialki
  6
Continuous
370
    18
100
AcDbLine
 10
7566679.29
 20
5718170.71
 30
0.0
 11
7566675.33
 21
5718173.06
 31
0.0
  0
LINE
  5
100003D
330
20
100
AcDbEntity
  8
Dzialki
  6
Continuous
370
    18
100
AcDbLine
 10
7566655.809999998
 20
5718141.809999999
 30
0.0
 11
7566659.259999998
 21
5718139.25
 31
0.0
  0
LINE
  5
100003E
330
20
100
AcDbEntity
  8
Dzialki
  6
Continuous
370
    18
100
AcDbLine
 10
7566659.259999998
 20
5718139.25
 30
0.0
 11
7566664.24
 21
5718134.36
 31
0.0
  0
LINE
  5
100003F
330
20
100
AcDbEntity
  8
Dzialki
  6
Continuous
370
    18
100
AcDbLine
 10
7566669.15
 20
5718129.499999999
 30
0.0
 11
7566690.7
 21
5718163.99
 31
0.0
  0
LINE
  5
1000040
330
20
100
AcDbEntity
  8
Dzialki
  6
Continuous
370
    18
100
AcDbLine
 10
7566690.7
 20
5718163.99
 30
0.0
 11
7566689.889999999
 21
5718164.5
 31
0.0
  0
LINE
  5
1000041
330
20
100
AcDbEntity
  8
Dzialki
  6
Continuous
370
    18
100
AcDbLine
 10
7566689.889999999
 20
5718164.5
 30
0.0
 11
7566684.269999999
 21
5718167.059999999
 31
0.0
  0
LINE
  5
1000042
330
20
100
AcDbEntity
  8
Dzialki
  6
Continuous
370
    18
100
AcDbLine
 10
7566664.24
 20
5718134.36
 30
0.0
 11
7566669.15
 21
5718129.499999999
 31
0.0
  0
LINE
  5
1000043
330
20
100
AcDbEntity
  8
Dzialki
  6
Continuous
370
    18
100
AcDbLine
 10
7566690.7
 20
5718163.99
 30
0.0
 11
7566847.980000001
 21
5718417.01
 31
0.0
  0
LINE
  5
1000044
330
20
100
AcDbEntity
  8
Dzialki
  6
Continuous
370
    18
100
AcDbLine
 10
7566847.980000001
 20
5718417.01
 30
0.0
 11
7566835.580000001
 21
5718423.38
 31
0.0
  0
LINE
  5
1000045
330
20
100
AcDbEntity
  8
Dzialki
  6
Continuous
370
    18
100
AcDbLine
 10
7566835.580000001
 20
5718423.38
 30
0.0
 11
7566832.790000001
 21
5718424.82
 31
0.0
  0
LINE
  5
1000046
330
20
100
AcDbEntity
  8
Dzialki
  6
Continuous
370
    18
100
AcDbLine
 10
7566674.78
 20
5718123.97
 30
0.0
 11
7566697.94
 21
5718159.299999999
 31
0.0
  0
LINE
  5
1000047
330
20
100
AcDbEntity
  8
Dzialki
  6
Continuous
370
    18
100
AcDbLine
 10
7566697.94
 20
5718159.299999999
 30
0.0
 11
7566697.519999999
 21
5718159.56
 31
0.0
  0
LINE
  5
1000048
330
20
100
AcDbEntity
  8
Dzialki
  6
Continuous
370
    18
100
AcDbLine
 10
7566697.519999999
 20
5718159.56
 30
0.0
 11
7566690.7
 21
5718163.99
 31
0.0
  0
LINE
  5
1000049
330
20
100
AcDbEntity
  8
Dzialki
  6
Continuous
370
    18
100
AcDbLine
 10
7566669.15
 20
5718129.499999999
 30
0.0
 11
7566674.78
 21
5718123.97
 31
0.0
  0
LINE
  5
100004A
330
20
100
AcDbEntity
  8
Dzialki
  6
Continuous
370
    18
100
AcDbLine
 10
7566697.519999999
 20
5718159.56
 30
0.0
 11
7566854.99
 21
5718413.400000001
 31
0.0
  0
LINE
  5
100004B
330
20
100
AcDbEntity
  8
Dzialki
  6
Continuous
370
    18
100
AcDbLine
 10
7566854.99
 20
5718413.400000001
 30
0.0
 11
7566847.980000001
 21
5718417.01
 31
0.0
  0
LINE
  5
100004C
330
20
100
AcDbEntity
  8
Dzialki
  6
Continuous
370
    18
100
AcDbLine
 10
7566704.54
 20
5718155.01
 30
0.0
 11
7566697.94
 21
5718159.299999999
 31
0.0
  0
LINE
  5
100004D
330
20
100
AcDbEntity
  8
Dzialki
  6
Continuous
370
    18
100
AcDbLine
 10
7566674.78
 20
5718123.97
 30
0.0
 11
7566681.19
 21
5718117.64
 31
0.0
  0
LINE
  5
100004E
330
20
100
AcDbEntity
  8
Dzialki
  6
Continuous
370
    18
100
AcDbLine
 10
7566625.889999999
 20
5718093.129999999
 30
0.0
 11
7566651.219999998
 21
5718133.599999999
 31
0.0
  0
LINE
  5
100004F
330
20
100
AcDbEntity
  8
Dzialki
  6
Continuous
370
    18
100
AcDbLine
 10
7566651.219999998
 20
5718133.599999999
 30
0.0
 11
7566639.769999999
 21
5718142.43
 31
0.0
  0
LINE
  5
1000050
330
20
100
AcDbEntity
  8
Dzialki
  6
Continuous
370
    18
100
AcDbLine
 10
7566640.269999999
 20
5718083.259999999
 30
0.0
 11
7566664.379999999
 21
5718121.87
 31
0.0
  0
LINE
  5
1000051
330
20
100
AcDbEntity
  8
Dzialki
  6
Continuous
370
    18
100
AcDbLine
 10
7566664.379999999
 20
5718121.87
 30
0.0
 11
7566653.940000001
 21
5718131.51
 31
0.0
  0
LINE
  5
1000052
330
20
100
AcDbEntity
  8
Dzialki
  6
Continuous
370
    18
100
AcDbLine
 10
7566653.940000001
 20
5718131.51
 30
0.0
 11
7566651.219999998
 21
5718133.599999999
 31
0.0
  0
LINE
  5
1000053
330
20
100
AcDbEntity
  8
Dzialki
  6
Continuous
370
    18
100
AcDbLine
 10
7566544.46
 20
5717914.669999999
 30
0.0
 11
7566670.160000001
 21
5718116.549999999
 31
0.0
  0
LINE
  5
1000054
330
20
100
AcDbEntity
  8
Dzialki
  6
Continuous
370
    18
100
AcDbLine
 10
7566670.160000001
 20
5718116.549999999
 30
0.0
 11
7566664.379999999
 21
5718121.87
 31
0.0
  0
LINE
  5
1000055
330
20
100
AcDbEntity
  8
Dzialki
  6
Continuous
370
    18
100
AcDbLine
 10
7566676.37
 20
5718110.82
 30
0.0
 11
7566670.160000001
 21
5718116.549999999
 31
0.0
  0
LINE
  5
1000056
330
20
100
AcDbEntity
  8
Dzialki
  6
Continuous
370
    18
100
AcDbLine
 10
7566858.599999999
 20
5718411.54
 30
0.0
 11
7566854.99
 21
5718413.400000001
 31
0.0
  0
LINE
  5
1000057
330
20
100
AcDbEntity
  8
Dzialki
  6
Continuous
370
    18
100
AcDbLine
 10
7566961.990000001
 20
5718625.92
 30
0.0
 11
7566835.580000001
 21
5718423.38
 31
0.0
  0
ENDSEC
  0
SECTION
  2
OBJECTS
  0
DICTIONARY
  5
51B
330
0
100
AcDbDictionary
281
     1
  3
ACAD_COLOR
350
100001C
  3
ACAD_GROUP
350
51C
  3
ACAD_LAYOUT
350
51D
  3
ACAD_MATERIAL
350
FFFFFF
  3
ACAD_MLEADERSTYLE
350
100001F
  3
ACAD_MLINESTYLE
350
51E
  3
ACAD_PLOTSETTINGS
350
51F
  3
ACAD_PLOTSTYLENAME
350
520
  3
ACAD_SCALELIST
350
1000021
  3
ACAD_TABLESTYLE
350
100001D
  3
ACAD_VISUALSTYLE
350
1000003
  3
ACAD_WIPEOUT_VARS
350
521
  3
AcDbVariableDictionary
350
1000058
  0
DICTIONARY
  5
1000034
330
20
100
AcDbDictionary
280
     1
281
     1
  3
ACAD_SORTENTS
360
1000035
  0
DICTIONARY
  5
100001C
102
{ACAD_REACTORS
330
51B
102
}
330
51B
100
AcDbDictionary
281
     1
  0
DICTIONARY
  5
51C
102
{ACAD_REACTORS
330
51B
102
}
330
51B
100
AcDbDictionary
281
     1
  0
DICTIONARY
  5
51D
102
{ACAD_REACTORS
330
51B
102
}
330
51B
100
AcDbDictionary
281
     1
  3
Layout
350
23
  3
Model
350
21
  0
DICTIONARY
  5
FFFFFF
102
{ACAD_REACTORS
330
51B
102
}
330
51B
100
AcDbDictionary
281
     1
  3
ByBlock
350
1000001
  3
ByLayer
350
1000000
  3
Global
350
1000002
  0
DICTIONARY
  5
100001F
102
{ACAD_REACTORS
330
51B
102
}
330
51B
100
AcDbDictionary
281
     1
  3
Standard
350
1000020
  0
DICTIONARY
  5
51E
102
{ACAD_REACTORS
330
51B
102
}
330
51B
100
AcDbDictionary
281
     1
  3
L_0_02
350
7
  3
L_0_15
350
E
  3
Standard
350
522
  0
DICTIONARY
  5
51F
102
{ACAD_REACTORS
330
51B
102
}
330
51B
100
AcDbDictionary
281
     1
  0
ACDBDICTIONARYWDFLT
  5
520
102
{ACAD_REACTORS
330
51B
102
}
330
51B
100
AcDbDictionary
281
     1
  3
Normal
350
12
100
AcDbDictionaryWithDefault
340
12
  0
DICTIONARY
  5
1000021
102
{ACAD_REACTORS
330
51B
102
}
330
51B
100
AcDbDictionary
281
     1
  3
A0
350
1000022
  3
A1
350
1000023
  3
A2
350
1000024
  3
A3
350
1000025
  3
A4
350
1000026
  3
A5
350
1000027
  3
A6
350
1000028
  3
A7
350
1000029
  3
A8
350
100002A
  3
A9
350
100002B
  3
B0
350
100002C
  3
B1
350
100002D
  3
B2
350
100002E
  3
B3
350
100002F
  3
B4
350
1000030
  3
B5
350
1000031
  3
B6
350
1000032
  0
DICTIONARY
  5
100001D
102
{ACAD_REACTORS
330
51B
102
}
330
51B
100
AcDbDictionary
281
     1
  3
Standard
350
100001E
  0
DICTIONARY
  5
1000003
102
{ACAD_REACTORS
330
51B
102
}
330
51B
100
AcDbDictionary
281
     1
  3
2dWireframe
350
1000008
  3
Basic
350
100000B
  3
Brighten
350
100000F
  3
ColorChange
350
1000013
  3
Conceptual
350
100000D
  3
Dim
350
100000E
  3
EdgeColorOff
350
1000016
  3
Facepattern
350
1000012
  3
Flat
350
1000004
  3
FlatWithEdges
350
1000005
  3
Gouraud
350
1000006
  3
GouraudWithEdges
350
1000007
  3
Hidden
350
100000A
  3
JitterOff
350
1000014
  3
Linepattern
350
1000011
  3
OverhangOff
350
1000015
  3
Realistic
350
100000C
  3
Shaded
350
100001B
  3
Shaded with edges
350
100001A
  3
Shades of Gray
350
1000017
  3
Sketchy
350
1000018
  3
Thicken
350
1000010
  3
Wireframe
350
1000009
  3
X-Ray
350
1000019
  0
WIPEOUTVARIABLES
  5
521
102
{ACAD_REACTORS
330
51B
102
}
330
51B
100
AcDbWipeoutVariables
 70
     0
  0
DICTIONARY
  5
1000058
102
{ACAD_REACTORS
330
51B
102
}
330
51B
100
AcDbDictionary
281
     1
  3
CANNOSCALE
350
100005C
  3
CMLEADERSTYLE
350
100005A
  3
CTABLESTYLE
350
1000059
  3
MSLTSCALE
350
100005B
  0
SORTENTSTABLE
  5
1000035
102
{ACAD_REACTORS
330
1000034
102
}
330
1000034
100
AcDbSortentsTable
330
20
331
502
  5
100003F
331
503
  5
1000040
331
504
  5
1000041
331
505
  5
1000042
331
506
  5
1000043
331
507
  5
1000044
331
508
  5
1000045
331
509
  5
1000046
331
50A
  5
1000047
331
50B
  5
1000048
331
50C
  5
1000049
331
50D
  5
100004A
331
50E
  5
100004B
331
50F
  5
100004C
331
510
  5
100004D
331
511
  5
100004E
331
512
  5
100004F
331
513
  5
1000050
331
514
  5
1000051
331
515
  5
1000052
331
516
  5
1000053
331
517
  5
1000054
331
518
  5
1000055
331
519
  5
1000056
331
51A
  5
1000057
331
1000036
  5
502
331
1000037
  5
503
331
1000038
  5
504
331
1000039
  5
505
331
100003A
  5
506
331
100003B
  5
507
331
100003C
  5
508
331
100003D
  5
509
331
100003E
  5
50A
331
100003F
  5
50B
331
1000040
  5
50C
331
1000041
  5
50D
331
1000042
  5
50E
331
1000043
  5
50F
331
1000044
  5
510
331
1000045
  5
511
331
1000046
  5
512
331
1000047
  5
513
331
1000048
  5
514
331
1000049
  5
515
331
100004A
  5
516
331
100004B
  5
517
331
100004C
  5
518
331
100004D
  5
519
331
100004E
  5
51A
331
100004F
  5
1000036
331
1000050
  5
1000037
331
1000051
  5
1000038
331
1000052
  5
1000039
331
1000053
  5
100003A
331
1000054
  5
100003B
331
1000055
  5
100003C
331
1000056
  5
100003D
331
1000057
  5
100003E
  0
LAYOUT
  5
23
330
51D
100
AcDbPlotSettings
  1

  2

  4

  6

 40
0.0
 41
0.0
 42
0.0
 43
0.0
 44
0.0
 45
0.0
 46
0.0
 47
0.0
 48
0.0
 49
0.0
140
0.0
141
0.0
142
1.0
143
1.0
 70
   688
 72
     1
 73
     0
 74
     5
  7

 75
     0
 76
     0
 77
     2
 78
   300
147
1.0
148
0.0
149
0.0
100
AcDbLayout
  1
Layout
 70
     1
 71
     1
 10
0.0
 20
0.0
 11
420.0
 21
297.0
 12
0.0
 22
0.0
 32
0.0
 14
1.000000000000000E+20
 24
1.000000000000000E+20
 34
1.000000000000000E+20
 15
-1.000000000000000E+20
 25
-1.000000000000000E+20
 35
-1.000000000000000E+20
146
0.0
 13
0.0
 23
0.0
 33
0.0
 16
1.0
 26
0.0
 36
0.0
 17
0.0
 27
1.0
 37
0.0
 76
     0
330
22
  0
LAYOUT
  5
21
330
51D
100
AcDbPlotSettings
  1

  2

  4

  6

 40
0.0
 41
0.0
 42
0.0
 43
0.0
 44
0.0
 45
0.0
 46
0.0
 47
0.0
 48
0.0
 49
0.0
140
0.0
141
0.0
142
1.0
143
1.0
 70
  1712
 72
     1
 73
     0
 74
     0
  7

 75
     0
 76
     0
 77
     2
 78
   300
147
1.0
148
0.0
149
0.0
100
AcDbLayout
  1
Model
 70
     1
 71
     0
 10
0.0
 20
0.0
 11
12.0
 21
9.0
 12
0.0
 22
0.0
 32
0.0
 14
0.0
 24
0.0
 34
0.0
 15
0.0
 25
0.0
 35
0.0
146
0.0
 13
0.0
 23
0.0
 33
0.0
 16
1.0
 26
0.0
 36
0.0
 17
0.0
 27
1.0
 37
0.0
 76
     0
330
20
331
2
  0
MATERIAL
  5
1000001
102
{ACAD_REACTORS
330
FFFFFF
102
}
330
FFFFFF
100
AcDbMaterial
  1
ByBlock
 72
     0
 73
     2
 77
     0
 78
     2
171
     0
172
     2
175
     0
176
     2
179
     0
270
     2
274
     2
 94
      127
  0
MATERIAL
  5
1000000
102
{ACAD_REACTORS
330
FFFFFF
102
}
330
FFFFFF
100
AcDbMaterial
  1
ByLayer
 72
     0
 73
     2
 77
     0
 78
     2
171
     0
172
     2
175
     0
176
     2
179
     0
270
     2
274
     2
 94
      127
  0
MATERIAL
  5
1000002
102
{ACAD_REACTORS
330
FFFFFF
102
}
330
FFFFFF
100
AcDbMaterial
  1
Global
 72
     0
 73
     2
 77
     0
 78
     2
171
     0
172
     2
175
     0
176
     2
179
     0
270
     2
274
     2
 94
      127
  0
MLEADERSTYLE
  5
1000020
102
{ACAD_REACTORS
330
100001F
102
}
330
100001F
100
AcDbMLeaderStyle
179
     2
170
     2
171
     1
172
     0
 90
        2
 40
0.0
 41
0.0
173
     1
 91
-1056964608
340
4
 92
       -2
290
     1
 42
0.4
291
     1
 43
2.0
  3
Standard
 44
0.18
300

342
17
174
     1
178
     1
175
     1
176
     0
 93
-1056964608
 45
0.2
292
     0
297
     0
 46
5.0
 94
-1056964608
 47
1.0
 49
1.0
140
1.0
293
     1
141
0.0
294
     1
177
     0
142
1.0
295
     0
296
     0
143
0.125
271
     0
272
     9
273
     9
298
     0
  0
MLINESTYLE
  5
7
330
51E
100
AcDbMlineStyle
  2
L_0_02
 70
     0
  3

 62
   256
 51
90.0
 52
90.0
 71
     1
 49
0.0
 62
   256
  6
CONTINUOUS
  0
MLINESTYLE
  5
E
330
51E
100
AcDbMlineStyle
  2
L_0_15
 70
     0
  3

 62
   256
 51
90.0
 52
90.0
 71
     2
 49
0.0
 62
   256
  6
CONTINUOUS
 49
0.0
 62
   256
  6
L_0_15_SHX
  0
MLINESTYLE
  5
522
102
{ACAD_REACTORS
330
51E
102
}
330
51E
100
AcDbMlineStyle
  2
Standard
 70
     0
  3

 62
   256
 51
90.0
 52
90.0
 71
     2
 49
0.5
 62
   256
  6
BYLAYER
 49
-0.5
 62
   256
  6
BYLAYER
  0
ACDBPLACEHOLDER
  5
12
330
520
  0
SCALE
  5
1000022
102
{ACAD_REACTORS
330
1000021
102
}
330
1000021
100
AcDbScale
 70
     0
300
1:1
140
1.0
141
1.0
290
     1
  0
SCALE
  5
1000023
102
{ACAD_REACTORS
330
1000021
102
}
330
1000021
100
AcDbScale
 70
     0
300
1:2
140
1.0
141
2.0
290
     0
  0
SCALE
  5
1000024
102
{ACAD_REACTORS
330
1000021
102
}
330
1000021
100
AcDbScale
 70
     0
300
1:4
140
1.0
141
4.0
290
     0
  0
SCALE
  5
1000025
102
{ACAD_REACTORS
330
1000021
102
}
330
1000021
100
AcDbScale
 70
     0
300
1:5
140
1.0
141
5.0
290
     0
  0
SCALE
  5
1000026
102
{ACAD_REACTORS
330
1000021
102
}
330
1000021
100
AcDbScale
 70
     0
300
1:8
140
1.0
141
8.0
290
     0
  0
SCALE
  5
1000027
102
{ACAD_REACTORS
330
1000021
102
}
330
1000021
100
AcDbScale
 70
     0
300
1:10
140
1.0
141
10.0
290
     0
  0
SCALE
  5
1000028
102
{ACAD_REACTORS
330
1000021
102
}
330
1000021
100
AcDbScale
 70
     0
300
1:16
140
1.0
141
16.0
290
     0
  0
SCALE
  5
1000029
102
{ACAD_REACTORS
330
1000021
102
}
330
1000021
100
AcDbScale
 70
     0
300
1:20
140
1.0
141
20.0
290
     0
  0
SCALE
  5
100002A
102
{ACAD_REACTORS
330
1000021
102
}
330
1000021
100
AcDbScale
 70
     0
300
1:30
140
1.0
141
30.0
290
     0
  0
SCALE
  5
100002B
102
{ACAD_REACTORS
330
1000021
102
}
330
1000021
100
AcDbScale
 70
     0
300
1:40
140
1.0
141
40.0
290
     0
  0
SCALE
  5
100002C
102
{ACAD_REACTORS
330
1000021
102
}
330
1000021
100
AcDbScale
 70
     0
300
1:50
140
1.0
141
50.0
290
     0
  0
SCALE
  5
100002D
102
{ACAD_REACTORS
330
1000021
102
}
330
1000021
100
AcDbScale
 70
     0
300
1:100
140
1.0
141
100.0
290
     0
  0
SCALE
  5
100002E
102
{ACAD_REACTORS
330
1000021
102
}
330
1000021
100
AcDbScale
 70
     0
300
2:1
140
2.0
141
1.0
290
     0
  0
SCALE
  5
100002F
102
{ACAD_REACTORS
330
1000021
102
}
330
1000021
100
AcDbScale
 70
     0
300
4:1
140
4.0
141
1.0
290
     0
  0
SCALE
  5
1000030
102
{ACAD_REACTORS
330
1000021
102
}
330
1000021
100
AcDbScale
 70
     0
300
8:1
140
8.0
141
1.0
290
     0
  0
SCALE
  5
1000031
102
{ACAD_REACTORS
330
1000021
102
}
330
1000021
100
AcDbScale
 70
     0
300
10:1
140
10.0
141
1.0
290
     0
  0
SCALE
  5
1000032
102
{ACAD_REACTORS
330
1000021
102
}
330
1000021
100
AcDbScale
 70
     0
300
100:1
140
100.0
141
1.0
290
     0
  0
TABLESTYLE
  5
100001E
102
{ACAD_REACTORS
330
100001D
102
}
330
100001D
100
AcDbTableStyle
  3
Standard
 70
     0
 71
     0
 40
0.06
 41
0.06
280
     0
281
     0
  7
STANDARD
140
0.18
170
     2
 62
     7
 63
   257
283
     0
 90
        4
 91
        0
  1

274
    -2
284
     1
 64
     0
275
    -2
285
     1
 65
     0
276
    -2
286
     1
 66
     0
277
    -2
287
     1
 67
     0
278
    -2
288
     1
 68
     0
279
    -2
289
     1
 69
     0
  7
STANDARD
140
0.25
170
     5
 62
     7
 63
   257
283
     0
 90
        4
 91
        0
  1

274
    -2
284
     1
 64
     0
275
    -2
285
     1
 65
     0
276
    -2
286
     1
 66
     0
277
    -2
287
     1
 67
     0
278
    -2
288
     1
 68
     0
279
    -2
289
     1
 69
     0
  7
STANDARD
140
0.18
170
     5
 62
     7
 63
   257
283
     0
 90
        4
 91
        0
  1

274
    -2
284
     1
 64
     0
275
    -2
285
     1
 65
     0
276
    -2
286
     1
 66
     0
277
    -2
287
     1
 67
     0
278
    -2
288
     1
 68
     0
279
    -2
289
     1
 69
     0
  0
VISUALSTYLE
  5
1000008
102
{ACAD_REACTORS
330
1000003
102
}
330
1000003
100
AcDbVisualStyle
  2
2dWireframe
 70
     4
177
     3
291
     0
 70
    58
 90
        0
176
     1
 90
        2
176
     1
 90
        0
176
     1
 90
        0
176
     1
 40
0.6
176
     1
 40
30.0
176
     1
 62
     7
420
 16777215
176
     1
 90
        1
176
     1
 90
        4
176
     1
 62
     7
176
     1
 62
   257
176
     1
 90
        1
176
     1
 90
        1
176
     1
 40
1.0
176
     1
 90
        0
176
     1
 62
   257
176
     1
 40
1.0
176
     1
 90
        1
176
     1
 90
        6
176
     1
 90
        2
176
     1
 62
     7
176
     1
 90
        5
176
     1
 90
        0
176
     1
 90
        0
176
     1
290
     0
176
     1
 90
        1
176
     1
 40
0.0
176
     1
 90
        0
176
     1
290
     1
176
     1
290
     1
176
     1
290
     0
176
     1
290
     0
176
     1
290
     0
176
     1
290
     0
176
     1
290
     0
176
     1
290
     0
176
     1
290
     0
176
     1
 90
       50
176
     1
 40
0.0
176
     1
 40
1.0
176
     1
 90
        0
176
     1
 62
    18
420
        0
176
     1
 90
       50
176
     1
 90
        3
176
     1
 62
     5
420
      255
176
     1
290
     0
176
     1
 90
       50
176
     1
 90
       50
176
     1
 90
       50
176
     1
290
     0
176
     1
 90
       50
176
     1
 62
   256
176
     0
 40
1.0
176
     0
 90
        2
176
     1
  1
strokes_ogs.tif
176
     1
290
     0
176
     1
 40
1.0
176
     1
 40
1.0
176
     1
  0
VISUALSTYLE
  5
100000B
102
{ACAD_REACTORS
330
1000003
102
}
330
1000003
100
AcDbVisualStyle
  2
Basic
 70
     7
177
     3
291
     1
 70
    58
 90
        1
176
     1
 90
        0
176
     1
 90
        1
176
     1
 90
        0
176
     1
 40
0.6
176
     1
 40
30.0
176
     1
 62
     7
420
 16777215
176
     1
 90
        0
176
     1
 90
        4
176
     1
 62
     7
176
     1
 62
   257
176
     1
 90
        1
176
     1
 90
        1
176
     1
 40
1.0
176
     1
 90
        8
176
     1
 62
     7
176
     1
 40
1.0
176
     1
 90
        1
176
     1
 90
        6
176
     1
 90
        2
176
     1
 62
     7
176
     1
 90
        5
176
     1
 90
        0
176
     1
 90
        0
176
     1
290
     0
176
     1
 90
        1
176
     1
 40
0.0
176
     1
 90
        0
176
     1
290
     0
176
     1
290
     1
176
     1
290
     1
176
     1
290
     0
176
     1
290
     0
176
     1
290
     0
176
     1
290
     0
176
     1
290
     0
176
     1
290
     0
176
     1
 90
       50
176
     1
 40
0.0
176
     1
 40
1.0
176
     1
 90
        0
176
     1
 62
    18
420
        0
176
     1
 90
       50
176
     1
 90
        3
176
     1
 62
     5
420
      255
176
     1
290
     0
176
     1
 90
       50
176
     1
 90
       50
176
     1
 90
       50
176
     1
290
     0
176
     1
 90
       50
176
     1
 62
   256
176
     0
 40
1.0
176
     0
 90
        2
176
     1
  1
strokes_ogs.tif
176
     1
290
     0
176
     1
 40
1.0
176
     1
 40
1.0
176
     1
  0
VISUALSTYLE
  5
100000F
102
{ACAD_REACTORS
330
1000003
102
}
330
1000003
100
AcDbVisualStyle
  2
Brighten
 70
    12
177
     3
291
     1
 70
    58
 90
        2
176
     1
 90
        2
176
     1
 90
        0
176
     1
 90
        0
176
     1
 40
0.6
176
     1
 40
30.0
176
     1
 62
     7
420
 16777215
176
     1
 90
        1
176
     1
 90
        4
176
     1
 62
     7
176
     1
 62
   257
176
     1
 90
        1
176
     1
 90
        1
176
     1
 40
1.0
176
     1
 90
        8
176
     1
 62
     7
176
     1
 40
1.0
176
     1
 90
        1
176
     1
 90
        6
176
     1
 90
        2
176
     1
 62
     7
176
     1
 90
        5
176
     1
 90
        0
176
     1
 90
        0
176
     1
290
     0
176
     1
 90
        1
176
     1
 40
50.0
176
     1
 90
        0
176
     1
290
     0
176
     1
290
     1
176
     1
290
     1
176
     1
290
     0
176
     1
290
     0
176
     1
290
     0
176
     1
290
     0
176
     1
290
     0
176
     1
290
     0
176
     1
 90
       50
176
     1
 40
0.0
176
     1
 40
1.0
176
     1
 90
        0
176
     1
 62
    18
420
        0
176
     1
 90
       50
176
     1
 90
        3
176
     1
 62
     5
420
      255
176
     1
290
     0
176
     1
 90
       50
176
     1
 90
       50
176
     1
 90
       50
176
     1
290
     0
176
     1
 90
       50
176
     1
 62
   256
176
     0
 40
1.0
176
     0
 90
        2
176
     1
  1
strokes_ogs.tif
176
     1
290
     0
176
     1
 40
1.0
176
     1
 40
1.0
176
     1
  0
VISUALSTYLE
  5
1000013
102
{ACAD_REACTORS
330
1000003
102
}
330
1000003
100
AcDbVisualStyle
  2
ColorChange
 70
    16
177
     3
291
     1
 70
    58
 90
        2
176
     1
 90
        2
176
     1
 90
        3
176
     1
 90
        0
176
     1
 40
0.6
176
     1
 40
30.0
176
     1
 62
     8
420
  8421504
176
     1
 90
        1
176
     1
 90
        4
176
     1
 62
     7
176
     1
 62
   257
176
     1
 90
        1
176
     1
 90
        1
176
     1
 40
1.0
176
     1
 90
        8
176
     1
 62
     8
420
  8421504
176
     1
 40
1.0
176
     1
 90
        1
176
     1
 90
        6
176
     1
 90
        2
176
     1
 62
     7
176
     1
 90
        5
176
     1
 90
        0
176
     1
 90
        0
176
     1
290
     0
176
     1
 90
        1
176
     1
 40
0.0
176
     1
 90
        0
176
     1
290
     0
176
     1
290
     1
176
     1
290
     1
176
     1
290
     0
176
     1
290
     0
176
     1
290
     0
176
     1
290
     0
176
     1
290
     0
176
     1
290
     0
176
     1
 90
       50
176
     1
 40
0.0
176
     1
 40
1.0
176
     1
 90
        0
176
     1
 62
    18
420
        0
176
     1
 90
       50
176
     1
 90
        3
176
     1
 62
     5
420
      255
176
     1
290
     0
176
     1
 90
       50
176
     1
 90
       50
176
     1
 90
       50
176
     1
290
     0
176
     1
 90
       50
176
     1
 62
   256
176
     0
 40
1.0
176
     0
 90
        2
176
     1
  1
strokes_ogs.tif
176
     1
290
     0
176
     1
 40
1.0
176
     1
 40
1.0
176
     1
  0
VISUALSTYLE
  5
100000D
102
{ACAD_REACTORS
330
1000003
102
}
330
1000003
100
AcDbVisualStyle
  2
Conceptual
 70
     9
177
     3
291
     0
 70
    58
 90
        3
176
     1
 90
        2
176
     1
 90
        0
176
     1
 90
        0
176
     1
 40
0.6
176
     1
 40
30.0
176
     1
 62
     7
420
 16777215
176
     1
 90
        2
176
     1
 90
        2
176
     1
 62
     7
176
     1
 62
   257
176
     1
 90
        1
176
     1
 90
        1
176
     1
 40
179.0
176
     1
 90
        8
176
     1
 62
     7
176
     1
 40
1.0
176
     1
 90
        1
176
     1
 90
        6
176
     1
 90
        2
176
     1
 62
     7
176
     1
 90
        3
176
     1
 90
        0
176
     1
 90
        0
176
     1
290
     0
176
     1
 90
        1
176
     1
 40
0.0
176
     1
 90
        0
176
     1
290
     0
176
     1
290
     1
176
     1
290
     1
176
     1
290
     0
176
     1
290
     0
176
     1
290
     0
176
     1
290
     0
176
     1
290
     0
176
     1
290
     0
176
     1
 90
       50
176
     1
 40
0.0
176
     1
 40
1.0
176
     1
 90
        0
176
     1
 62
    18
420
        0
176
     1
 90
       50
176
     1
 90
        3
176
     1
 62
     5
420
      255
176
     1
290
     0
176
     1
 90
       50
176
     1
 90
       50
176
     1
 90
       50
176
     1
290
     0
176
     1
 90
       50
176
     1
 62
   256
176
     0
 40
1.0
176
     0
 90
        2
176
     1
  1
strokes_ogs.tif
176
     1
290
     0
176
     1
 40
1.0
176
     1
 40
1.0
176
     1
  0
VISUALSTYLE
  5
100000E
102
{ACAD_REACTORS
330
1000003
102
}
330
1000003
100
AcDbVisualStyle
  2
Dim
 70
    11
177
     3
291
     1
 70
    58
 90
        2
176
     1
 90
        2
176
     1
 90
        0
176
     1
 90
        0
176
     1
 40
0.6
176
     1
 40
30.0
176
     1
 62
     7
420
 16777215
176
     1
 90
        1
176
     1
 90
        4
176
     1
 62
     7
176
     1
 62
   257
176
     1
 90
        1
176
     1
 90
        1
176
     1
 40
1.0
176
     1
 90
        8
176
     1
 62
     7
176
     1
 40
1.0
176
     1
 90
        1
176
     1
 90
        6
176
     1
 90
        2
176
     1
 62
     7
176
     1
 90
        5
176
     1
 90
        0
176
     1
 90
        0
176
     1
290
     0
176
     1
 90
        1
176
     1
 40
-50.0
176
     1
 90
        0
176
     1
290
     0
176
     1
290
     1
176
     1
290
     1
176
     1
290
     0
176
     1
290
     0
176
     1
290
     0
176
     1
290
     0
176
     1
290
     0
176
     1
290
     0
176
     1
 90
       50
176
     1
 40
0.0
176
     1
 40
1.0
176
     1
 90
        0
176
     1
 62
    18
420
        0
176
     1
 90
       50
176
     1
 90
        3
176
     1
 62
     5
420
      255
176
     1
290
     0
176
     1
 90
       50
176
     1
 90
       50
176
     1
 90
       50
176
     1
290
     0
176
     1
 90
       50
176
     1
 62
   256
176
     0
 40
1.0
176
     0
 90
        2
176
     1
  1
strokes_ogs.tif
176
     1
290
     0
176
     1
 40
1.0
176
     1
 40
1.0
176
     1
  0
VISUALSTYLE
  5
1000016
102
{ACAD_REACTORS
330
1000003
102
}
330
1000003
100
AcDbVisualStyle
  2
EdgeColorOff
 70
    22
177
     3
291
     1
 70
    58
 90
        2
176
     0
 90
        2
176
     0
 90
        0
176
     0
 90
        0
176
     0
 40
0.6
176
     0
 40
30.0
176
     0
 62
     7
420
 16777215
176
     0
 90
        1
176
     0
 90
        4
176
     0
 62
     7
176
     0
 62
   257
176
     0
 90
        1
176
     0
 90
        1
176
     0
 40
1.0
176
     0
 90
        8
176
     2
 62
     7
176
     0
 40
1.0
176
     0
 90
        1
176
     0
 90
        6
176
     0
 90
        2
176
     0
 62
     7
176
     0
 90
        5
176
     0
 90
        0
176
     0
 90
        0
176
     0
290
     0
176
     0
 90
        1
176
     0
 40
0.0
176
     0
 90
        0
176
     0
290
     0
176
     0
290
     1
176
     0
290
     1
176
     0
290
     0
176
     0
290
     0
176
     0
290
     0
176
     0
290
     0
176
     0
290
     0
176
     0
290
     0
176
     0
 90
       50
176
     0
 40
0.0
176
     0
 40
1.0
176
     0
 90
        0
176
     0
 62
    18
420
        0
176
     0
 90
       50
176
     0
 90
        3
176
     0
 62
     5
420
      255
176
     0
290
     0
176
     0
 90
       50
176
     0
 90
       50
176
     0
 90
       50
176
     0
290
     0
176
     0
 90
       50
176
     0
 62
   256
176
     0
 40
1.0
176
     0
 90
        2
176
     0
  1
strokes_ogs.tif
176
     0
290
     0
176
     0
 40
1.0
176
     0
 40
1.0
176
     0
  0
VISUALSTYLE
  5
1000012
102
{ACAD_REACTORS
330
1000003
102
}
330
1000003
100
AcDbVisualStyle
  2
Facepattern
 70
    15
177
     3
291
     1
 70
    58
 90
        2
176
     1
 90
        2
176
     1
 90
        0
176
     1
 90
        0
176
     1
 40
0.6
176
     1
 40
30.0
176
     1
 62
     7
420
 16777215
176
     1
 90
        1
176
     1
 90
        4
176
     1
 62
     7
176
     1
 62
   257
176
     1
 90
        1
176
     1
 90
        1
176
     1
 40
1.0
176
     1
 90
        8
176
     1
 62
     7
176
     1
 40
1.0
176
     1
 90
        1
176
     1
 90
        6
176
     1
 90
        2
176
     1
 62
     7
176
     1
 90
        5
176
     1
 90
        0
176
     1
 90
        0
176
     1
290
     0
176
     1
 90
        1
176
     1
 40
0.0
176
     1
 90
        0
176
     1
290
     0
176
     1
290
     1
176
     1
290
     1
176
     1
290
     0
176
     1
290
     0
176
     1
290
     0
176
     1
290
     0
176
     1
290
     0
176
     1
290
     0
176
     1
 90
       50
176
     1
 40
0.0
176
     1
 40
1.0
176
     1
 90
        0
176
     1
 62
    18
420
        0
176
     1
 90
       50
176
     1
 90
        3
176
     1
 62
     5
420
      255
176
     1
290
     0
176
     1
 90
       50
176
     1
 90
       50
176
     1
 90
       50
176
     1
290
     0
176
     1
 90
       50
176
     1
 62
   256
176
     0
 40
1.0
176
     0
 90
        2
176
     1
  1
strokes_ogs.tif
176
     1
290
     0
176
     1
 40
1.0
176
     1
 40
1.0
176
     1
  0
VISUALSTYLE
  5
1000004
102
{ACAD_REACTORS
330
1000003
102
}
330
1000003
100
AcDbVisualStyle
  2
Flat
 70
     0
177
     3
291
     1
 70
    58
 90
        2
176
     1
 90
        1
176
     1
 90
        1
176
     1
 90
        2
176
     1
 40
0.6
176
     1
 40
30.0
176
     1
 62
     7
420
 16777215
176
     1
 90
        0
176
     1
 90
        0
176
     1
 62
     7
176
     1
 62
   257
176
     1
 90
        1
176
     1
 90
        1
176
     1
 40
1.0
176
     1
 90
        8
176
     1
 62
     7
176
     1
 40
1.0
176
     1
 90
        1
176
     1
 90
        6
176
     1
 90
        2
176
     1
 62
     7
176
     1
 90
        5
176
     1
 90
        0
176
     1
 90
        0
176
     1
290
     0
176
     1
 90
       13
176
     1
 40
0.0
176
     1
 90
        0
176
     1
290
     0
176
     1
290
     1
176
     1
290
     1
176
     1
290
     0
176
     1
290
     0
176
     1
290
     0
176
     1
290
     0
176
     1
290
     0
176
     1
290
     0
176
     1
 90
       50
176
     1
 40
0.0
176
     1
 40
1.0
176
     1
 90
        0
176
     1
 62
    18
420
        0
176
     1
 90
       50
176
     1
 90
        3
176
     1
 62
     5
420
      255
176
     1
290
     0
176
     1
 90
       50
176
     1
 90
       50
176
     1
 90
       50
176
     1
290
     0
176
     1
 90
       50
176
     1
 62
   256
176
     0
 40
1.0
176
     0
 90
        2
176
     1
  1
strokes_ogs.tif
176
     1
290
     0
176
     1
 40
1.0
176
     1
 40
1.0
176
     1
  0
VISUALSTYLE
  5
1000005
102
{ACAD_REACTORS
330
1000003
102
}
330
1000003
100
AcDbVisualStyle
  2
FlatWithEdges
 70
     1
177
     3
291
     1
 70
    58
 90
        2
176
     1
 90
        1
176
     1
 90
        1
176
     1
 90
        2
176
     1
 40
0.6
176
     1
 40
30.0
176
     1
 62
     7
420
 16777215
176
     1
 90
        1
176
     1
 90
        0
176
     1
 62
     7
176
     1
 62
   257
176
     1
 90
        1
176
     1
 90
        1
176
     1
 40
1.0
176
     1
 90
        0
176
     1
 62
   257
176
     1
 40
1.0
176
     1
 90
        1
176
     1
 90
        6
176
     1
 90
        2
176
     1
 62
     7
176
     1
 90
        5
176
     1
 90
        0
176
     1
 90
        0
176
     1
290
     0
176
     1
 90
       13
176
     1
 40
0.0
176
     1
 90
        0
176
     1
290
     0
176
     1
290
     1
176
     1
290
     1
176
     1
290
     0
176
     1
290
     0
176
     1
290
     0
176
     1
290
     0
176
     1
290
     0
176
     1
290
     0
176
     1
 90
       50
176
     1
 40
0.0
176
     1
 40
1.0
176
     1
 90
        0
176
     1
 62
    18
420
        0
176
     1
 90
       50
176
     1
 90
        3
176
     1
 62
     5
420
      255
176
     1
290
     0
176
     1
 90
       50
176
     1
 90
       50
176
     1
 90
       50
176
     1
290
     0
176
     1
 90
       50
176
     1
 62
   256
176
     0
 40
1.0
176
     0
 90
        2
176
     1
  1
strokes_ogs.tif
176
     1
290
     0
176
     1
 40
1.0
176
     1
 40
1.0
176
     1
  0
VISUALSTYLE
  5
1000006
102
{ACAD_REACTORS
330
1000003
102
}
330
1000003
100
AcDbVisualStyle
  2
Gouraud
 70
     2
177
     3
291
     1
 70
    58
 90
        2
176
     1
 90
        2
176
     1
 90
        1
176
     1
 90
        2
176
     1
 40
0.6
176
     1
 40
30.0
176
     1
 62
     7
420
 16777215
176
     1
 90
        0
176
     1
 90
        0
176
     1
 62
     7
176
     1
 62
   257
176
     1
 90
        1
176
     1
 90
        1
176
     1
 40
1.0
176
     1
 90
        0
176
     1
 62
     7
176
     1
 40
1.0
176
     1
 90
        1
176
     1
 90
        6
176
     1
 90
        2
176
     1
 62
     7
176
     1
 90
        5
176
     1
 90
        0
176
     1
 90
        0
176
     1
290
     0
176
     1
 90
       13
176
     1
 40
0.0
176
     1
 90
        0
176
     1
290
     0
176
     1
290
     1
176
     1
290
     1
176
     1
290
     0
176
     1
290
     0
176
     1
290
     0
176
     1
290
     0
176
     1
290
     0
176
     1
290
     0
176
     1
 90
       50
176
     1
 40
0.0
176
     1
 40
1.0
176
     1
 90
        0
176
     1
 62
    18
420
        0
176
     1
 90
       50
176
     1
 90
        3
176
     1
 62
     5
420
      255
176
     1
290
     0
176
     1
 90
       50
176
     1
 90
       50
176
     1
 90
       50
176
     1
290
     0
176
     1
 90
       50
176
     1
 62
   256
176
     0
 40
1.0
176
     0
 90
        2
176
     1
  1
strokes_ogs.tif
176
     1
290
     0
176
     1
 40
1.0
176
     1
 40
1.0
176
     1
  0
VISUALSTYLE
  5
1000007
102
{ACAD_REACTORS
330
1000003
102
}
330
1000003
100
AcDbVisualStyle
  2
GouraudWithEdges
 70
     3
177
     3
291
     1
 70
    58
 90
        2
176
     1
 90
        2
176
     1
 90
        1
176
     1
 90
        2
176
     1
 40
0.6
176
     1
 40
30.0
176
     1
 62
     7
420
 16777215
176
     1
 90
        1
176
     1
 90
        0
176
     1
 62
     7
176
     1
 62
   257
176
     1
 90
        1
176
     1
 90
        1
176
     1
 40
1.0
176
     1
 90
        0
176
     1
 62
   257
176
     1
 40
1.0
176
     1
 90
        1
176
     1
 90
        6
176
     1
 90
        2
176
     1
 62
     7
176
     1
 90
        5
176
     1
 90
        0
176
     1
 90
        0
176
     1
290
     0
176
     1
 90
       13
176
     1
 40
0.0
176
     1
 90
        0
176
     1
290
     0
176
     1
290
     1
176
     1
290
     1
176
     1
290
     0
176
     1
290
     0
176
     1
290
     0
176
     1
290
     0
176
     1
290
     0
176
     1
290
     0
176
     1
 90
       50
176
     1
 40
0.0
176
     1
 40
1.0
176
     1
 90
        0
176
     1
 62
    18
420
        0
176
     1
 90
       50
176
     1
 90
        3
176
     1
 62
     5
420
      255
176
     1
290
     0
176
     1
 90
       50
176
     1
 90
       50
176
     1
 90
       50
176
     1
290
     0
176
     1
 90
       50
176
     1
 62
   256
176
     0
 40
1.0
176
     0
 90
        2
176
     1
  1
strokes_ogs.tif
176
     1
290
     0
176
     1
 40
1.0
176
     1
 40
1.0
176
     1
  0
VISUALSTYLE
  5
100000A
102
{ACAD_REACTORS
330
1000003
102
}
330
1000003
100
AcDbVisualStyle
  2
Hidden
 70
     6
177
     3
291
     0
 70
    58
 90
        1
176
     1
 90
        2
176
     1
 90
        2
176
     1
 90
        0
176
     1
 40
0.6
176
     1
 40
30.0
176
     1
 62
     7
420
 16777215
176
     1
 90
        2
176
     1
 90
        2
176
     1
 62
     7
176
     1
 62
   257
176
     1
 90
        2
176
     1
 90
        1
176
     1
 40
40.0
176
     1
 90
        0
176
     1
 62
   257
176
     1
 40
1.0
176
     1
 90
        1
176
     1
 90
        6
176
     1
 90
        2
176
     1
 62
     7
176
     1
 90
        3
176
     1
 90
        0
176
     1
 90
        0
176
     1
290
     0
176
     1
 90
        1
176
     1
 40
0.0
176
     1
 90
        0
176
     1
290
     0
176
     1
290
     1
176
     1
290
     1
176
     1
290
     0
176
     1
290
     0
176
     1
290
     0
176
     1
290
     0
176
     1
290
     0
176
     1
290
     0
176
     1
 90
       50
176
     1
 40
0.0
176
     1
 40
1.0
176
     1
 90
        0
176
     1
 62
    18
420
        0
176
     1
 90
       50
176
     1
 90
        3
176
     1
 62
     5
420
      255
176
     1
290
     0
176
     1
 90
       50
176
     1
 90
       50
176
     1
 90
       50
176
     1
290
     0
176
     1
 90
       50
176
     1
 62
   256
176
     0
 40
1.0
176
     0
 90
        2
176
     1
  1
strokes_ogs.tif
176
     1
290
     0
176
     1
 40
1.0
176
     1
 40
1.0
176
     1
  0
VISUALSTYLE
  5
1000014
102
{ACAD_REACTORS
330
1000003
102
}
330
1000003
100
AcDbVisualStyle
  2
JitterOff
 70
    20
177
     3
291
     1
 70
    58
 90
        2
176
     0
 90
        2
176
     0
 90
        0
176
     0
 90
        0
176
     0
 40
0.6
176
     0
 40
30.0
176
     0
 62
     7
420
 16777215
176
     0
 90
        1
176
     0
 90
        4
176
     0
 62
     7
176
     0
 62
   257
176
     0
 90
        1
176
     0
 90
        1
176
     0
 40
1.0
176
     0
 90
       10
176
     2
 62
     7
176
     0
 40
1.0
176
     0
 90
        1
176
     0
 90
        6
176
     0
 90
        2
176
     0
 62
     7
176
     0
 90
        5
176
     0
 90
        0
176
     0
 90
        0
176
     0
290
     0
176
     0
 90
        1
176
     0
 40
0.0
176
     0
 90
        0
176
     0
290
     0
176
     0
290
     1
176
     0
290
     1
176
     0
290
     0
176
     0
290
     0
176
     0
290
     0
176
     0
290
     0
176
     0
290
     0
176
     0
290
     0
176
     0
 90
       50
176
     0
 40
0.0
176
     0
 40
1.0
176
     0
 90
        0
176
     0
 62
    18
420
        0
176
     0
 90
       50
176
     0
 90
        3
176
     0
 62
     5
420
      255
176
     0
290
     0
176
     0
 90
       50
176
     0
 90
       50
176
     0
 90
       50
176
     0
290
     0
176
     0
 90
       50
176
     0
 62
   256
176
     0
 40
1.0
176
     0
 90
        2
176
     0
  1
strokes_ogs.tif
176
     0
290
     0
176
     0
 40
1.0
176
     0
 40
1.0
176
     0
  0
VISUALSTYLE
  5
1000011
102
{ACAD_REACTORS
330
1000003
102
}
330
1000003
100
AcDbVisualStyle
  2
Linepattern
 70
    14
177
     3
291
     1
 70
    58
 90
        2
176
     1
 90
        2
176
     1
 90
        0
176
     1
 90
        0
176
     1
 40
0.6
176
     1
 40
30.0
176
     1
 62
     7
420
 16777215
176
     1
 90
        1
176
     1
 90
        4
176
     1
 62
     7
176
     1
 62
   257
176
     1
 90
        7
176
     1
 90
        7
176
     1
 40
1.0
176
     1
 90
        8
176
     1
 62
     7
176
     1
 40
1.0
176
     1
 90
        1
176
     1
 90
        6
176
     1
 90
        2
176
     1
 62
     7
176
     1
 90
        5
176
     1
 90
        0
176
     1
 90
        0
176
     1
290
     0
176
     1
 90
        1
176
     1
 40
0.0
176
     1
 90
        0
176
     1
290
     0
176
     1
290
     1
176
     1
290
     1
176
     1
290
     0
176
     1
290
     0
176
     1
290
     0
176
     1
290
     0
176
     1
290
     0
176
     1
290
     0
176
     1
 90
       50
176
     1
 40
0.0
176
     1
 40
1.0
176
     1
 90
        0
176
     1
 62
    18
420
        0
176
     1
 90
       50
176
     1
 90
        3
176
     1
 62
     5
420
      255
176
     1
290
     0
176
     1
 90
       50
176
     1
 90
       50
176
     1
 90
       50
176
     1
290
     0
176
     1
 90
       50
176
     1
 62
   256
176
     0
 40
1.0
176
     0
 90
        2
176
     1
  1
strokes_ogs.tif
176
     1
290
     0
176
     1
 40
1.0
176
     1
 40
1.0
176
     1
  0
VISUALSTYLE
  5
1000015
102
{ACAD_REACTORS
330
1000003
102
}
330
1000003
100
AcDbVisualStyle
  2
OverhangOff
 70
    21
177
     3
291
     1
 70
    58
 90
        2
176
     0
 90
        2
176
     0
 90
        0
176
     0
 90
        0
176
     0
 40
0.6
176
     0
 40
30.0
176
     0
 62
     7
420
 16777215
176
     0
 90
        1
176
     0
 90
        4
176
     0
 62
     7
176
     0
 62
   257
176
     0
 90
        1
176
     0
 90
        1
176
     0
 40
1.0
176
     0
 90
        9
176
     2
 62
     7
176
     0
 40
1.0
176
     0
 90
        1
176
     0
 90
        6
176
     0
 90
        2
176
     0
 62
     7
176
     0
 90
        5
176
     0
 90
        0
176
     0
 90
        0
176
     0
290
     0
176
     0
 90
        1
176
     0
 40
0.0
176
     0
 90
        0
176
     0
290
     0
176
     0
290
     1
176
     0
290
     1
176
     0
290
     0
176
     0
290
     0
176
     0
290
     0
176
     0
290
     0
176
     0
290
     0
176
     0
290
     0
176
     0
 90
       50
176
     0
 40
0.0
176
     0
 40
1.0
176
     0
 90
        0
176
     0
 62
    18
420
        0
176
     0
 90
       50
176
     0
 90
        3
176
     0
 62
     5
420
      255
176
     0
290
     0
176
     0
 90
       50
176
     0
 90
       50
176
     0
 90
       50
176
     0
290
     0
176
     0
 90
       50
176
     0
 62
   256
176
     0
 40
1.0
176
     0
 90
        2
176
     0
  1
strokes_ogs.tif
176
     0
290
     0
176
     0
 40
1.0
176
     0
 40
1.0
176
     0
  0
VISUALSTYLE
  5
100000C
102
{ACAD_REACTORS
330
1000003
102
}
330
1000003
100
AcDbVisualStyle
  2
Realistic
 70
     8
177
     3
291
     0
 70
    58
 90
        2
176
     1
 90
        3
176
     1
 90
        0
176
     1
 90
        2
176
     1
 40
0.6
176
     1
 40
30.0
176
     1
 62
     7
420
 16777215
176
     1
 90
        0
176
     1
 90
        0
176
     1
 62
     7
176
     1
 62
   257
176
     1
 90
        1
176
     1
 90
        1
176
     1
 40
1.0
176
     1
 90
        8
176
     1
 62
   257
176
     1
 40
1.0
176
     1
 90
        1
176
     1
 90
        6
176
     1
 90
        2
176
     1
 62
     7
176
     1
 90
        3
176
     1
 90
        0
176
     1
 90
        0
176
     1
290
     0
176
     1
 90
       13
176
     1
 40
0.0
176
     1
 90
        0
176
     1
290
     0
176
     1
290
     1
176
     1
290
     1
176
     1
290
     0
176
     1
290
     0
176
     1
290
     0
176
     1
290
     0
176
     1
290
     0
176
     1
290
     0
176
     1
 90
       50
176
     1
 40
0.0
176
     1
 40
1.0
176
     1
 90
        0
176
     1
 62
    18
420
        0
176
     1
 90
       50
176
     1
 90
        3
176
     1
 62
     5
420
      255
176
     1
290
     0
176
     1
 90
       50
176
     1
 90
       50
176
     1
 90
       50
176
     1
290
     0
176
     1
 90
       50
176
     1
 62
   256
176
     0
 40
1.0
176
     0
 90
        2
176
     1
  1
strokes_ogs.tif
176
     1
290
     0
176
     1
 40
1.0
176
     1
 40
1.0
176
     1
  0
VISUALSTYLE
  5
100001B
102
{ACAD_REACTORS
330
1000003
102
}
330
1000003
100
AcDbVisualStyle
  2
Shaded
 70
    27
177
     3
291
     0
 70
    58
 90
        2
176
     1
 90
        2
176
     1
 90
        1
176
     1
 90
        2
176
     1
 40
0.6
176
     1
 40
30.0
176
     1
 62
     7
420
 16777215
176
     1
 90
        0
176
     1
 90
        4
176
     1
 62
     7
176
     1
 62
   257
176
     1
 90
        1
176
     1
 90
        1
176
     1
 40
1.0
176
     1
 90
        8
176
     1
 62
   257
176
     1
 40
1.0
176
     1
 90
        1
176
     1
 90
        6
176
     1
 90
        2
176
     1
 62
     8
420
  7895160
176
     1
 90
        3
176
     1
 90
        0
176
     1
 90
        0
176
     1
290
     0
176
     1
 90
        5
176
     1
 40
0.0
176
     1
 90
        0
176
     1
290
     0
176
     1
290
     1
176
     1
290
     1
176
     1
290
     0
176
     1
290
     0
176
     1
290
     0
176
     1
290
     0
176
     1
290
     0
176
     1
290
     0
176
     1
 90
       50
176
     1
 40
0.0
176
     1
 40
1.0
176
     1
 90
        0
176
     1
 62
    18
420
        0
176
     1
 90
       50
176
     1
 90
        3
176
     1
 62
     5
420
      255
176
     1
290
     0
176
     1
 90
       50
176
     1
 90
       50
176
     1
 90
       50
176
     1
290
     0
176
     1
 90
       50
176
     1
 62
   256
176
     0
 40
1.0
176
     0
 90
        2
176
     1
  1
strokes_ogs.tif
176
     1
290
     0
176
     1
 40
1.0
176
     1
 40
1.0
176
     1
  0
VISUALSTYLE
  5
100001A
102
{ACAD_REACTORS
330
1000003
102
}
330
1000003
100
AcDbVisualStyle
  2
Shaded with edges
 70
    26
177
     3
291
     0
 70
    58
 90
        2
176
     1
 90
        2
176
     1
 90
        1
176
     1
 90
        2
176
     1
 40
0.6
176
     1
 40
30.0
176
     1
 62
     7
420
 16777215
176
     1
 90
        1
176
     1
 90
       10
176
     1
 62
     7
176
     1
 62
   257
176
     1
 90
        2
176
     1
 90
        1
176
     1
 40
1.0
176
     1
 90
        8
176
     1
 62
   257
176
     1
 40
1.0
176
     1
 90
        1
176
     1
 90
        6
176
     1
 90
        2
176
     1
 62
     7
176
     1
 90
        3
176
     1
 90
        0
176
     1
 90
        0
176
     1
290
     0
176
     1
 90
        5
176
     1
 40
0.0
176
     1
 90
        0
176
     1
290
     0
176
     1
290
     1
176
     1
290
     1
176
     1
290
     0
176
     1
290
     0
176
     1
290
     0
176
     1
290
     0
176
     1
290
     0
176
     1
290
     0
176
     1
 90
       50
176
     1
 40
0.0
176
     1
 40
1.0
176
     1
 90
        0
176
     1
 62
    18
420
        0
176
     1
 90
       50
176
     1
 90
        3
176
     1
 62
     5
420
      255
176
     1
290
     0
176
     1
 90
       50
176
     1
 90
       50
176
     1
 90
       50
176
     1
290
     0
176
     1
 90
       50
176
     1
 62
   256
176
     0
 40
1.0
176
     0
 90
        2
176
     1
  1
strokes_ogs.tif
176
     1
290
     0
176
     1
 40
1.0
176
     1
 40
1.0
176
     1
  0
VISUALSTYLE
  5
1000017
102
{ACAD_REACTORS
330
1000003
102
}
330
1000003
100
AcDbVisualStyle
  2
Shades of Gray
 70
    23
177
     3
291
     0
 70
    58
 90
        2
176
     1
 90
        2
176
     1
 90
        3
176
     1
 90
        0
176
     1
 40
0.6
176
     1
 40
30.0
176
     1
 62
     7
420
 16777215
176
     1
 90
        2
176
     1
 90
        2
176
     1
 62
     7
176
     1
 62
     7
176
     1
 90
        1
176
     1
 90
        1
176
     1
 40
40.0
176
     1
 90
        8
176
     1
 62
     7
176
     1
 40
1.0
176
     1
 90
        1
176
     1
 90
        6
176
     1
 90
        2
176
     1
 62
     7
176
     1
 90
        3
176
     1
 90
        0
176
     1
 90
        0
176
     1
290
     0
176
     1
 90
        1
176
     1
 40
0.0
176
     1
 90
        0
176
     1
290
     0
176
     1
290
     1
176
     1
290
     1
176
     1
290
     0
176
     1
290
     0
176
     1
290
     0
176
     1
290
     0
176
     1
290
     0
176
     1
290
     0
176
     1
 90
       50
176
     1
 40
0.0
176
     1
 40
1.0
176
     1
 90
        0
176
     1
 62
    18
420
        0
176
     1
 90
       50
176
     1
 90
        3
176
     1
 62
     5
420
      255
176
     1
290
     0
176
     1
 90
       50
176
     1
 90
       50
176
     1
 90
       50
176
     1
290
     0
176
     1
 90
       50
176
     1
 62
   256
176
     0
 40
1.0
176
     0
 90
        2
176
     1
  1
strokes_ogs.tif
176
     1
290
     0
176
     1
 40
1.0
176
     1
 40
1.0
176
     1
  0
VISUALSTYLE
  5
1000018
102
{ACAD_REACTORS
330
1000003
102
}
330
1000003
100
AcDbVisualStyle
  2
Sketchy
 70
    24
177
     3
291
     0
 70
    58
 90
        1
176
     1
 90
        2
176
     1
 90
        2
176
     1
 90
        0
176
     1
 40
0.6
176
     1
 40
30.0
176
     1
 62
     7
420
 16777215
176
     1
 90
        2
176
     1
 90
        2
176
     1
 62
     7
176
     1
 62
     7
176
     1
 90
        1
176
     1
 90
        1
176
     1
 40
40.0
176
     1
 90
       11
176
     1
 62
     7
176
     1
 40
1.0
176
     1
 90
        1
176
     1
 90
        6
176
     1
 90
        2
176
     1
 62
     7
176
     1
 90
        6
176
     1
 90
        0
176
     1
 90
        0
176
     1
290
     0
176
     1
 90
        1
176
     1
 40
0.0
176
     1
 90
        0
176
     1
290
     0
176
     1
290
     1
176
     1
290
     1
176
     1
290
     0
176
     1
290
     0
176
     1
290
     0
176
     1
290
     0
176
     1
290
     0
176
     1
290
     0
176
     1
 90
       50
176
     1
 40
0.0
176
     1
 40
1.0
176
     1
 90
        0
176
     1
 62
    18
420
        0
176
     1
 90
       50
176
     1
 90
        3
176
     1
 62
     5
420
      255
176
     1
290
     0
176
     1
 90
       50
176
     1
 90
       50
176
     1
 90
       50
176
     1
290
     0
176
     1
 90
       50
176
     1
 62
   256
176
     0
 40
1.0
176
     0
 90
        2
176
     1
  1
strokes_ogs.tif
176
     1
290
     0
176
     1
 40
1.0
176
     1
 40
1.0
176
     1
  0
VISUALSTYLE
  5
1000010
102
{ACAD_REACTORS
330
1000003
102
}
330
1000003
100
AcDbVisualStyle
  2
Thicken
 70
    13
177
     3
291
     1
 70
    58
 90
        2
176
     1
 90
        2
176
     1
 90
        0
176
     1
 90
        0
176
     1
 40
0.6
176
     1
 40
30.0
176
     1
 62
     7
420
 16777215
176
     1
 90
        1
176
     1
 90
        4
176
     1
 62
     7
176
     1
 62
   257
176
     1
 90
        1
176
     1
 90
        1
176
     1
 40
1.0
176
     1
 90
       12
176
     1
 62
     7
176
     1
 40
1.0
176
     1
 90
        1
176
     1
 90
        6
176
     1
 90
        2
176
     1
 62
     7
176
     1
 90
        5
176
     1
 90
        0
176
     1
 90
        0
176
     1
290
     0
176
     1
 90
        1
176
     1
 40
0.0
176
     1
 90
        0
176
     1
290
     0
176
     1
290
     1
176
     1
290
     1
176
     1
290
     0
176
     1
290
     0
176
     1
290
     0
176
     1
290
     0
176
     1
290
     0
176
     1
290
     0
176
     1
 90
       50
176
     1
 40
0.0
176
     1
 40
1.0
176
     1
 90
        0
176
     1
 62
    18
420
        0
176
     1
 90
       50
176
     1
 90
        3
176
     1
 62
     5
420
      255
176
     1
290
     0
176
     1
 90
       50
176
     1
 90
       50
176
     1
 90
       50
176
     1
290
     0
176
     1
 90
       50
176
     1
 62
   256
176
     0
 40
1.0
176
     0
 90
        2
176
     1
  1
strokes_ogs.tif
176
     1
290
     0
176
     1
 40
1.0
176
     1
 40
1.0
176
     1
  0
VISUALSTYLE
  5
1000009
102
{ACAD_REACTORS
330
1000003
102
}
330
1000003
100
AcDbVisualStyle
  2
Wireframe
 70
     5
177
     3
291
     0
 70
    58
 90
        0
176
     1
 90
        2
176
     1
 90
        0
176
     1
 90
        0
176
     1
 40
0.6
176
     1
 40
30.0
176
     1
 62
     7
420
 16777215
176
     1
 90
        1
176
     1
 90
        4
176
     1
 62
     7
176
     1
 62
   257
176
     1
 90
        1
176
     1
 90
        1
176
     1
 40
1.0
176
     1
 90
        0
176
     1
 62
   257
176
     1
 40
1.0
176
     1
 90
        1
176
     1
 90
        6
176
     1
 90
        2
176
     1
 62
     7
176
     1
 90
        3
176
     1
 90
        0
176
     1
 90
        0
176
     1
290
     0
176
     1
 90
        1
176
     1
 40
0.0
176
     1
 90
        0
176
     1
290
     0
176
     1
290
     1
176
     1
290
     1
176
     1
290
     0
176
     1
290
     0
176
     1
290
     0
176
     1
290
     0
176
     1
290
     0
176
     1
290
     0
176
     1
 90
       50
176
     1
 40
0.0
176
     1
 40
1.0
176
     1
 90
        0
176
     1
 62
    18
420
        0
176
     1
 90
       50
176
     1
 90
        3
176
     1
 62
     5
420
      255
176
     1
290
     0
176
     1
 90
       50
176
     1
 90
       50
176
     1
 90
       50
176
     1
290
     0
176
     1
 90
       50
176
     1
 62
   256
176
     0
 40
1.0
176
     0
 90
        2
176
     1
  1
strokes_ogs.tif
176
     1
290
     0
176
     1
 40
1.0
176
     1
 40
1.0
176
     1
  0
VISUALSTYLE
  5
1000019
102
{ACAD_REACTORS
330
1000003
102
}
330
1000003
100
AcDbVisualStyle
  2
X-Ray
 70
    25
177
     3
291
     0
 70
    58
 90
        2
176
     1
 90
        2
176
     1
 90
        1
176
     1
 90
        1
176
     1
 40
0.5
176
     1
 40
30.0
176
     1
 62
     7
420
 16777215
176
     1
 90
        1
176
     1
 90
        0
176
     1
 62
     7
176
     1
 62
   257
176
     1
 90
        1
176
     1
 90
        1
176
     1
 40
1.0
176
     1
 90
        8
176
     1
 62
     7
176
     1
 40
1.0
176
     1
 90
        1
176
     1
 90
        6
176
     1
 90
        2
176
     1
 62
     7
176
     1
 90
        3
176
     1
 90
        0
176
     1
 90
        0
176
     1
290
     0
176
     1
 90
       13
176
     1
 40
0.0
176
     1
 90
        0
176
     1
290
     0
176
     1
290
     1
176
     1
290
     1
176
     1
290
     0
176
     1
290
     0
176
     1
290
     0
176
     1
290
     0
176
     1
290
     0
176
     1
290
     0
176
     1
 90
       50
176
     1
 40
0.0
176
     1
 40
1.0
176
     1
 90
        0
176
     1
 62
    18
420
        0
176
     1
 90
       50
176
     1
 90
        3
176
     1
 62
     5
420
      255
176
     1
290
     0
176
     1
 90
       50
176
     1
 90
       50
176
     1
 90
       50
176
     1
290
     0
176
     1
 90
       50
176
     1
 62
   256
176
     0
 40
1.0
176
     0
 90
        2
176
     1
  1
strokes_ogs.tif
176
     1
290
     0
176
     1
 40
1.0
176
     1
 40
1.0
176
     1
  0
DICTIONARYVAR
  5
100005C
102
{ACAD_REACTORS
330
1000058
102
}
330
1000058
100
DictionaryVariables
280
     0
  1
1:1
  0
DICTIONARYVAR
  5
100005A
102
{ACAD_REACTORS
330
1000058
102
}
330
1000058
100
DictionaryVariables
280
     0
  1
Standard
  0
DICTIONARYVAR
  5
1000059
102
{ACAD_REACTORS
330
1000058
102
}
330
1000058
100
DictionaryVariables
280
     0
  1
Standard
  0
DICTIONARYVAR
  5
100005B
102
{ACAD_REACTORS
330
1000058
102
}
330
1000058
100
DictionaryVariables
280
     0
  1
0
  0
ENDSEC
  0
SECTION
  2
ACDSDATA
 70
     2
 71
     2
  0
ACDSSCHEMA
 90
        0
  1
AcDb3DSolid_ASM_Data
  2
AcDbDs::ID
280
    10
 91
        0
  2
ASM_Data
280
    15
 91
        0
101
ACDSRECORD
 95
        0
 90
        1
  2
AcDbDs::TreatedAsObjectData
280
     1
291
     1
101
ACDSRECORD
 95
        0
 90
        2
  2
AcDbDs::Legacy
280
     1
291
     1
101
ACDSRECORD
  1
AcDbDs::ID
 90
        3
  2
AcDs:Indexable
280
     1
291
     1
101
ACDSRECORD
  1
AcDbDs::ID
 90
        4
  2
AcDbDs::HandleAttribute
280
     7
282
     1
  0
ACDSSCHEMA
 90
        1
  1
AcDbDs::TreatedAsObjectDataSchema
  2
AcDbDs::TreatedAsObjectData
280
     1
 91
        0
  0
ACDSSCHEMA
 90
        2
  1
AcDbDs::LegacySchema
  2
AcDbDs::Legacy
280
     1
 91
        0
  0
ACDSSCHEMA
 90
        3
  1
AcDbDs::IndexedPropertySchema
  2
AcDs:Indexable
280
     1
 91
        0
  0
ACDSSCHEMA
 90
        4
  1
AcDbDs::HandleAttributeSchema
  2
AcDbDs::HandleAttribute
280
     7
 91
        8
  0
ENDSEC
  0
EOF
