  0
SECTION
  2
HEADER
  9
$ACADVER
  1
AC1018
  9
$HANDSEED
  5
FFFFFF
  9
$EXTMAX
 10
8385903.2929999996
 20
5682319.28100000042
 30
1000000.00
  9
$EXTMIN
 10
8385815.39900000021
 20
5682173.21200000029
 30
0.00
  9
$LIMMIN
 10
8385815.39900000021
 20
5682173.21200000029
  9
$LIMMAX
 10
8385903.2929999996
 20
5682319.28100000042
  9
$DIMASZ
 40
2.5
  9
$DIMGAP
 40
0.625
  9
$INSUNITS
 70
6
  9
$MEASUREMENT
 70
1
  9
$DIMEXO
 40
0.625
  9
$DIMTXT
 40
2.5
  9
$DIMSTYLE
  2
Standard
  9
$PLIMMIN
 10
0.0
 20
0.0
  9
$PLIMMAX
 10
210.0
 20
297.0
  9
$DIMEXE
 40
1.25
  9
$TEXTSIZE
 40
2.5
  9
$TEXTSTYLE
  7
Standard
  9
$LWDISPLAY
290
1
  9
$TDCREATE
 40
45719.665223947
  9
$TDUCREATE
 40
45719.623557280
  9
$TDUPDATE
 40
45719.665223947
  9
$TDUUPDATE
 40
45719.623557280
  9
$TDINDWG
 40
0.0
  9
$TDUSRTIMER
 40
0.0
  9
$USRTIMER
 70
1
  0
ENDSEC
  0
SECTION
  2
TABLES
  0
TABLE
  2
VPORT
  5
1
100
AcDbSymbolTable
 70
1
  0
VPORT
  5
2
100
AcDbSymbolTableRecord
100
AcDbViewportTableRecord
  2
*ACTIVE
 70
0
 10
0.0
 20
0.0
 11
1.0
 21
1.0
 12
8385859.346
 22
5682246.247
 13
0.0
 23
0.0
 14
1.0
 24
1.0
 15
0.0
 25
0.0
 16
0.0
 26
0.0
 36
1.0
 17
0.0
 27
0.0
 37
0.0
 40
146.069
 41
0.602
 42
50.0
 43
0.0
 44
0.0
 50
0.0
 51
0.0
 71
0
 72
100
 73
1
 74
1
 75
0
 76
0
 77
0
 78
0
  0
ENDTAB
  0
TABLE
  2
LTYPE
  5
3
100
AcDbSymbolTable
 70
3
  0
LTYPE
  5
4
100
AcDbSymbolTableRecord
100
AcDbLinetypeTableRecord
  2
ByBlock
 70
0
  3

 72
65
 73
0
 40
0.0
  0
LTYPE
  5
5
100
AcDbSymbolTableRecord
100
AcDbLinetypeTableRecord
  2
ByLayer
 70
0
  3

 72
65
 73
0
 40
0.0
  0
LTYPE
  5
6
100
AcDbSymbolTableRecord
100
AcDbLinetypeTableRecord
  2
CONTINUOUS
 70
0
  3
Solid line
 72
65
 73
0
 40
0.0
  0
ENDTAB
  0
TABLE
  2
LAYER
  5
7
100
AcDbSymbolTable
 70
2
  0
LAYER
  5
8
100
AcDbSymbolTableRecord
100
AcDbLayerTableRecord
  2
0
 70
0
 62
-7
420
0
  6
CONTINUOUS
370
18
390
9
  0
LAYER
  5
A
100
AcDbSymbolTableRecord
100
AcDbLayerTableRecord
  2
__osie
 70
0
420
16711680
  6
CONTINUOUS
370
18
390
9
  0
ENDTAB
  0
TABLE
  2
STYLE
  5
B
100
AcDbSymbolTable
 70
3
  0
STYLE
  5
C
100
AcDbSymbolTableRecord
100
AcDbTextStyleTableRecord
  2
STANDARD
 70
0
 40
0.0
 41
1.0
 50
0.0
 71
0
  3
simplex.shx
  4

  0
STYLE
  5
D
100
AcDbSymbolTableRecord
100
AcDbTextStyleTableRecord
  2
STANDARD_ITALIC
 70
0
 40
0.0
 41
1.0
 50
15.0
 71
0
  3
simplex.shx
  4

  0
STYLE
  5
E
100
AcDbSymbolTableRecord
100
AcDbTextStyleTableRecord
  2
arial.ttf
 70
0
 40
0.0
 41
1.0
 50
0.0
 71
0
  3
arial.ttf.ttf
  4

  0
ENDTAB
  0
TABLE
  2
VIEW
  5
F
100
AcDbSymbolTable
 70
0
  0
ENDTAB
  0
TABLE
  2
UCS
  5
10
100
AcDbSymbolTable
 70
0
  0
ENDTAB
  0
TABLE
  2
APPID
  5
11
100
AcDbSymbolTable
 70
1
  0
APPID
  5
12
100
AcDbSymbolTableRecord
100
AcDbRegAppTableRecord
  2
ACAD
 70
0
  0
ENDTAB
  0
TABLE
  2
DIMSTYLE
  5
13
100
AcDbSymbolTable
 70
1
100
AcDbDimStyleTable
  0
DIMSTYLE
105
14
100
AcDbSymbolTableRecord
100
AcDbDimStyleTableRecord
  2
Standard
 70
0
340
C
  0
ENDTAB
  0
TABLE
  2
BLOCK_RECORD
  5
15
100
AcDbSymbolTable
 70
2
  0
BLOCK_RECORD
  5
16
100
AcDbSymbolTableRecord
100
AcDbBlockTableRecord
  2
*Model_Space
340
17
  0
BLOCK_RECORD
  5
18
100
AcDbSymbolTableRecord
100
AcDbBlockTableRecord
  2
*Paper_Space
340
19
  0
ENDTAB
  0
ENDSEC
  0
SECTION
  2
BLOCKS
  0
BLOCK
  5
1A
100
AcDbEntity
  8
0
100
AcDbBlockBegin
  2
*Model_Space
 70
0
 10
0.0
 20
0.0
 30
0.0
  3
*Model_Space
  1

  0
ENDBLK
  5
1B
100
AcDbEntity
  8
0
100
AcDbBlockEnd
  0
BLOCK
  5
1C
100
AcDbEntity
 67
1
  8
0
100
AcDbBlockBegin
  2
*Paper_Space
 70
0
 10
0.0
 20
0.0
 30
0.0
  3
*Paper_Space
  1

  0
ENDBLK
  5
1D
100
AcDbEntity
 67
1
  8
0
100
AcDbBlockEnd
  0
ENDSEC
  0
SECTION
  2
ENTITIES
  0
POLYLINE
  5
1E
100
AcDbEntity
  8
__osie
  6
CONTINUOUS
370
18
100
AcDb2dPolyline
 66
1
 70
128
  0
VERTEX
  5
1F
100
AcDbEntity
  8
__osie
100
AcDbVertex
100
AcDb2dVertex
 10
8385883.59174794424
 20
5682174.74466784298
  0
VERTEX
  5
20
100
AcDbEntity
  8
__osie
100
AcDbVertex
100
AcDb2dVertex
 10
8385865.22774794418
 20
5682174.74466784298
  0
SEQEND
  5
21
100
AcDbEntity
  8
__osie
  0
POLYLINE
  5
22
100
AcDbEntity
  8
__osie
  6
CONTINUOUS
370
18
100
AcDb2dPolyline
 66
1
 70
128
  0
VERTEX
  5
23
100
AcDbEntity
  8
__osie
100
AcDbVertex
100
AcDb2dVertex
 10
8385865.22774794418
 20
5682176.94466784503
  0
VERTEX
  5
24
100
AcDbEntity
  8
__osie
100
AcDbVertex
100
AcDb2dVertex
 10
8385883.59174794424
 20
5682176.94466784503
  0
SEQEND
  5
25
100
AcDbEntity
  8
__osie
  0
POLYLINE
  5
26
100
AcDbEntity
  8
__osie
  6
CONTINUOUS
370
18
100
AcDb2dPolyline
 66
1
 70
128
  0
VERTEX
  5
27
100
AcDbEntity
  8
__osie
100
AcDbVertex
100
AcDb2dVertex
 10
8385882.9847479444
 20
5682177.84466784541
  0
VERTEX
  5
28
100
AcDbEntity
  8
__osie
100
AcDbVertex
100
AcDb2dVertex
 10
8385882.9847479444
 20
5682173.84466784261
  0
SEQEND
  5
29
100
AcDbEntity
  8
__osie
  0
POLYLINE
  5
2A
100
AcDbEntity
  8
__osie
  6
CONTINUOUS
370
18
100
AcDb2dPolyline
 66
1
 70
128
  0
VERTEX
  5
2B
100
AcDbEntity
  8
__osie
100
AcDbVertex
100
AcDb2dVertex
 10
8385865.83474794403
 20
5682177.84466784541
  0
VERTEX
  5
2C
100
AcDbEntity
  8
__osie
100
AcDbVertex
100
AcDb2dVertex
 10
8385865.83474794403
 20
5682173.84466784261
  0
SEQEND
  5
2D
100
AcDbEntity
  8
__osie
  0
POLYLINE
  5
2E
100
AcDbEntity
  8
__osie
  6
CONTINUOUS
370
18
100
AcDb2dPolyline
 66
1
 70
128
  0
VERTEX
  5
2F
100
AcDbEntity
  8
__osie
100
AcDbVertex
100
AcDb2dVertex
 10
8385903.29339527711
 20
5682186.44579293486
  0
VERTEX
  5
30
100
AcDbEntity
  8
__osie
100
AcDbVertex
100
AcDb2dVertex
 10
8385862.71939528175
 20
5682186.44579293486
  0
SEQEND
  5
31
100
AcDbEntity
  8
__osie
  0
POLYLINE
  5
32
100
AcDbEntity
  8
__osie
  6
CONTINUOUS
370
18
100
AcDb2dPolyline
 66
1
 70
128
  0
VERTEX
  5
33
100
AcDbEntity
  8
__osie
100
AcDbVertex
100
AcDb2dVertex
 10
8385862.71939528175
 20
5682184.24579293095
  0
VERTEX
  5
34
100
AcDbEntity
  8
__osie
100
AcDbVertex
100
AcDb2dVertex
 10
8385903.29339527711
 20
5682184.24579293095
  0
SEQEND
  5
35
100
AcDbEntity
  8
__osie
  0
POLYLINE
  5
36
100
AcDbEntity
  8
__osie
  6
CONTINUOUS
370
18
100
AcDb2dPolyline
 66
1
 70
128
  0
VERTEX
  5
37
100
AcDbEntity
  8
__osie
100
AcDbVertex
100
AcDb2dVertex
 10
8385903.29339527804
 20
5682183.34579293057
  0
VERTEX
  5
38
100
AcDbEntity
  8
__osie
100
AcDbVertex
100
AcDb2dVertex
 10
8385903.29339527804
 20
5682187.34579293523
  0
SEQEND
  5
39
100
AcDbEntity
  8
__osie
  0
POLYLINE
  5
3A
100
AcDbEntity
  8
__osie
  6
CONTINUOUS
370
18
100
AcDb2dPolyline
 66
1
 70
128
  0
VERTEX
  5
3B
100
AcDbEntity
  8
__osie
100
AcDbVertex
100
AcDb2dVertex
 10
8385882.09339527786
 20
5682183.34579293057
  0
VERTEX
  5
3C
100
AcDbEntity
  8
__osie
100
AcDbVertex
100
AcDb2dVertex
 10
8385882.09339527786
 20
5682187.34579293523
  0
SEQEND
  5
3D
100
AcDbEntity
  8
__osie
  0
POLYLINE
  5
3E
100
AcDbEntity
  8
__osie
  6
CONTINUOUS
370
18
100
AcDb2dPolyline
 66
1
 70
128
  0
VERTEX
  5
3F
100
AcDbEntity
  8
__osie
100
AcDbVertex
100
AcDb2dVertex
 10
8385880.40639527794
 20
5682183.34579293057
  0
VERTEX
  5
40
100
AcDbEntity
  8
__osie
100
AcDbVertex
100
AcDb2dVertex
 10
8385880.40639527794
 20
5682187.34579293523
  0
SEQEND
  5
41
100
AcDbEntity
  8
__osie
  0
POLYLINE
  5
42
100
AcDbEntity
  8
__osie
  6
CONTINUOUS
370
18
100
AcDb2dPolyline
 66
1
 70
128
  0
VERTEX
  5
43
100
AcDbEntity
  8
__osie
100
AcDbVertex
100
AcDb2dVertex
 10
8385863.2563952785
 20
5682183.34579293057
  0
VERTEX
  5
44
100
AcDbEntity
  8
__osie
100
AcDbVertex
100
AcDb2dVertex
 10
8385863.2563952785
 20
5682187.34579293523
  0
SEQEND
  5
45
100
AcDbEntity
  8
__osie
  0
POLYLINE
  5
46
100
AcDbEntity
  8
__osie
  6
CONTINUOUS
370
18
100
AcDb2dPolyline
 66
1
 70
128
  0
VERTEX
  5
47
100
AcDbEntity
  8
__osie
100
AcDbVertex
100
AcDb2dVertex
 10
8385899.33568037208
 20
5682196.44466784969
  0
VERTEX
  5
48
100
AcDbEntity
  8
__osie
100
AcDbVertex
100
AcDb2dVertex
 10
8385858.76168037672
 20
5682196.44466785062
  0
SEQEND
  5
49
100
AcDbEntity
  8
__osie
  0
POLYLINE
  5
4A
100
AcDbEntity
  8
__osie
  6
CONTINUOUS
370
18
100
AcDb2dPolyline
 66
1
 70
128
  0
VERTEX
  5
4B
100
AcDbEntity
  8
__osie
100
AcDbVertex
100
AcDb2dVertex
 10
8385858.76168037672
 20
5682194.24466784671
  0
VERTEX
  5
4C
100
AcDbEntity
  8
__osie
100
AcDbVertex
100
AcDb2dVertex
 10
8385899.33568037208
 20
5682194.24466784671
  0
SEQEND
  5
4D
100
AcDbEntity
  8
__osie
  0
POLYLINE
  5
4E
100
AcDbEntity
  8
__osie
  6
CONTINUOUS
370
18
100
AcDb2dPolyline
 66
1
 70
128
  0
VERTEX
  5
4F
100
AcDbEntity
  8
__osie
100
AcDbVertex
100
AcDb2dVertex
 10
8385899.33568037301
 20
5682193.34466784634
  0
VERTEX
  5
50
100
AcDbEntity
  8
__osie
100
AcDbVertex
100
AcDb2dVertex
 10
8385899.33568037301
 20
5682197.34466785099
  0
SEQEND
  5
51
100
AcDbEntity
  8
__osie
  0
POLYLINE
  5
52
100
AcDbEntity
  8
__osie
  6
CONTINUOUS
370
18
100
AcDb2dPolyline
 66
1
 70
128
  0
VERTEX
  5
53
100
AcDbEntity
  8
__osie
100
AcDbVertex
100
AcDb2dVertex
 10
8385878.13568037283
 20
5682193.34466784634
  0
VERTEX
  5
54
100
AcDbEntity
  8
__osie
100
AcDbVertex
100
AcDb2dVertex
 10
8385878.13568037283
 20
5682197.34466785099
  0
SEQEND
  5
55
100
AcDbEntity
  8
__osie
  0
POLYLINE
  5
56
100
AcDbEntity
  8
__osie
  6
CONTINUOUS
370
18
100
AcDb2dPolyline
 66
1
 70
128
  0
VERTEX
  5
57
100
AcDbEntity
  8
__osie
100
AcDbVertex
100
AcDb2dVertex
 10
8385876.44868037291
 20
5682193.34466784634
  0
VERTEX
  5
58
100
AcDbEntity
  8
__osie
100
AcDbVertex
100
AcDb2dVertex
 10
8385876.44868037291
 20
5682197.34466785099
  0
SEQEND
  5
59
100
AcDbEntity
  8
__osie
  0
POLYLINE
  5
5A
100
AcDbEntity
  8
__osie
  6
CONTINUOUS
370
18
100
AcDb2dPolyline
 66
1
 70
128
  0
VERTEX
  5
5B
100
AcDbEntity
  8
__osie
100
AcDbVertex
100
AcDb2dVertex
 10
8385859.29868037347
 20
5682193.34466784634
  0
VERTEX
  5
5C
100
AcDbEntity
  8
__osie
100
AcDbVertex
100
AcDb2dVertex
 10
8385859.29868037347
 20
5682197.34466785099
  0
SEQEND
  5
5D
100
AcDbEntity
  8
__osie
  0
POLYLINE
  5
5E
100
AcDbEntity
  8
__osie
  6
CONTINUOUS
370
18
100
AcDb2dPolyline
 66
1
 70
128
  0
VERTEX
  5
5F
100
AcDbEntity
  8
__osie
100
AcDbVertex
100
AcDb2dVertex
 10
8385895.37796546705
 20
5682206.44466785342
  0
VERTEX
  5
60
100
AcDbEntity
  8
__osie
100
AcDbVertex
100
AcDb2dVertex
 10
8385854.80396547168
 20
5682206.44466785435
  0
SEQEND
  5
61
100
AcDbEntity
  8
__osie
  0
POLYLINE
  5
62
100
AcDbEntity
  8
__osie
  6
CONTINUOUS
370
18
100
AcDb2dPolyline
 66
1
 70
128
  0
VERTEX
  5
63
100
AcDbEntity
  8
__osie
100
AcDbVertex
100
AcDb2dVertex
 10
8385854.80396547168
 20
5682204.24466785043
  0
VERTEX
  5
64
100
AcDbEntity
  8
__osie
100
AcDbVertex
100
AcDb2dVertex
 10
8385895.37796546705
 20
5682204.24466785043
  0
SEQEND
  5
65
100
AcDbEntity
  8
__osie
  0
POLYLINE
  5
66
100
AcDbEntity
  8
__osie
  6
CONTINUOUS
370
18
100
AcDb2dPolyline
 66
1
 70
128
  0
VERTEX
  5
67
100
AcDbEntity
  8
__osie
100
AcDbVertex
100
AcDb2dVertex
 10
8385895.37796546798
 20
5682203.34466785006
  0
VERTEX
  5
68
100
AcDbEntity
  8
__osie
100
AcDbVertex
100
AcDb2dVertex
 10
8385895.37796546798
 20
5682207.34466785472
  0
SEQEND
  5
69
100
AcDbEntity
  8
__osie
  0
POLYLINE
  5
6A
100
AcDbEntity
  8
__osie
  6
CONTINUOUS
370
18
100
AcDb2dPolyline
 66
1
 70
128
  0
VERTEX
  5
6B
100
AcDbEntity
  8
__osie
100
AcDbVertex
100
AcDb2dVertex
 10
8385874.1779654678
 20
5682203.34466785006
  0
VERTEX
  5
6C
100
AcDbEntity
  8
__osie
100
AcDbVertex
100
AcDb2dVertex
 10
8385874.1779654678
 20
5682207.34466785472
  0
SEQEND
  5
6D
100
AcDbEntity
  8
__osie
  0
POLYLINE
  5
6E
100
AcDbEntity
  8
__osie
  6
CONTINUOUS
370
18
100
AcDb2dPolyline
 66
1
 70
128
  0
VERTEX
  5
6F
100
AcDbEntity
  8
__osie
100
AcDbVertex
100
AcDb2dVertex
 10
8385872.49096546788
 20
5682203.34466785006
  0
VERTEX
  5
70
100
AcDbEntity
  8
__osie
100
AcDbVertex
100
AcDb2dVertex
 10
8385872.49096546788
 20
5682207.34466785472
  0
SEQEND
  5
71
100
AcDbEntity
  8
__osie
  0
POLYLINE
  5
72
100
AcDbEntity
  8
__osie
  6
CONTINUOUS
370
18
100
AcDb2dPolyline
 66
1
 70
128
  0
VERTEX
  5
73
100
AcDbEntity
  8
__osie
100
AcDbVertex
100
AcDb2dVertex
 10
8385855.34096546844
 20
5682203.34466785006
  0
VERTEX
  5
74
100
AcDbEntity
  8
__osie
100
AcDbVertex
100
AcDb2dVertex
 10
8385855.34096546844
 20
5682207.34466785472
  0
SEQEND
  5
75
100
AcDbEntity
  8
__osie
  0
POLYLINE
  5
76
100
AcDbEntity
  8
__osie
  6
CONTINUOUS
370
18
100
AcDb2dPolyline
 66
1
 70
128
  0
VERTEX
  5
77
100
AcDbEntity
  8
__osie
100
AcDbVertex
100
AcDb2dVertex
 10
8385891.42025056388
 20
5682216.44466785621
  0
VERTEX
  5
78
100
AcDbEntity
  8
__osie
100
AcDbVertex
100
AcDb2dVertex
 10
8385847.06025056355
 20
5682216.44466785528
  0
SEQEND
  5
79
100
AcDbEntity
  8
__osie
  0
POLYLINE
  5
7A
100
AcDbEntity
  8
__osie
  6
CONTINUOUS
370
18
100
AcDb2dPolyline
 66
1
 70
128
  0
VERTEX
  5
7B
100
AcDbEntity
  8
__osie
100
AcDbVertex
100
AcDb2dVertex
 10
8385847.06025056355
 20
5682214.24466785137
  0
VERTEX
  5
7C
100
AcDbEntity
  8
__osie
100
AcDbVertex
100
AcDb2dVertex
 10
8385891.42025056388
 20
5682214.2446678523
  0
SEQEND
  5
7D
100
AcDbEntity
  8
__osie
  0
POLYLINE
  5
7E
100
AcDbEntity
  8
__osie
  6
CONTINUOUS
370
18
100
AcDb2dPolyline
 66
1
 70
128
  0
VERTEX
  5
7F
100
AcDbEntity
  8
__osie
100
AcDbVertex
100
AcDb2dVertex
 10
8385891.42025056388
 20
5682213.34466785192
  0
VERTEX
  5
80
100
AcDbEntity
  8
__osie
100
AcDbVertex
100
AcDb2dVertex
 10
8385891.42025056388
 20
5682217.34466785658
  0
SEQEND
  5
81
100
AcDbEntity
  8
__osie
  0
POLYLINE
  5
82
100
AcDbEntity
  8
__osie
  6
CONTINUOUS
370
18
100
AcDb2dPolyline
 66
1
 70
128
  0
VERTEX
  5
83
100
AcDbEntity
  8
__osie
100
AcDbVertex
100
AcDb2dVertex
 10
8385870.2202505637
 20
5682213.34466785192
  0
VERTEX
  5
84
100
AcDbEntity
  8
__osie
100
AcDbVertex
100
AcDb2dVertex
 10
8385870.2202505637
 20
5682217.34466785658
  0
SEQEND
  5
85
100
AcDbEntity
  8
__osie
  0
POLYLINE
  5
86
100
AcDbEntity
  8
__osie
  6
CONTINUOUS
370
18
100
AcDb2dPolyline
 66
1
 70
128
  0
VERTEX
  5
87
100
AcDbEntity
  8
__osie
100
AcDbVertex
100
AcDb2dVertex
 10
8385868.26025056373
 20
5682213.34466785192
  0
VERTEX
  5
88
100
AcDbEntity
  8
__osie
100
AcDbVertex
100
AcDb2dVertex
 10
8385868.26025056373
 20
5682217.34466785658
  0
SEQEND
  5
89
100
AcDbEntity
  8
__osie
  0
POLYLINE
  5
8A
100
AcDbEntity
  8
__osie
  6
CONTINUOUS
370
18
100
AcDb2dPolyline
 66
1
 70
128
  0
VERTEX
  5
8B
100
AcDbEntity
  8
__osie
100
AcDbVertex
100
AcDb2dVertex
 10
8385847.06025056355
 20
5682213.34466785192
  0
VERTEX
  5
8C
100
AcDbEntity
  8
__osie
100
AcDbVertex
100
AcDb2dVertex
 10
8385847.06025056355
 20
5682217.34466785658
  0
SEQEND
  5
8D
100
AcDbEntity
  8
__osie
  0
POLYLINE
  5
8E
100
AcDbEntity
  8
__osie
  6
CONTINUOUS
370
18
100
AcDb2dPolyline
 66
1
 70
128
  0
VERTEX
  5
8F
100
AcDbEntity
  8
__osie
100
AcDbVertex
100
AcDb2dVertex
 10
8385887.46253565792
 20
5682226.44466785993
  0
VERTEX
  5
90
100
AcDbEntity
  8
__osie
100
AcDbVertex
100
AcDb2dVertex
 10
8385843.10253565758
 20
5682226.44466785993
  0
SEQEND
  5
91
100
AcDbEntity
  8
__osie
  0
POLYLINE
  5
92
100
AcDbEntity
  8
__osie
  6
CONTINUOUS
370
18
100
AcDb2dPolyline
 66
1
 70
128
  0
VERTEX
  5
93
100
AcDbEntity
  8
__osie
100
AcDbVertex
100
AcDb2dVertex
 10
8385843.10253565758
 20
5682224.24466785509
  0
VERTEX
  5
94
100
AcDbEntity
  8
__osie
100
AcDbVertex
100
AcDb2dVertex
 10
8385887.46253565792
 20
5682224.24466785602
  0
SEQEND
  5
95
100
AcDbEntity
  8
__osie
  0
POLYLINE
  5
96
100
AcDbEntity
  8
__osie
  6
CONTINUOUS
370
18
100
AcDb2dPolyline
 66
1
 70
128
  0
VERTEX
  5
97
100
AcDbEntity
  8
__osie
100
AcDbVertex
100
AcDb2dVertex
 10
8385887.46253565885
 20
5682223.34466785565
  0
VERTEX
  5
98
100
AcDbEntity
  8
__osie
100
AcDbVertex
100
AcDb2dVertex
 10
8385887.46253565885
 20
5682227.34466786031
  0
SEQEND
  5
99
100
AcDbEntity
  8
__osie
  0
POLYLINE
  5
9A
100
AcDbEntity
  8
__osie
  6
CONTINUOUS
370
18
100
AcDb2dPolyline
 66
1
 70
128
  0
VERTEX
  5
9B
100
AcDbEntity
  8
__osie
100
AcDbVertex
100
AcDb2dVertex
 10
8385866.26253565866
 20
5682223.34466785565
  0
VERTEX
  5
9C
100
AcDbEntity
  8
__osie
100
AcDbVertex
100
AcDb2dVertex
 10
8385866.26253565866
 20
5682227.34466786031
  0
SEQEND
  5
9D
100
AcDbEntity
  8
__osie
  0
POLYLINE
  5
9E
100
AcDbEntity
  8
__osie
  6
CONTINUOUS
370
18
100
AcDb2dPolyline
 66
1
 70
128
  0
VERTEX
  5
9F
100
AcDbEntity
  8
__osie
100
AcDbVertex
100
AcDb2dVertex
 10
8385864.3025356587
 20
5682223.34466785565
  0
VERTEX
  5
A0
100
AcDbEntity
  8
__osie
100
AcDbVertex
100
AcDb2dVertex
 10
8385864.3025356587
 20
5682227.34466786031
  0
SEQEND
  5
A1
100
AcDbEntity
  8
__osie
  0
POLYLINE
  5
A2
100
AcDbEntity
  8
__osie
  6
CONTINUOUS
370
18
100
AcDb2dPolyline
 66
1
 70
128
  0
VERTEX
  5
A3
100
AcDbEntity
  8
__osie
100
AcDbVertex
100
AcDb2dVertex
 10
8385843.10253565852
 20
5682223.34466785565
  0
VERTEX
  5
A4
100
AcDbEntity
  8
__osie
100
AcDbVertex
100
AcDb2dVertex
 10
8385843.10253565852
 20
5682227.34466786031
  0
SEQEND
  5
A5
100
AcDbEntity
  8
__osie
  0
POLYLINE
  5
A6
100
AcDbEntity
  8
__osie
  6
CONTINUOUS
370
18
100
AcDb2dPolyline
 66
1
 70
128
  0
VERTEX
  5
A7
100
AcDbEntity
  8
__osie
100
AcDbVertex
100
AcDb2dVertex
 10
8385883.50482075289
 20
5682236.4446678618
  0
VERTEX
  5
A8
100
AcDbEntity
  8
__osie
100
AcDbVertex
100
AcDb2dVertex
 10
8385839.14482075255
 20
5682236.4446678618
  0
SEQEND
  5
A9
100
AcDbEntity
  8
__osie
  0
POLYLINE
  5
AA
100
AcDbEntity
  8
__osie
  6
CONTINUOUS
370
18
100
AcDb2dPolyline
 66
1
 70
128
  0
VERTEX
  5
AB
100
AcDbEntity
  8
__osie
100
AcDbVertex
100
AcDb2dVertex
 10
8385839.14482075255
 20
5682234.24466785695
  0
VERTEX
  5
AC
100
AcDbEntity
  8
__osie
100
AcDbVertex
100
AcDb2dVertex
 10
8385883.50482075289
 20
5682234.24466785789
  0
SEQEND
  5
AD
100
AcDbEntity
  8
__osie
  0
POLYLINE
  5
AE
100
AcDbEntity
  8
__osie
  6
CONTINUOUS
370
18
100
AcDb2dPolyline
 66
1
 70
128
  0
VERTEX
  5
AF
100
AcDbEntity
  8
__osie
100
AcDbVertex
100
AcDb2dVertex
 10
8385883.50482075382
 20
5682233.34466785751
  0
VERTEX
  5
B0
100
AcDbEntity
  8
__osie
100
AcDbVertex
100
AcDb2dVertex
 10
8385883.50482075382
 20
5682237.34466786217
  0
SEQEND
  5
B1
100
AcDbEntity
  8
__osie
  0
POLYLINE
  5
B2
100
AcDbEntity
  8
__osie
  6
CONTINUOUS
370
18
100
AcDb2dPolyline
 66
1
 70
128
  0
VERTEX
  5
B3
100
AcDbEntity
  8
__osie
100
AcDbVertex
100
AcDb2dVertex
 10
8385862.30482075363
 20
5682233.34466785751
  0
VERTEX
  5
B4
100
AcDbEntity
  8
__osie
100
AcDbVertex
100
AcDb2dVertex
 10
8385862.30482075363
 20
5682237.34466786217
  0
SEQEND
  5
B5
100
AcDbEntity
  8
__osie
  0
POLYLINE
  5
B6
100
AcDbEntity
  8
__osie
  6
CONTINUOUS
370
18
100
AcDb2dPolyline
 66
1
 70
128
  0
VERTEX
  5
B7
100
AcDbEntity
  8
__osie
100
AcDbVertex
100
AcDb2dVertex
 10
8385860.34482075367
 20
5682233.34466785751
  0
VERTEX
  5
B8
100
AcDbEntity
  8
__osie
100
AcDbVertex
100
AcDb2dVertex
 10
8385860.34482075367
 20
5682237.34466786217
  0
SEQEND
  5
B9
100
AcDbEntity
  8
__osie
  0
POLYLINE
  5
BA
100
AcDbEntity
  8
__osie
  6
CONTINUOUS
370
18
100
AcDb2dPolyline
 66
1
 70
128
  0
VERTEX
  5
BB
100
AcDbEntity
  8
__osie
100
AcDbVertex
100
AcDb2dVertex
 10
8385839.14482075349
 20
5682233.34466785751
  0
VERTEX
  5
BC
100
AcDbEntity
  8
__osie
100
AcDbVertex
100
AcDb2dVertex
 10
8385839.14482075349
 20
5682237.34466786217
  0
SEQEND
  5
BD
100
AcDbEntity
  8
__osie
  0
POLYLINE
  5
BE
100
AcDbEntity
  8
__osie
  6
CONTINUOUS
370
18
100
AcDb2dPolyline
 66
1
 70
128
  0
VERTEX
  5
BF
100
AcDbEntity
  8
__osie
100
AcDbVertex
100
AcDb2dVertex
 10
8385879.54710584786
 20
5682246.44466786645
  0
VERTEX
  5
C0
100
AcDbEntity
  8
__osie
100
AcDbVertex
100
AcDb2dVertex
 10
8385835.18710584752
 20
5682246.44466786645
  0
SEQEND
  5
C1
100
AcDbEntity
  8
__osie
  0
POLYLINE
  5
C2
100
AcDbEntity
  8
__osie
  6
CONTINUOUS
370
18
100
AcDb2dPolyline
 66
1
 70
128
  0
VERTEX
  5
C3
100
AcDbEntity
  8
__osie
100
AcDbVertex
100
AcDb2dVertex
 10
8385835.18710584752
 20
5682244.24466786161
  0
VERTEX
  5
C4
100
AcDbEntity
  8
__osie
100
AcDbVertex
100
AcDb2dVertex
 10
8385879.54710584786
 20
5682244.24466786347
  0
SEQEND
  5
C5
100
AcDbEntity
  8
__osie
  0
POLYLINE
  5
C6
100
AcDbEntity
  8
__osie
  6
CONTINUOUS
370
18
100
AcDb2dPolyline
 66
1
 70
128
  0
VERTEX
  5
C7
100
AcDbEntity
  8
__osie
100
AcDbVertex
100
AcDb2dVertex
 10
8385879.54710584879
 20
5682243.34466786217
  0
VERTEX
  5
C8
100
AcDbEntity
  8
__osie
100
AcDbVertex
100
AcDb2dVertex
 10
8385879.54710584879
 20
5682247.34466786683
  0
SEQEND
  5
C9
100
AcDbEntity
  8
__osie
  0
POLYLINE
  5
CA
100
AcDbEntity
  8
__osie
  6
CONTINUOUS
370
18
100
AcDb2dPolyline
 66
1
 70
128
  0
VERTEX
  5
CB
100
AcDbEntity
  8
__osie
100
AcDbVertex
100
AcDb2dVertex
 10
8385858.3471058486
 20
5682243.34466786217
  0
VERTEX
  5
CC
100
AcDbEntity
  8
__osie
100
AcDbVertex
100
AcDb2dVertex
 10
8385858.3471058486
 20
5682247.34466786683
  0
SEQEND
  5
CD
100
AcDbEntity
  8
__osie
  0
POLYLINE
  5
CE
100
AcDbEntity
  8
__osie
  6
CONTINUOUS
370
18
100
AcDb2dPolyline
 66
1
 70
128
  0
VERTEX
  5
CF
100
AcDbEntity
  8
__osie
100
AcDbVertex
100
AcDb2dVertex
 10
8385856.38710584864
 20
5682243.34466786217
  0
VERTEX
  5
D0
100
AcDbEntity
  8
__osie
100
AcDbVertex
100
AcDb2dVertex
 10
8385856.38710584864
 20
5682247.34466786683
  0
SEQEND
  5
D1
100
AcDbEntity
  8
__osie
  0
POLYLINE
  5
D2
100
AcDbEntity
  8
__osie
  6
CONTINUOUS
370
18
100
AcDb2dPolyline
 66
1
 70
128
  0
VERTEX
  5
D3
100
AcDbEntity
  8
__osie
100
AcDbVertex
100
AcDb2dVertex
 10
8385835.18710584845
 20
5682243.34466786217
  0
VERTEX
  5
D4
100
AcDbEntity
  8
__osie
100
AcDbVertex
100
AcDb2dVertex
 10
8385835.18710584845
 20
5682247.34466786683
  0
SEQEND
  5
D5
100
AcDbEntity
  8
__osie
  0
POLYLINE
  5
D6
100
AcDbEntity
  8
__osie
  6
CONTINUOUS
370
18
100
AcDb2dPolyline
 66
1
 70
128
  0
VERTEX
  5
D7
100
AcDbEntity
  8
__osie
100
AcDbVertex
100
AcDb2dVertex
 10
8385875.58939094469
 20
5682256.44466786738
  0
VERTEX
  5
D8
100
AcDbEntity
  8
__osie
100
AcDbVertex
100
AcDb2dVertex
 10
8385831.22939094342
 20
5682256.44466786645
  0
SEQEND
  5
D9
100
AcDbEntity
  8
__osie
  0
POLYLINE
  5
DA
100
AcDbEntity
  8
__osie
  6
CONTINUOUS
370
18
100
AcDb2dPolyline
 66
1
 70
128
  0
VERTEX
  5
DB
100
AcDbEntity
  8
__osie
100
AcDbVertex
100
AcDb2dVertex
 10
8385831.22939094342
 20
5682254.24466786347
  0
VERTEX
  5
DC
100
AcDbEntity
  8
__osie
100
AcDbVertex
100
AcDb2dVertex
 10
8385875.58939094469
 20
5682254.24466786347
  0
SEQEND
  5
DD
100
AcDbEntity
  8
__osie
  0
POLYLINE
  5
DE
100
AcDbEntity
  8
__osie
  6
CONTINUOUS
370
18
100
AcDb2dPolyline
 66
1
 70
128
  0
VERTEX
  5
DF
100
AcDbEntity
  8
__osie
100
AcDbVertex
100
AcDb2dVertex
 10
8385875.58939094469
 20
5682253.3446678631
  0
VERTEX
  5
E0
100
AcDbEntity
  8
__osie
100
AcDbVertex
100
AcDb2dVertex
 10
8385875.58939094469
 20
5682257.34466786776
  0
SEQEND
  5
E1
100
AcDbEntity
  8
__osie
  0
POLYLINE
  5
E2
100
AcDbEntity
  8
__osie
  6
CONTINUOUS
370
18
100
AcDb2dPolyline
 66
1
 70
128
  0
VERTEX
  5
E3
100
AcDbEntity
  8
__osie
100
AcDbVertex
100
AcDb2dVertex
 10
8385854.3893909445
 20
5682253.3446678631
  0
VERTEX
  5
E4
100
AcDbEntity
  8
__osie
100
AcDbVertex
100
AcDb2dVertex
 10
8385854.3893909445
 20
5682257.34466786776
  0
SEQEND
  5
E5
100
AcDbEntity
  8
__osie
  0
POLYLINE
  5
E6
100
AcDbEntity
  8
__osie
  6
CONTINUOUS
370
18
100
AcDb2dPolyline
 66
1
 70
128
  0
VERTEX
  5
E7
100
AcDbEntity
  8
__osie
100
AcDbVertex
100
AcDb2dVertex
 10
8385852.42939094454
 20
5682253.3446678631
  0
VERTEX
  5
E8
100
AcDbEntity
  8
__osie
100
AcDbVertex
100
AcDb2dVertex
 10
8385852.42939094454
 20
5682257.34466786776
  0
SEQEND
  5
E9
100
AcDbEntity
  8
__osie
  0
POLYLINE
  5
EA
100
AcDbEntity
  8
__osie
  6
CONTINUOUS
370
18
100
AcDb2dPolyline
 66
1
 70
128
  0
VERTEX
  5
EB
100
AcDbEntity
  8
__osie
100
AcDbVertex
100
AcDb2dVertex
 10
8385831.22939094435
 20
5682253.3446678631
  0
VERTEX
  5
EC
100
AcDbEntity
  8
__osie
100
AcDbVertex
100
AcDb2dVertex
 10
8385831.22939094435
 20
5682257.34466786776
  0
SEQEND
  5
ED
100
AcDbEntity
  8
__osie
  0
POLYLINE
  5
EE
100
AcDbEntity
  8
__osie
  6
CONTINUOUS
370
18
100
AcDb2dPolyline
 66
1
 70
128
  0
VERTEX
  5
EF
100
AcDbEntity
  8
__osie
100
AcDbVertex
100
AcDb2dVertex
 10
8385871.63167603966
 20
5682266.44466786925
  0
VERTEX
  5
F0
100
AcDbEntity
  8
__osie
100
AcDbVertex
100
AcDb2dVertex
 10
8385827.27167603839
 20
5682266.44466786925
  0
SEQEND
  5
F1
100
AcDbEntity
  8
__osie
  0
POLYLINE
  5
F2
100
AcDbEntity
  8
__osie
  6
CONTINUOUS
370
18
100
AcDb2dPolyline
 66
1
 70
128
  0
VERTEX
  5
F3
100
AcDbEntity
  8
__osie
100
AcDbVertex
100
AcDb2dVertex
 10
8385827.27167603839
 20
5682264.24466786627
  0
VERTEX
  5
F4
100
AcDbEntity
  8
__osie
100
AcDbVertex
100
AcDb2dVertex
 10
8385871.63167603966
 20
5682264.24466786534
  0
SEQEND
  5
F5
100
AcDbEntity
  8
__osie
  0
POLYLINE
  5
F6
100
AcDbEntity
  8
__osie
  6
CONTINUOUS
370
18
100
AcDb2dPolyline
 66
1
 70
128
  0
VERTEX
  5
F7
100
AcDbEntity
  8
__osie
100
AcDbVertex
100
AcDb2dVertex
 10
8385871.63167603966
 20
5682263.34466786589
  0
VERTEX
  5
F8
100
AcDbEntity
  8
__osie
100
AcDbVertex
100
AcDb2dVertex
 10
8385871.63167603966
 20
5682267.34466787055
  0
SEQEND
  5
F9
100
AcDbEntity
  8
__osie
  0
POLYLINE
  5
FA
100
AcDbEntity
  8
__osie
  6
CONTINUOUS
370
18
100
AcDb2dPolyline
 66
1
 70
128
  0
VERTEX
  5
FB
100
AcDbEntity
  8
__osie
100
AcDbVertex
100
AcDb2dVertex
 10
8385850.43167603947
 20
5682263.34466786589
  0
VERTEX
  5
FC
100
AcDbEntity
  8
__osie
100
AcDbVertex
100
AcDb2dVertex
 10
8385850.43167603947
 20
5682267.34466787055
  0
SEQEND
  5
FD
100
AcDbEntity
  8
__osie
  0
POLYLINE
  5
FE
100
AcDbEntity
  8
__osie
  6
CONTINUOUS
370
18
100
AcDb2dPolyline
 66
1
 70
128
  0
VERTEX
  5
FF
100
AcDbEntity
  8
__osie
100
AcDbVertex
100
AcDb2dVertex
 10
8385848.47167603951
 20
5682263.34466786589
  0
VERTEX
  5
100
100
AcDbEntity
  8
__osie
100
AcDbVertex
100
AcDb2dVertex
 10
8385848.47167603951
 20
5682267.34466787055
  0
SEQEND
  5
101
100
AcDbEntity
  8
__osie
  0
POLYLINE
  5
102
100
AcDbEntity
  8
__osie
  6
CONTINUOUS
370
18
100
AcDb2dPolyline
 66
1
 70
128
  0
VERTEX
  5
103
100
AcDbEntity
  8
__osie
100
AcDbVertex
100
AcDb2dVertex
 10
8385827.27167603932
 20
5682263.34466786589
  0
VERTEX
  5
104
100
AcDbEntity
  8
__osie
100
AcDbVertex
100
AcDb2dVertex
 10
8385827.27167603932
 20
5682267.34466787055
  0
SEQEND
  5
105
100
AcDbEntity
  8
__osie
  0
POLYLINE
  5
106
100
AcDbEntity
  8
__osie
  6
CONTINUOUS
370
18
100
AcDb2dPolyline
 66
1
 70
128
  0
VERTEX
  5
107
100
AcDbEntity
  8
__osie
100
AcDbVertex
100
AcDb2dVertex
 10
8385867.67396113463
 20
5682276.4446678739
  0
VERTEX
  5
108
100
AcDbEntity
  8
__osie
100
AcDbVertex
100
AcDb2dVertex
 10
8385823.31396113336
 20
5682276.4446678739
  0
SEQEND
  5
109
100
AcDbEntity
  8
__osie
  0
POLYLINE
  5
10A
100
AcDbEntity
  8
__osie
  6
CONTINUOUS
370
18
100
AcDb2dPolyline
 66
1
 70
128
  0
VERTEX
  5
10B
100
AcDbEntity
  8
__osie
100
AcDbVertex
100
AcDb2dVertex
 10
8385823.31396113336
 20
5682274.24466786906
  0
VERTEX
  5
10C
100
AcDbEntity
  8
__osie
100
AcDbVertex
100
AcDb2dVertex
 10
8385867.67396113463
 20
5682274.24466786906
  0
SEQEND
  5
10D
100
AcDbEntity
  8
__osie
  0
POLYLINE
  5
10E
100
AcDbEntity
  8
__osie
  6
CONTINUOUS
370
18
100
AcDb2dPolyline
 66
1
 70
128
  0
VERTEX
  5
10F
100
AcDbEntity
  8
__osie
100
AcDbVertex
100
AcDb2dVertex
 10
8385867.67396113463
 20
5682273.34466786962
  0
VERTEX
  5
110
100
AcDbEntity
  8
__osie
100
AcDbVertex
100
AcDb2dVertex
 10
8385867.67396113463
 20
5682277.34466787428
  0
SEQEND
  5
111
100
AcDbEntity
  8
__osie
  0
POLYLINE
  5
112
100
AcDbEntity
  8
__osie
  6
CONTINUOUS
370
18
100
AcDb2dPolyline
 66
1
 70
128
  0
VERTEX
  5
113
100
AcDbEntity
  8
__osie
100
AcDbVertex
100
AcDb2dVertex
 10
8385846.47396113444
 20
5682273.34466786962
  0
VERTEX
  5
114
100
AcDbEntity
  8
__osie
100
AcDbVertex
100
AcDb2dVertex
 10
8385846.47396113444
 20
5682277.34466787428
  0
SEQEND
  5
115
100
AcDbEntity
  8
__osie
  0
POLYLINE
  5
116
100
AcDbEntity
  8
__osie
  6
CONTINUOUS
370
18
100
AcDb2dPolyline
 66
1
 70
128
  0
VERTEX
  5
117
100
AcDbEntity
  8
__osie
100
AcDbVertex
100
AcDb2dVertex
 10
8385844.51396113448
 20
5682273.34466786962
  0
VERTEX
  5
118
100
AcDbEntity
  8
__osie
100
AcDbVertex
100
AcDb2dVertex
 10
8385844.51396113448
 20
5682277.34466787428
  0
SEQEND
  5
119
100
AcDbEntity
  8
__osie
  0
POLYLINE
  5
11A
100
AcDbEntity
  8
__osie
  6
CONTINUOUS
370
18
100
AcDb2dPolyline
 66
1
 70
128
  0
VERTEX
  5
11B
100
AcDbEntity
  8
__osie
100
AcDbVertex
100
AcDb2dVertex
 10
8385823.31396113429
 20
5682273.34466786962
  0
VERTEX
  5
11C
100
AcDbEntity
  8
__osie
100
AcDbVertex
100
AcDb2dVertex
 10
8385823.31396113429
 20
5682277.34466787428
  0
SEQEND
  5
11D
100
AcDbEntity
  8
__osie
  0
POLYLINE
  5
11E
100
AcDbEntity
  8
__osie
  6
CONTINUOUS
370
18
100
AcDb2dPolyline
 66
1
 70
128
  0
VERTEX
  5
11F
100
AcDbEntity
  8
__osie
100
AcDbVertex
100
AcDb2dVertex
 10
8385863.7162462296
 20
5682286.4446678767
  0
VERTEX
  5
120
100
AcDbEntity
  8
__osie
100
AcDbVertex
100
AcDb2dVertex
 10
8385819.35624622833
 20
5682286.4446678767
  0
SEQEND
  5
121
100
AcDbEntity
  8
__osie
  0
POLYLINE
  5
122
100
AcDbEntity
  8
__osie
  6
CONTINUOUS
370
18
100
AcDb2dPolyline
 66
1
 70
128
  0
VERTEX
  5
123
100
AcDbEntity
  8
__osie
100
AcDbVertex
100
AcDb2dVertex
 10
8385819.35624622833
 20
5682284.24466787279
  0
VERTEX
  5
124
100
AcDbEntity
  8
__osie
100
AcDbVertex
100
AcDb2dVertex
 10
8385863.7162462296
 20
5682284.24466787279
  0
SEQEND
  5
125
100
AcDbEntity
  8
__osie
  0
POLYLINE
  5
126
100
AcDbEntity
  8
__osie
  6
CONTINUOUS
370
18
100
AcDb2dPolyline
 66
1
 70
128
  0
VERTEX
  5
127
100
AcDbEntity
  8
__osie
100
AcDbVertex
100
AcDb2dVertex
 10
8385863.7162462296
 20
5682283.34466787241
  0
VERTEX
  5
128
100
AcDbEntity
  8
__osie
100
AcDbVertex
100
AcDb2dVertex
 10
8385863.7162462296
 20
5682287.34466787707
  0
SEQEND
  5
129
100
AcDbEntity
  8
__osie
  0
POLYLINE
  5
12A
100
AcDbEntity
  8
__osie
  6
CONTINUOUS
370
18
100
AcDb2dPolyline
 66
1
 70
128
  0
VERTEX
  5
12B
100
AcDbEntity
  8
__osie
100
AcDbVertex
100
AcDb2dVertex
 10
8385842.51624622941
 20
5682283.34466787241
  0
VERTEX
  5
12C
100
AcDbEntity
  8
__osie
100
AcDbVertex
100
AcDb2dVertex
 10
8385842.51624622941
 20
5682287.34466787707
  0
SEQEND
  5
12D
100
AcDbEntity
  8
__osie
  0
POLYLINE
  5
12E
100
AcDbEntity
  8
__osie
  6
CONTINUOUS
370
18
100
AcDb2dPolyline
 66
1
 70
128
  0
VERTEX
  5
12F
100
AcDbEntity
  8
__osie
100
AcDbVertex
100
AcDb2dVertex
 10
8385840.55624622945
 20
5682283.34466787241
  0
VERTEX
  5
130
100
AcDbEntity
  8
__osie
100
AcDbVertex
100
AcDb2dVertex
 10
8385840.55624622945
 20
5682287.34466787707
  0
SEQEND
  5
131
100
AcDbEntity
  8
__osie
  0
POLYLINE
  5
132
100
AcDbEntity
  8
__osie
  6
CONTINUOUS
370
18
100
AcDb2dPolyline
 66
1
 70
128
  0
VERTEX
  5
133
100
AcDbEntity
  8
__osie
100
AcDbVertex
100
AcDb2dVertex
 10
8385819.35624622926
 20
5682283.34466787241
  0
VERTEX
  5
134
100
AcDbEntity
  8
__osie
100
AcDbVertex
100
AcDb2dVertex
 10
8385819.35624622926
 20
5682287.34466787707
  0
SEQEND
  5
135
100
AcDbEntity
  8
__osie
  0
POLYLINE
  5
136
100
AcDbEntity
  8
__osie
  6
CONTINUOUS
370
18
100
AcDb2dPolyline
 66
1
 70
128
  0
VERTEX
  5
137
100
AcDbEntity
  8
__osie
100
AcDbVertex
100
AcDb2dVertex
 10
8385859.75853132736
 20
5682296.44466787111
  0
VERTEX
  5
138
100
AcDbEntity
  8
__osie
100
AcDbVertex
100
AcDb2dVertex
 10
8385815.39853132702
 20
5682296.44466787111
  0
SEQEND
  5
139
100
AcDbEntity
  8
__osie
  0
POLYLINE
  5
13A
100
AcDbEntity
  8
__osie
  6
CONTINUOUS
370
18
100
AcDb2dPolyline
 66
1
 70
128
  0
VERTEX
  5
13B
100
AcDbEntity
  8
__osie
100
AcDbVertex
100
AcDb2dVertex
 10
8385815.39853132702
 20
5682294.24466787558
  0
VERTEX
  5
13C
100
AcDbEntity
  8
__osie
100
AcDbVertex
100
AcDb2dVertex
 10
8385859.75853132736
 20
5682294.24466787558
  0
SEQEND
  5
13D
100
AcDbEntity
  8
__osie
  0
POLYLINE
  5
13E
100
AcDbEntity
  8
__osie
  6
CONTINUOUS
370
18
100
AcDb2dPolyline
 66
1
 70
128
  0
VERTEX
  5
13F
100
AcDbEntity
  8
__osie
100
AcDbVertex
100
AcDb2dVertex
 10
8385859.75853132829
 20
5682293.34466787521
  0
VERTEX
  5
140
100
AcDbEntity
  8
__osie
100
AcDbVertex
100
AcDb2dVertex
 10
8385859.75853132829
 20
5682297.34466787241
  0
SEQEND
  5
141
100
AcDbEntity
  8
__osie
  0
POLYLINE
  5
142
100
AcDbEntity
  8
__osie
  6
CONTINUOUS
370
18
100
AcDb2dPolyline
 66
1
 70
128
  0
VERTEX
  5
143
100
AcDbEntity
  8
__osie
100
AcDbVertex
100
AcDb2dVertex
 10
8385838.5585313281
 20
5682293.34466787521
  0
VERTEX
  5
144
100
AcDbEntity
  8
__osie
100
AcDbVertex
100
AcDb2dVertex
 10
8385838.5585313281
 20
5682297.34466787241
  0
SEQEND
  5
145
100
AcDbEntity
  8
__osie
  0
POLYLINE
  5
146
100
AcDbEntity
  8
__osie
  6
CONTINUOUS
370
18
100
AcDb2dPolyline
 66
1
 70
128
  0
VERTEX
  5
147
100
AcDbEntity
  8
__osie
100
AcDbVertex
100
AcDb2dVertex
 10
8385836.59853132814
 20
5682293.34466787521
  0
VERTEX
  5
148
100
AcDbEntity
  8
__osie
100
AcDbVertex
100
AcDb2dVertex
 10
8385836.59853132814
 20
5682297.34466787241
  0
SEQEND
  5
149
100
AcDbEntity
  8
__osie
  0
POLYLINE
  5
14A
100
AcDbEntity
  8
__osie
  6
CONTINUOUS
370
18
100
AcDb2dPolyline
 66
1
 70
128
  0
VERTEX
  5
14B
100
AcDbEntity
  8
__osie
100
AcDbVertex
100
AcDb2dVertex
 10
8385815.39853132796
 20
5682293.34466787521
  0
VERTEX
  5
14C
100
AcDbEntity
  8
__osie
100
AcDbVertex
100
AcDb2dVertex
 10
8385815.39853132796
 20
5682297.34466787241
  0
SEQEND
  5
14D
100
AcDbEntity
  8
__osie
  0
POLYLINE
  5
14E
100
AcDbEntity
  8
__osie
  6
CONTINUOUS
370
18
100
AcDb2dPolyline
 66
1
 70
128
  0
VERTEX
  5
14F
100
AcDbEntity
  8
__osie
100
AcDbVertex
100
AcDb2dVertex
 10
8385855.80081641953
 20
5682306.44466788322
  0
VERTEX
  5
150
100
AcDbEntity
  8
__osie
100
AcDbVertex
100
AcDb2dVertex
 10
8385815.76381642185
 20
5682306.44466788322
  0
SEQEND
  5
151
100
AcDbEntity
  8
__osie
  0
POLYLINE
  5
152
100
AcDbEntity
  8
__osie
  6
CONTINUOUS
370
18
100
AcDb2dPolyline
 66
1
 70
128
  0
VERTEX
  5
153
100
AcDbEntity
  8
__osie
100
AcDbVertex
100
AcDb2dVertex
 10
8385815.76381642185
 20
5682304.24466788862
  0
VERTEX
  5
154
100
AcDbEntity
  8
__osie
100
AcDbVertex
100
AcDb2dVertex
 10
8385855.80081641953
 20
5682304.24466788769
  0
SEQEND
  5
155
100
AcDbEntity
  8
__osie
  0
POLYLINE
  5
156
100
AcDbEntity
  8
__osie
  6
CONTINUOUS
370
18
100
AcDb2dPolyline
 66
1
 70
128
  0
VERTEX
  5
157
100
AcDbEntity
  8
__osie
100
AcDbVertex
100
AcDb2dVertex
 10
8385855.80081642047
 20
5682303.34466788732
  0
VERTEX
  5
158
100
AcDbEntity
  8
__osie
100
AcDbVertex
100
AcDb2dVertex
 10
8385855.80081642047
 20
5682307.34466788359
  0
SEQEND
  5
159
100
AcDbEntity
  8
__osie
  0
POLYLINE
  5
15A
100
AcDbEntity
  8
__osie
  6
CONTINUOUS
370
18
100
AcDb2dPolyline
 66
1
 70
128
  0
VERTEX
  5
15B
100
AcDbEntity
  8
__osie
100
AcDbVertex
100
AcDb2dVertex
 10
8385834.60081642028
 20
5682303.34466788732
  0
VERTEX
  5
15C
100
AcDbEntity
  8
__osie
100
AcDbVertex
100
AcDb2dVertex
 10
8385834.60081642028
 20
5682307.34466788359
  0
SEQEND
  5
15D
100
AcDbEntity
  8
__osie
  0
POLYLINE
  5
15E
100
AcDbEntity
  8
__osie
  6
CONTINUOUS
370
18
100
AcDb2dPolyline
 66
1
 70
128
  0
VERTEX
  5
15F
100
AcDbEntity
  8
__osie
100
AcDbVertex
100
AcDb2dVertex
 10
8385832.91381642036
 20
5682303.34466788732
  0
VERTEX
  5
160
100
AcDbEntity
  8
__osie
100
AcDbVertex
100
AcDb2dVertex
 10
8385832.91381642036
 20
5682307.34466788359
  0
SEQEND
  5
161
100
AcDbEntity
  8
__osie
  0
POLYLINE
  5
162
100
AcDbEntity
  8
__osie
  6
CONTINUOUS
370
18
100
AcDb2dPolyline
 66
1
 70
128
  0
VERTEX
  5
163
100
AcDbEntity
  8
__osie
100
AcDbVertex
100
AcDb2dVertex
 10
8385815.76381642092
 20
5682303.34466788732
  0
VERTEX
  5
164
100
AcDbEntity
  8
__osie
100
AcDbVertex
100
AcDb2dVertex
 10
8385815.76381642092
 20
5682307.34466788359
  0
SEQEND
  5
165
100
AcDbEntity
  8
__osie
  0
POLYLINE
  5
166
100
AcDbEntity
  8
__osie
  6
CONTINUOUS
370
18
100
AcDb2dPolyline
 66
1
 70
128
  0
VERTEX
  5
167
100
AcDbEntity
  8
__osie
100
AcDbVertex
100
AcDb2dVertex
 10
8385851.84310151637
 20
5682316.44466788601
  0
VERTEX
  5
168
100
AcDbEntity
  8
__osie
100
AcDbVertex
100
AcDb2dVertex
 10
8385830.64310151432
 20
5682316.44466788508
  0
SEQEND
  5
169
100
AcDbEntity
  8
__osie
  0
POLYLINE
  5
16A
100
AcDbEntity
  8
__osie
  6
CONTINUOUS
370
18
100
AcDb2dPolyline
 66
1
 70
128
  0
VERTEX
  5
16B
100
AcDbEntity
  8
__osie
100
AcDbVertex
100
AcDb2dVertex
 10
8385830.64310151432
 20
5682314.2446678821
  0
VERTEX
  5
16C
100
AcDbEntity
  8
__osie
100
AcDbVertex
100
AcDb2dVertex
 10
8385851.84310151637
 20
5682314.2446678821
  0
SEQEND
  5
16D
100
AcDbEntity
  8
__osie
  0
POLYLINE
  5
16E
100
AcDbEntity
  8
__osie
  6
CONTINUOUS
370
18
100
AcDb2dPolyline
 66
1
 70
128
  0
VERTEX
  5
16F
100
AcDbEntity
  8
__osie
100
AcDbVertex
100
AcDb2dVertex
 10
8385851.84310151544
 20
5682313.34466788173
  0
VERTEX
  5
170
100
AcDbEntity
  8
__osie
100
AcDbVertex
100
AcDb2dVertex
 10
8385851.84310151544
 20
5682317.34466788638
  0
SEQEND
  5
171
100
AcDbEntity
  8
__osie
  0
POLYLINE
  5
172
100
AcDbEntity
  8
__osie
  6
CONTINUOUS
370
18
100
AcDb2dPolyline
 66
1
 70
128
  0
VERTEX
  5
173
100
AcDbEntity
  8
__osie
100
AcDbVertex
100
AcDb2dVertex
 10
8385830.64310151525
 20
5682313.34466788173
  0
VERTEX
  5
174
100
AcDbEntity
  8
__osie
100
AcDbVertex
100
AcDb2dVertex
 10
8385830.64310151525
 20
5682317.34466788638
  0
SEQEND
  5
175
100
AcDbEntity
  8
__osie
  0
TEXT
  5
176
100
AcDbEntity
  8
__osie
100
AcDbText
 10
8385836.54267464764
 20
5682314.2446678821
 40
1.50
  1
4x10
 50
0.00
 41
0.78
  7
arial.ttf
 72
0
 11
8385836.54267464764
 21
5682315.7446678821
100
AcDbText
 73
3
  0
TEXT
  5
177
100
AcDbEntity
  8
__osie
100
AcDbText
 10
8385841.419424369
 20
5682304.24466788769
 40
1.50
  1
4x10
 50
0.00
 41
0.78
  7
arial.ttf
 72
0
 11
8385841.419424369
 21
5682305.74466788769
100
AcDbText
 73
3
  0
TEXT
  5
178
100
AcDbEntity
  8
__osie
100
AcDbText
 10
8385845.09819813632
 20
5682294.24466787558
 40
1.50
  1
4x10
 50
0.00
 41
0.78
  7
arial.ttf
 72
0
 11
8385845.09819813632
 21
5682295.74466787558
100
AcDbText
 73
3
  0
TEXT
  5
179
100
AcDbEntity
  8
__osie
100
AcDbText
 10
8385847.93836867996
 20
5682284.24466787279
 40
1.50
  1
4x10
 50
0.00
 41
0.78
  7
arial.ttf
 72
0
 11
8385847.93836867996
 21
5682285.74466787279
100
AcDbText
 73
3
  0
TEXT
  5
17A
100
AcDbEntity
  8
__osie
100
AcDbText
 10
8385852.0599421002
 20
5682274.24466786999
 40
1.50
  1
4x10
 50
0.00
 41
0.78
  7
arial.ttf
 72
0
 11
8385852.0599421002
 21
5682275.74466786999
100
AcDbText
 73
3
  0
TEXT
  5
17B
100
AcDbEntity
  8
__osie
100
AcDbText
 10
8385857.50136972778
 20
5682264.24466786627
 40
1.50
  1
4x10
 50
0.00
 41
0.78
  7
arial.ttf
 72
0
 11
8385857.50136972778
 21
5682265.74466786627
100
AcDbText
 73
3
  0
TEXT
  5
17C
100
AcDbEntity
  8
__osie
100
AcDbText
 10
8385860.77918840386
 20
5682254.24466786347
 40
1.50
  1
4x10
 50
0.00
 41
0.78
  7
arial.ttf
 72
0
 11
8385860.77918840386
 21
5682255.74466786347
100
AcDbText
 73
3
  0
TEXT
  5
17D
100
AcDbEntity
  8
__osie
100
AcDbText
 10
8385865.26042760722
 20
5682244.24466786161
 40
1.50
  1
4x10
 50
0.00
 41
0.78
  7
arial.ttf
 72
0
 11
8385865.26042760722
 21
5682245.74466786161
100
AcDbText
 73
3
  0
TEXT
  5
17E
100
AcDbEntity
  8
__osie
100
AcDbText
 10
8385869.58124467358
 20
5682234.24466785695
 40
1.50
  1
4x10
 50
0.00
 41
0.78
  7
arial.ttf
 72
0
 11
8385869.58124467358
 21
5682235.74466785695
100
AcDbText
 73
3
  0
TEXT
  5
17F
100
AcDbEntity
  8
__osie
100
AcDbText
 10
8385873.94092952088
 20
5682224.24466785602
 40
1.50
  1
4x10
 50
0.00
 41
0.78
  7
arial.ttf
 72
0
 11
8385873.94092952088
 21
5682225.74466785602
100
AcDbText
 73
3
  0
TEXT
  5
180
100
AcDbEntity
  8
__osie
100
AcDbText
 10
8385877.8583082743
 20
5682214.2446678523
 40
1.50
  1
4x10
 50
0.00
 41
0.78
  7
arial.ttf
 72
0
 11
8385877.8583082743
 21
5682215.7446678523
100
AcDbText
 73
3
  0
TEXT
  5
181
100
AcDbEntity
  8
__osie
100
AcDbText
 10
8385881.94223238528
 20
5682204.24466785043
 40
1.50
  1
4x10
 50
0.00
 41
0.78
  7
arial.ttf
 72
0
 11
8385881.94223238528
 21
5682205.74466785044
100
AcDbText
 73
3
  0
TEXT
  5
182
100
AcDbEntity
  8
__osie
100
AcDbText
 10
8385886.82317736
 20
5682194.24466784671
 40
1.50
  1
4x10
 50
0.00
 41
0.78
  7
arial.ttf
 72
0
 11
8385886.82317736
 21
5682195.74466784671
100
AcDbText
 73
3
  0
TEXT
  5
183
100
AcDbEntity
  8
__osie
100
AcDbText
 10
8385890.42077607382
 20
5682184.24579293095
 40
1.50
  1
4x10
 50
0.00
 41
0.78
  7
arial.ttf
 72
0
 11
8385890.42077607382
 21
5682185.74579293095
100
AcDbText
 73
3
  0
TEXT
  5
184
100
AcDbEntity
  8
__osie
100
AcDbText
 10
8385870.59453697503
 20
5682184.24579293095
 40
1.50
  1
4x8
 50
0.00
 41
0.78
  7
arial.ttf
 72
0
 11
8385870.59453697503
 21
5682185.74579293095
100
AcDbText
 73
3
  0
TEXT
  5
185
100
AcDbEntity
  8
__osie
100
AcDbText
 10
8385865.90908768401
 20
5682194.24466784578
 40
1.50
  1
4x8
 50
0.00
 41
0.78
  7
arial.ttf
 72
0
 11
8385865.90908768401
 21
5682195.74466784578
100
AcDbText
 73
3
  0
TEXT
  5
186
100
AcDbEntity
  8
__osie
100
AcDbText
 10
8385861.85895694979
 20
5682204.24466785043
 40
1.50
  1
4x8
 50
0.00
 41
0.78
  7
arial.ttf
 72
0
 11
8385861.85895694979
 21
5682205.74466785044
100
AcDbText
 73
3
  0
TEXT
  5
187
100
AcDbEntity
  8
__osie
100
AcDbText
 10
8385858.48890441377
 20
5682214.2446678523
 40
1.50
  1
4x10
 50
0.00
 41
0.78
  7
arial.ttf
 72
0
 11
8385858.48890441377
 21
5682215.7446678523
100
AcDbText
 73
3
  0
TEXT
  5
188
100
AcDbEntity
  8
__osie
100
AcDbText
 10
8385854.14641701803
 20
5682224.24466785509
 40
1.50
  1
4x10
 50
0.00
 41
0.78
  7
arial.ttf
 72
0
 11
8385854.14641701803
 21
5682225.74466785509
100
AcDbText
 73
3
  0
TEXT
  5
189
100
AcDbEntity
  8
__osie
100
AcDbText
 10
8385849.8073999593
 20
5682234.24466785602
 40
1.50
  1
4x10
 50
0.00
 41
0.78
  7
arial.ttf
 72
0
 11
8385849.8073999593
 21
5682235.74466785602
100
AcDbText
 73
3
  0
TEXT
  5
18A
100
AcDbEntity
  8
__osie
100
AcDbText
 10
8385846.11286314856
 20
5682244.24466786161
 40
1.50
  1
4x10
 50
0.00
 41
0.78
  7
arial.ttf
 72
0
 11
8385846.11286314856
 21
5682245.74466786161
100
AcDbText
 73
3
  0
TEXT
  5
18B
100
AcDbEntity
  8
__osie
100
AcDbText
 10
8385842.74003434274
 20
5682254.24466786347
 40
1.50
  1
4x10
 50
0.00
 41
0.78
  7
arial.ttf
 72
0
 11
8385842.74003434274
 21
5682255.74466786347
100
AcDbText
 73
3
  0
TEXT
  5
18C
100
AcDbEntity
  8
__osie
100
AcDbText
 10
8385838.85213032272
 20
5682264.24466786627
 40
1.50
  1
4x10
 50
0.00
 41
0.78
  7
arial.ttf
 72
0
 11
8385838.85213032272
 21
5682265.74466786627
100
AcDbText
 73
3
  0
TEXT
  5
18D
100
AcDbEntity
  8
__osie
100
AcDbText
 10
8385834.4446627833
 20
5682274.24466786906
 40
1.50
  1
4x10
 50
0.00
 41
0.78
  7
arial.ttf
 72
0
 11
8385834.4446627833
 21
5682275.74466786906
100
AcDbText
 73
3
  0
TEXT
  5
18E
100
AcDbEntity
  8
__osie
100
AcDbText
 10
8385830.87911456358
 20
5682284.24466787279
 40
1.50
  1
4x10
 50
0.00
 41
0.78
  7
arial.ttf
 72
0
 11
8385830.87911456358
 21
5682285.74466787279
100
AcDbText
 73
3
  0
TEXT
  5
18F
100
AcDbEntity
  8
__osie
100
AcDbText
 10
8385826.99033139274
 20
5682294.24466787558
 40
1.50
  1
4x10
 50
0.00
 41
0.78
  7
arial.ttf
 72
0
 11
8385826.99033139274
 21
5682295.74466787558
100
AcDbText
 73
3
  0
TEXT
  5
190
100
AcDbEntity
  8
__osie
100
AcDbText
 10
8385822.64647128433
 20
5682304.24466788769
 40
1.50
  1
4x8
 50
0.00
 41
0.78
  7
arial.ttf
 72
0
 11
8385822.64647128433
 21
5682305.74466788769
100
AcDbText
 73
3
  0
TEXT
  5
191
100
AcDbEntity
  8
__osie
100
AcDbText
 10
8385871.74112108722
 20
5682174.74466784298
 40
1.50
  1
4x8
 50
0.00
 41
0.78
  7
arial.ttf
 72
0
 11
8385871.74112108722
 21
5682176.24466784298
100
AcDbText
 73
3
  0
ENDSEC
  0
SECTION
  2
OBJECTS
  0
DICTIONARY
  5
192
330
0
100
AcDbDictionary
280
0
281
1
  3
ACAD_GROUP
350
193
  3
ACAD_LAYOUT
350
194
  3
ACAD_MLINESTYLE
350
195
  3
ACAD_PLOTSETTINGS
350
196
  3
ACAD_PLOTSTYLENAME
350
197
  0
DICTIONARY
  5
193
102
{ACAD_REACTORS
330
192
102
}
330
192
100
AcDbDictionary
280
0
281
1
  0
DICTIONARY
  5
194
102
{ACAD_REACTORS
330
192
102
}
330
192
100
AcDbDictionary
280
0
281
1
  3
Layout
350
19
  3
Model
350
17
  0
DICTIONARY
  5
195
102
{ACAD_REACTORS
330
192
102
}
330
192
100
AcDbDictionary
280
0
281
1
  3
Standard
350
198
  0
DICTIONARY
  5
196
102
{ACAD_REACTORS
330
192
102
}
330
192
100
AcDbDictionary
280
0
281
1
  0
ACDBDICTIONARYWDFLT
  5
197
102
{ACAD_REACTORS
330
192
102
}
330
192
100
AcDbDictionary
281
1
  3
Normal
350
9
100
AcDbDictionaryWithDefault
340
9
  0
LAYOUT
  5
19
100
AcDbPlotSettings
  1

  2

  4

  6

 40
0.0
 41
0.0
 42
0.0
 43
0.0
 44
0.0
 45
0.0
 46
0.0
 47
0.0
 48
0.0
 49
0.0
140
0.0
141
0.0
142
1.0
143
1.0
 70
688
 72
1
 73
0
 74
5
  7

 75
0
147
1.0
148
0.0
149
0.0
100
AcDbLayout
  1
Layout
 70
1
 71
1
 10
0.0
 20
0.0
 11
420.0
 21
297.0
 12
0.0
 22
0.0
 32
0.0
 14
100000000000000000000.0
 24
100000000000000000000.0
 34
100000000000000000000.0
 15
-100000000000000000000.0
 25
-100000000000000000000.0
 35
-100000000000000000000.0
146
0.0
 13
0.0
 23
0.0
 33
0.0
 16
1.0
 26
0.0
 36
0.0
 17
0.0
 27
1.0
 37
0.0
 76
0
330
18
  0
LAYOUT
  5
17
100
AcDbPlotSettings
  1

  2

  4

  6

 40
0.0
 41
0.0
 42
0.0
 43
0.0
 44
0.0
 45
0.0
 46
0.0
 47
0.0
 48
0.0
 49
0.0
140
0.0
141
0.0
142
1.0
143
1.0
 70
1712
 72
1
 73
0
 74
0
  7

 75
0
147
1.0
148
0.0
149
0.0
100
AcDbLayout
  1
Model
 70
1
 71
0
 10
0.0
 20
0.0
 11
12.0
 21
9.0
 12
0.0
 22
0.0
 32
0.0
 14
0.0
 24
0.0
 34
0.0
 15
0.0
 25
0.0
 35
0.0
146
0.0
 13
0.0
 23
0.0
 33
0.0
 16
1.0
 26
0.0
 36
0.0
 17
0.0
 27
1.0
 37
0.0
 76
0
330
16
  0
MLINESTYLE
  5
198
102
{ACAD_REACTORS
330
195
102
}
330
195
100
AcDbMlineStyle
  2
Standard
 70
0
  3

 62
256
 51
90.0
 52
90.0
  2
Standard
 71
2
 49
0.5
 62
256
  6
ByLayer
 49
-0.5
 62
256
  6
ByLayer
  0
ACDBPLACEHOLDER
  5
9
  0
ENDSEC
  0
EOF
