  0
SECTION
  2
HEADER
  9
$ACADVER
  1
AC1018
  9
$HANDSEED
  5
FFFFFF
  9
$EXTMAX
 10
7584522.84999999963
 20
5751225.50999999978
 30
1000000.00
  9
$EXTMIN
 10
7584385.44000000041
 20
5751077.96999999974
 30
0.00
  9
$LIMMIN
 10
7584385.44000000041
 20
5751077.96999999974
  9
$LIMMAX
 10
7584522.84999999963
 20
5751225.50999999978
  9
$DIMASZ
 40
2.5
  9
$DIMGAP
 40
0.625
  9
$INSUNITS
 70
6
  9
$DIMEXO
 40
0.625
  9
$DIMTXT
 40
2.5
  9
$DIMSTYLE
  2
Standard
  9
$PLIMMIN
 10
0.0
 20
0.0
  9
$PLIMMAX
 10
210.0
 20
297.0
  9
$DIMEXE
 40
1.25
  9
$TEXTSIZE
 40
2.5
  9
$TEXTSTYLE
  7
Standard
  9
$LWDISPLAY
290
1
  9
$TDCREATE
 40
45323.621984062
  9
$TDUCREATE
 40
45323.580317396
  9
$TDUPDATE
 40
45323.621984062
  9
$TDUUPDATE
 40
45323.580317396
  9
$TDINDWG
 40
0.0
  9
$TDUSRTIMER
 40
0.0
  9
$USRTIMER
 70
1
  0
ENDSEC
  0
SECTION
  2
CLASSES
  0
CLASS
  1
WIPEOUT
  2
AcDbWipeout
  3
WipeOut
 90
127
 91
1
280
0
281
1
  0
CLASS
  1
WIPEOUTVARIABLES
  2
AcDbWipeoutVariables
  3
WipeOut
 90
0
 91
1
280
0
281
0
  0
ENDSEC
  0
SECTION
  2
TABLES
  0
TABLE
  2
VPORT
  5
1
100
AcDbSymbolTable
 70
1
  0
VPORT
  5
2
100
AcDbSymbolTableRecord
100
AcDbViewportTableRecord
  2
*ACTIVE
 70
0
 10
0.0
 20
0.0
 11
1.0
 21
1.0
 12
7584454.14
 22
5751151.74
 13
0.0
 23
0.0
 14
1.0
 24
1.0
 15
0.0
 25
0.0
 16
0.0
 26
0.0
 36
1.0
 17
0.0
 27
0.0
 37
0.0
 40
147.54
 41
0.93
 42
50.0
 43
0.0
 44
0.0
 50
0.0
 51
0.0
 71
0
 72
100
 73
1
 74
1
 75
0
 76
0
 77
0
 78
0
  0
ENDTAB
  0
TABLE
  2
LTYPE
  5
3
100
AcDbSymbolTable
 70
3
  0
LTYPE
  5
4
100
AcDbSymbolTableRecord
100
AcDbLinetypeTableRecord
  2
ByBlock
 70
0
  3

 72
65
 73
0
 40
0.0
  0
LTYPE
  5
5
100
AcDbSymbolTableRecord
100
AcDbLinetypeTableRecord
  2
ByLayer
 70
0
  3

 72
65
 73
0
 40
0.0
  0
LTYPE
  5
6
100
AcDbSymbolTableRecord
100
AcDbLinetypeTableRecord
  2
CONTINUOUS
 70
0
  3
Solid line
 72
65
 73
0
 40
0.0
  0
LTYPE
  5
8
100
AcDbSymbolTableRecord
100
AcDbLinetypeTableRecord
  2
L_0_02
 70
0
  3
Dzialka_ewidencyjna (MLineStyle)
 72
65
 73
0
 40
0.0
  0
LTYPE
  5
9
100
AcDbSymbolTableRecord
100
AcDbLinetypeTableRecord
  2
L_0_03
 70
0
  3
Uzytek_gruntowy
 72
65
 73
2
 40
1.0
 49
0.5
 74
0
 49
-0.5
 74
0
  0
LTYPE
  5
A
100
AcDbSymbolTableRecord
100
AcDbLinetypeTableRecord
  2
L_0_06
 70
0
  3
Granica_konturu_klasyfikacyjnego_Krawedz_chodnika
 72
65
 73
2
 40
2.0
 49
1.5
 74
0
 49
-0.5
 74
0
  0
ENDTAB
  0
TABLE
  2
LAYER
  5
B
100
AcDbSymbolTable
 70
5
  0
LAYER
  5
C
100
AcDbSymbolTableRecord
100
AcDbLayerTableRecord
  2
0
 70
0
 62
7
  6
CONTINUOUS
370
18
390
D
  0
LAYER
  5
E
100
AcDbSymbolTableRecord
100
AcDbLayerTableRecord
  2
drenaz
 70
0
 62
32
  6
CONTINUOUS
370
35
390
D
  0
LAYER
  5
F
100
AcDbSymbolTableRecord
100
AcDbLayerTableRecord
  2
eN
 70
0
 62
1
  6
CONTINUOUS
370
35
390
D
  0
LAYER
  5
10
100
AcDbSymbolTableRecord
100
AcDbLayerTableRecord
  2
kanalizacja
 70
0
 62
36
  6
CONTINUOUS
370
35
390
D
  0
LAYER
  5
11
100
AcDbSymbolTableRecord
100
AcDbLayerTableRecord
  2
oczyszczalnia_ok
 70
0
 62
202
  6
CONTINUOUS
370
50
390
D
  0
ENDTAB
  0
TABLE
  2
STYLE
  5
12
100
AcDbSymbolTable
 70
2
  0
STYLE
  5
13
100
AcDbSymbolTableRecord
100
AcDbTextStyleTableRecord
  2
STANDARD
 70
0
 40
0.0
 41
1.0
 50
0.0
 71
0
  3
simplex.shx
  4

  0
STYLE
  5
14
100
AcDbSymbolTableRecord
100
AcDbTextStyleTableRecord
  2
STANDARD_ITALIC
 70
0
 40
0.0
 41
1.0
 50
15.0
 71
0
  3
simplex.shx
  4

  0
ENDTAB
  0
TABLE
  2
VIEW
  5
15
100
AcDbSymbolTable
 70
0
  0
ENDTAB
  0
TABLE
  2
UCS
  5
16
100
AcDbSymbolTable
 70
0
  0
ENDTAB
  0
TABLE
  2
APPID
  5
17
100
AcDbSymbolTable
 70
1
  0
APPID
  5
18
100
AcDbSymbolTableRecord
100
AcDbRegAppTableRecord
  2
ACAD
 70
0
  0
ENDTAB
  0
TABLE
  2
DIMSTYLE
  5
19
100
AcDbSymbolTable
 70
1
100
AcDbDimStyleTable
  0
DIMSTYLE
105
1A
100
AcDbSymbolTableRecord
100
AcDbDimStyleTableRecord
  2
Standard
 70
0
340
13
  0
ENDTAB
  0
TABLE
  2
BLOCK_RECORD
  5
1B
100
AcDbSymbolTable
 70
7
  0
BLOCK_RECORD
  5
1C
100
AcDbSymbolTableRecord
100
AcDbBlockTableRecord
  2
*Model_Space
340
1D
  0
BLOCK_RECORD
  5
1E
100
AcDbSymbolTableRecord
100
AcDbBlockTableRecord
  2
*Paper_Space
340
1F
  0
BLOCK_RECORD
  5
20
100
AcDbSymbolTableRecord
100
AcDbBlockTableRecord
  2
OSPB
340
21
  0
BLOCK_RECORD
  5
22
100
AcDbSymbolTableRecord
100
AcDbBlockTableRecord
  2
OSHF
340
23
  0
BLOCK_RECORD
  5
24
100
AcDbSymbolTableRecord
100
AcDbBlockTableRecord
  2
OTRS
340
25
  0
BLOCK_RECORD
  5
26
100
AcDbSymbolTableRecord
100
AcDbBlockTableRecord
  2
L_0_02_1
340
27
  0
BLOCK_RECORD
  5
28
100
AcDbSymbolTableRecord
100
AcDbBlockTableRecord
  2
L_0_02_2
340
29
  0
ENDTAB
  0
ENDSEC
  0
SECTION
  2
BLOCKS
  0
BLOCK
  5
2A
100
AcDbEntity
  8
0
100
AcDbBlockBegin
  2
*Model_Space
 70
0
 10
0.0
 20
0.0
 30
0.0
  3
*Model_Space
  1

  0
ENDBLK
  5
2B
100
AcDbEntity
  8
0
100
AcDbBlockEnd
  0
BLOCK
  5
2C
100
AcDbEntity
 67
1
  8
0
100
AcDbBlockBegin
  2
*Paper_Space
 70
0
 10
0.0
 20
0.0
 30
0.0
  3
*Paper_Space
  1

  0
ENDBLK
  5
2D
100
AcDbEntity
 67
1
  8
0
100
AcDbBlockEnd
  0
BLOCK
  5
21
100
AcDbEntity
  8
0
100
AcDbBlockBegin
 62
0
370
13
  2
OSPB
 70
0
 10
0
 20
0
 30
0
  3
OSPB
  0
POLYLINE
  5
2E
100
AcDbEntity
  8
0
  6
CONTINUOUS
 62
0
370
18
100
AcDb2dPolyline
 66
1
 70
129
  0
VERTEX
  5
2F
100
AcDbEntity
  8
0
100
AcDbVertex
100
AcDb2dVertex
 10
-2.0
 20
-1.1
  0
VERTEX
  5
30
100
AcDbEntity
  8
0
100
AcDbVertex
100
AcDb2dVertex
 10
2.0
 20
-1.1
  0
VERTEX
  5
31
100
AcDbEntity
  8
0
100
AcDbVertex
100
AcDb2dVertex
 10
0.1
 20
2.1
  0
VERTEX
  5
32
100
AcDbEntity
  8
0
100
AcDbVertex
100
AcDb2dVertex
 10
-2.0
 20
-1.1
  0
SEQEND
  5
33
100
AcDbEntity
  8
0
  0
HATCH
  5
34
100
AcDbEntity
  8
0
  6
CONTINUOUS
 62
0
370
25
100
AcDbHatch
 10
0.0
 20
0.0
 30
0.0
210
0.0
220
0.0
230
1.0
  2
SOLID
 70
1
 71
1
 91
1
 92
3
 72
1
 73
1
 93
2
 10
0.0
 20
-0.22360679775
 42
1.0
 10
0.0
 20
0.22360679775
 42
1.0
 97
0
 75
0
 76
1
 98
0
  0
CIRCLE
  5
35
100
AcDbEntity
  8
0
  6
CONTINUOUS
 62
0
370
25
100
AcDbCircle
 10
0.0
 20
-0.0
 40
0.22360679775
  0
ENDBLK
  5
36
100
AcDbEntity
  8
0
100
AcDbBlockEnd
  0
BLOCK
  5
23
100
AcDbEntity
  8
0
100
AcDbBlockBegin
 62
0
370
13
  2
OSHF
 70
0
 10
0
 20
0
 30
0
  3
OSHF
  0
CIRCLE
  5
37
100
AcDbEntity
  8
0
  6
CONTINUOUS
 62
0
370
18
100
AcDbCircle
 10
0.0
 20
-0.0
 40
2.0
  0
HATCH
  5
38
100
AcDbEntity
  8
0
  6
CONTINUOUS
 62
0
370
18
100
AcDbHatch
 10
0.0
 20
0.0
 30
0.0
210
0.0
220
0.0
230
1.0
  2
SOLID
 70
1
 71
1
 91
1
 92
3
 72
0
 73
1
 93
4
 10
-1.7
 20
1.0
 10
1.7
 20
1.0
 10
0.0
 20
-2.0
 10
-1.7
 20
0.9
 97
0
 75
0
 76
1
 98
0
  0
POLYLINE
  5
39
100
AcDbEntity
  8
0
  6
CONTINUOUS
 62
0
370
18
100
AcDb2dPolyline
 66
1
 70
129
  0
VERTEX
  5
3A
100
AcDbEntity
  8
0
100
AcDbVertex
100
AcDb2dVertex
 10
-1.7
 20
1.0
  0
VERTEX
  5
3B
100
AcDbEntity
  8
0
100
AcDbVertex
100
AcDb2dVertex
 10
1.7
 20
1.0
  0
VERTEX
  5
3C
100
AcDbEntity
  8
0
100
AcDbVertex
100
AcDb2dVertex
 10
0.0
 20
-2.0
  0
VERTEX
  5
3D
100
AcDbEntity
  8
0
100
AcDbVertex
100
AcDb2dVertex
 10
-1.7
 20
0.9
  0
SEQEND
  5
3E
100
AcDbEntity
  8
0
  0
ENDBLK
  5
3F
100
AcDbEntity
  8
0
100
AcDbBlockEnd
  0
BLOCK
  5
25
100
AcDbEntity
  8
0
100
AcDbBlockBegin
 62
0
370
13
  2
OTRS
 70
0
 10
0
 20
0
 30
0
  3
OTRS
  0
HATCH
  5
40
100
AcDbEntity
  8
0
  6
CONTINUOUS
 62
0
370
13
100
AcDbHatch
 10
0.0
 20
0.0
 30
0.0
210
0.0
220
0.0
230
1.0
  2
SOLID
 70
1
 71
1
 91
1
 92
3
 72
1
 73
1
 93
2
 10
0.0
 20
-0.090553851381
 42
1.0
 10
0.0
 20
0.090553851381
 42
1.0
 97
0
 75
0
 76
1
 98
0
  0
CIRCLE
  5
41
100
AcDbEntity
  8
0
  6
CONTINUOUS
 62
0
370
13
100
AcDbCircle
 10
0.0
 20
-0.0
 40
0.090553851381
  0
ENDBLK
  5
42
100
AcDbEntity
  8
0
100
AcDbBlockEnd
  0
BLOCK
  5
27
100
AcDbEntity
  8
0
100
AcDbBlockBegin
 62
0
370
13
  2
L_0_02_1
 70
0
 10
0
 20
0
 30
0
  3
L_0_02_1
  0
POINT
  5
43
100
AcDbEntity
  8
0
100
AcDbPoint
 62
0
 10
0.0
 20
0.0
 30
0.00
  0
ENDBLK
  5
44
100
AcDbEntity
  8
0
100
AcDbBlockEnd
  0
BLOCK
  5
29
100
AcDbEntity
  8
0
100
AcDbBlockBegin
 62
0
370
13
  2
L_0_02_2
 70
0
 10
0
 20
0
 30
0
  3
L_0_02_2
  0
POINT
  5
45
100
AcDbEntity
  8
0
100
AcDbPoint
 62
0
 10
-0.0
 20
-0.0
 30
0.00
  0
ENDBLK
  5
46
100
AcDbEntity
  8
0
100
AcDbBlockEnd
  0
ENDSEC
  0
SECTION
  2
ENTITIES
  0
POLYLINE
  5
47
100
AcDbEntity
  8
drenaz
  6
CONTINUOUS
370
35
100
AcDb2dPolyline
 66
1
 70
128
  0
VERTEX
  5
48
100
AcDbEntity
  8
drenaz
100
AcDbVertex
100
AcDb2dVertex
 10
7584431.30443789531
 20
5751212.47421362903
  0
VERTEX
  5
49
100
AcDbEntity
  8
drenaz
100
AcDbVertex
100
AcDb2dVertex
 10
7584428.59169948008
 20
5751213.75532275531
  0
VERTEX
  5
4A
100
AcDbEntity
  8
drenaz
100
AcDbVertex
100
AcDb2dVertex
 10
7584416.43843572214
 20
5751186.31251561176
  0
VERTEX
  5
4B
100
AcDbEntity
  8
drenaz
100
AcDbVertex
100
AcDb2dVertex
 10
7584419.18275053613
 20
5751185.10052320082
  0
VERTEX
  5
4C
100
AcDbEntity
  8
drenaz
100
AcDbVertex
100
AcDb2dVertex
 10
7584431.30443789531
 20
5751212.47421362903
  0
SEQEND
  5
4D
100
AcDbEntity
  8
drenaz
  0
POLYLINE
  5
4E
100
AcDbEntity
  8
drenaz
  6
CONTINUOUS
370
35
100
AcDb2dPolyline
 66
1
 70
128
  0
VERTEX
  5
4F
100
AcDbEntity
  8
drenaz
100
AcDbVertex
100
AcDb2dVertex
 10
7584418.26775411144
 20
5751185.50401120819
  0
VERTEX
  5
50
100
AcDbEntity
  8
drenaz
100
AcDbVertex
100
AcDb2dVertex
 10
7584430.40069053136
 20
5751212.90230448544
  0
SEQEND
  5
51
100
AcDbEntity
  8
drenaz
  0
POLYLINE
  5
52
100
AcDbEntity
  8
drenaz
  6
CONTINUOUS
370
35
100
AcDb2dPolyline
 66
1
 70
128
  0
VERTEX
  5
53
100
AcDbEntity
  8
drenaz
100
AcDbVertex
100
AcDb2dVertex
 10
7584429.49694316648
 20
5751213.33039534185
  0
VERTEX
  5
54
100
AcDbEntity
  8
drenaz
100
AcDbVertex
100
AcDb2dVertex
 10
7584417.35275768582
 20
5751185.90749921463
  0
SEQEND
  5
55
100
AcDbEntity
  8
drenaz
  0
POLYLINE
  5
56
100
AcDbEntity
  8
eN
  6
CONTINUOUS
370
35
100
AcDb2dPolyline
 66
1
 70
128
  0
VERTEX
  5
57
100
AcDbEntity
  8
eN
100
AcDbVertex
100
AcDb2dVertex
 10
7584522.54999999981
 20
5751081.13999999966
  0
VERTEX
  5
58
100
AcDbEntity
  8
eN
100
AcDbVertex
100
AcDb2dVertex
 10
7584516.74000000022
 20
5751078.53000000026
  0
VERTEX
  5
59
100
AcDbEntity
  8
eN
100
AcDbVertex
100
AcDb2dVertex
 10
7584456.29999999981
 20
5751102.54999999981
  0
VERTEX
  5
5A
100
AcDbEntity
  8
eN
100
AcDbVertex
100
AcDb2dVertex
 10
7584434.12000000011
 20
5751111.62000000011
  0
VERTEX
  5
5B
100
AcDbEntity
  8
eN
100
AcDbVertex
100
AcDb2dVertex
 10
7584430.87999999989
 20
5751111.53000000026
  0
VERTEX
  5
5C
100
AcDbEntity
  8
eN
100
AcDbVertex
100
AcDb2dVertex
 10
7584392.46999999974
 20
5751127.87999999989
  0
VERTEX
  5
5D
100
AcDbEntity
  8
eN
100
AcDbVertex
100
AcDb2dVertex
 10
7584385.91000000015
 20
5751130.70999999996
  0
VERTEX
  5
5E
100
AcDbEntity
  8
eN
100
AcDbVertex
100
AcDb2dVertex
 10
7584425.21999999974
 20
5751224.5
  0
VERTEX
  5
5F
100
AcDbEntity
  8
eN
100
AcDbVertex
100
AcDb2dVertex
 10
7584428.9299999997
 20
5751222.8200000003
  0
VERTEX
  5
60
100
AcDbEntity
  8
eN
100
AcDbVertex
100
AcDb2dVertex
 10
7584428.66999999993
 20
5751222.1799999997
  0
SEQEND
  5
61
100
AcDbEntity
  8
eN
  0
POLYLINE
  5
62
100
AcDbEntity
  8
eN
  6
CONTINUOUS
370
35
100
AcDb2dPolyline
 66
1
 70
128
  0
VERTEX
  5
63
100
AcDbEntity
  8
eN
100
AcDbVertex
100
AcDb2dVertex
 10
7584456.29999999981
 20
5751102.54999999981
  0
VERTEX
  5
64
100
AcDbEntity
  8
eN
100
AcDbVertex
100
AcDb2dVertex
 10
7584459.41000000015
 20
5751112.25999999978
  0
VERTEX
  5
65
100
AcDbEntity
  8
eN
100
AcDbVertex
100
AcDb2dVertex
 10
7584458.04000000004
 20
5751112.99000000022
  0
SEQEND
  5
66
100
AcDbEntity
  8
eN
  0
POLYLINE
  5
67
100
AcDbEntity
  8
kanalizacja
  6
CONTINUOUS
370
35
100
AcDb2dPolyline
 66
1
 70
128
  0
VERTEX
  5
68
100
AcDbEntity
  8
kanalizacja
100
AcDbVertex
100
AcDb2dVertex
 10
7584522.84999999963
 20
5751080.79000000004
  0
VERTEX
  5
69
100
AcDbEntity
  8
kanalizacja
100
AcDbVertex
100
AcDb2dVertex
 10
7584516.96999999974
 20
5751077.96999999974
  0
VERTEX
  5
6A
100
AcDbEntity
  8
kanalizacja
100
AcDbVertex
100
AcDb2dVertex
 10
7584447.25
 20
5751105.36000000034
  0
VERTEX
  5
6B
100
AcDbEntity
  8
kanalizacja
100
AcDbVertex
100
AcDb2dVertex
 10
7584425.86000000034
 20
5751114.08000000007
  0
VERTEX
  5
6C
100
AcDbEntity
  8
kanalizacja
100
AcDbVertex
100
AcDb2dVertex
 10
7584385.44000000041
 20
5751131.4299999997
  0
VERTEX
  5
6D
100
AcDbEntity
  8
kanalizacja
100
AcDbVertex
100
AcDb2dVertex
 10
7584425.01999999955
 20
5751225.50999999978
  0
VERTEX
  5
6E
100
AcDbEntity
  8
kanalizacja
100
AcDbVertex
100
AcDb2dVertex
 10
7584430.30999999959
 20
5751223.1799999997
  0
SEQEND
  5
6F
100
AcDbEntity
  8
kanalizacja
  0
POLYLINE
  5
70
100
AcDbEntity
  8
kanalizacja
  6
CONTINUOUS
370
35
100
AcDb2dPolyline
 66
1
 70
128
  0
VERTEX
  5
71
100
AcDbEntity
  8
kanalizacja
100
AcDbVertex
100
AcDb2dVertex
 10
7584430.81400360633
 20
5751214.98819667194
  0
VERTEX
  5
72
100
AcDbEntity
  8
kanalizacja
100
AcDbVertex
100
AcDb2dVertex
 10
7584429.94881684892
 20
5751213.11634991318
  0
SEQEND
  5
73
100
AcDbEntity
  8
kanalizacja
  0
POLYLINE
  5
74
100
AcDbEntity
  8
kanalizacja
  6
CONTINUOUS
370
35
100
AcDb2dPolyline
 66
1
 70
128
  0
VERTEX
  5
75
100
AcDbEntity
  8
kanalizacja
100
AcDbVertex
100
AcDb2dVertex
 10
7584430.31400000211
 20
5751223.17700000107
  0
VERTEX
  5
76
100
AcDbEntity
  8
kanalizacja
100
AcDbVertex
100
AcDb2dVertex
 10
7584429.66000701953
 20
5751221.69297134131
  0
SEQEND
  5
77
100
AcDbEntity
  8
kanalizacja
  0
POLYLINE
  5
78
100
AcDbEntity
  8
oczyszczalnia_ok
  6
CONTINUOUS
370
50
100
AcDb2dPolyline
 66
1
 70
129
  0
VERTEX
  5
79
100
AcDbEntity
  8
oczyszczalnia_ok
100
AcDbVertex
100
AcDb2dVertex
 10
7584426.0700000003
 20
5751223.30999999959
  0
VERTEX
  5
7A
100
AcDbEntity
  8
oczyszczalnia_ok
100
AcDbVertex
100
AcDb2dVertex
 10
7584433.12999999989
 20
5751220.12999999989
  0
VERTEX
  5
7B
100
AcDbEntity
  8
oczyszczalnia_ok
100
AcDbVertex
100
AcDb2dVertex
 10
7584430.80999999959
 20
5751214.99000000022
  0
VERTEX
  5
7C
100
AcDbEntity
  8
oczyszczalnia_ok
100
AcDbVertex
100
AcDb2dVertex
 10
7584423.75999999978
 20
5751218.16999999993
  0
SEQEND
  5
7D
100
AcDbEntity
  8
oczyszczalnia_ok
  0
ENDSEC
  0
SECTION
  2
OBJECTS
  0
DICTIONARY
  5
7E
330
0
100
AcDbDictionary
280
0
281
1
  3
ACAD_GROUP
350
7F
  3
ACAD_LAYOUT
350
80
  3
ACAD_MLINESTYLE
350
81
  3
ACAD_PLOTSETTINGS
350
82
  3
ACAD_PLOTSTYLENAME
350
83
  0
DICTIONARY
  5
7F
102
{ACAD_REACTORS
330
7E
102
}
330
7E
100
AcDbDictionary
280
0
281
1
  0
DICTIONARY
  5
80
102
{ACAD_REACTORS
330
7E
102
}
330
7E
100
AcDbDictionary
280
0
281
1
  3
Layout
350
1F
  3
Model
350
1D
  0
DICTIONARY
  5
81
102
{ACAD_REACTORS
330
7E
102
}
330
7E
100
AcDbDictionary
280
0
281
1
  3
Standard
350
84
  3
L_0_02
350
7
  0
DICTIONARY
  5
82
102
{ACAD_REACTORS
330
7E
102
}
330
7E
100
AcDbDictionary
280
0
281
1
  0
ACDBDICTIONARYWDFLT
  5
83
102
{ACAD_REACTORS
330
7E
102
}
330
7E
100
AcDbDictionary
281
1
  3
Normal
350
D
100
AcDbDictionaryWithDefault
340
D
  0
LAYOUT
  5
1F
100
AcDbPlotSettings
  1

  2

  4

  6

 40
0.0
 41
0.0
 42
0.0
 43
0.0
 44
0.0
 45
0.0
 46
0.0
 47
0.0
 48
0.0
 49
0.0
140
0.0
141
0.0
142
1.0
143
1.0
 70
688
 72
1
 73
0
 74
5
  7

 75
0
147
1.0
148
0.0
149
0.0
100
AcDbLayout
  1
Layout
 70
1
 71
1
 10
0.0
 20
0.0
 11
420.0
 21
297.0
 12
0.0
 22
0.0
 32
0.0
 14
100000000000000000000.0
 24
100000000000000000000.0
 34
100000000000000000000.0
 15
-100000000000000000000.0
 25
-100000000000000000000.0
 35
-100000000000000000000.0
146
0.0
 13
0.0
 23
0.0
 33
0.0
 16
1.0
 26
0.0
 36
0.0
 17
0.0
 27
1.0
 37
0.0
 76
0
330
1E
  0
LAYOUT
  5
1D
100
AcDbPlotSettings
  1

  2

  4

  6

 40
0.0
 41
0.0
 42
0.0
 43
0.0
 44
0.0
 45
0.0
 46
0.0
 47
0.0
 48
0.0
 49
0.0
140
0.0
141
0.0
142
1.0
143
1.0
 70
1712
 72
1
 73
0
 74
0
  7

 75
0
147
1.0
148
0.0
149
0.0
100
AcDbLayout
  1
Model
 70
1
 71
0
 10
0.0
 20
0.0
 11
12.0
 21
9.0
 12
0.0
 22
0.0
 32
0.0
 14
0.0
 24
0.0
 34
0.0
 15
0.0
 25
0.0
 35
0.0
146
0.0
 13
0.0
 23
0.0
 33
0.0
 16
1.0
 26
0.0
 36
0.0
 17
0.0
 27
1.0
 37
0.0
 76
0
330
1C
  0
MLINESTYLE
  5
84
102
{ACAD_REACTORS
330
81
102
}
330
81
100
AcDbMlineStyle
  2
Standard
 70
0
  3

 62
256
 51
90.0
 52
90.0
  2
Standard
 71
2
 49
0.5
 62
256
  6
ByLayer
 49
-0.5
 62
256
  6
ByLayer
  0
MLINESTYLE
  5
7
100
AcDbMlineStyle
  2
L_0_02
 70
0
  3

 51
90.0
 52
90.0
 71
1
 49
0.0
 62
256
  6
CONTINUOUS
  0
ACDBPLACEHOLDER
  5
D
  0
ENDSEC
  0
EOF
