  0
SECTION
  2
HEADER
  9
$ACADVER
  1
AC1018
  9
$HANDSEED
  5
FFFFFF
  9
$EXTMAX
 10
7565946.98699999973
 20
5687927.26300000027
 30
1000000.00
  9
$EXTMIN
 10
7565858.78899999987
 20
5687848.81900000013
 30
0.00
  9
$LIMMIN
 10
7565858.78899999987
 20
5687848.81900000013
  9
$LIMMAX
 10
7565946.98699999973
 20
5687927.26300000027
  9
$DIMASZ
 40
2.5
  9
$DIMGAP
 40
0.625
  9
$INSUNITS
 70
6
  9
$DIMEXO
 40
0.625
  9
$DIMTXT
 40
2.5
  9
$DIMSTYLE
  2
Standard
  9
$PLIMMIN
 10
0.0
 20
0.0
  9
$PLIMMAX
 10
210.0
 20
297.0
  9
$DIMEXE
 40
1.25
  9
$TEXTSIZE
 40
2.5
  9
$TEXTSTYLE
  7
Standard
  9
$LWDISPLAY
290
1
  9
$TDCREATE
 40
43328.540063970
  9
$TDUCREATE
 40
43328.456730637
  9
$TDUPDATE
 40
43328.540063970
  9
$TDUUPDATE
 40
43328.456730637
  9
$TDINDWG
 40
0.0
  9
$TDUSRTIMER
 40
0.0
  9
$USRTIMER
 70
1
  0
ENDSEC
  0
SECTION
  2
CLASSES
  0
CLASS
  1
WIPEOUT
  2
AcDbWipeout
  3
WipeOut
 90
127
 91
1
280
0
281
1
  0
CLASS
  1
WIPEOUTVARIABLES
  2
AcDbWipeoutVariables
  3
WipeOut
 90
0
 91
1
280
0
281
0
  0
ENDSEC
  0
SECTION
  2
TABLES
  0
TABLE
  2
VPORT
  5
1
100
AcDbSymbolTable
 70
1
  0
VPORT
  5
2
100
AcDbSymbolTableRecord
100
AcDbViewportTableRecord
  2
*ACTIVE
 70
0
 10
0.0
 20
0.0
 11
1.0
 21
1.0
 12
7565902.888
 22
5687888.041
 13
0.0
 23
0.0
 14
1.0
 24
1.0
 15
0.0
 25
0.0
 16
0.0
 26
0.0
 36
1.0
 17
0.0
 27
0.0
 37
0.0
 40
78.444
 41
1.124
 42
50.0
 43
0.0
 44
0.0
 50
0.0
 51
0.0
 71
0
 72
100
 73
1
 74
1
 75
0
 76
0
 77
0
 78
0
  0
ENDTAB
  0
TABLE
  2
LTYPE
  5
3
100
AcDbSymbolTable
 70
385
  0
LTYPE
  5
4
100
AcDbSymbolTableRecord
100
AcDbLinetypeTableRecord
  2
ByBlock
 70
0
  3

 72
65
 73
0
 40
0.0
  0
LTYPE
  5
5
100
AcDbSymbolTableRecord
100
AcDbLinetypeTableRecord
  2
ByLayer
 70
0
  3

 72
65
 73
0
 40
0.0
  0
LTYPE
  5
6
100
AcDbSymbolTableRecord
100
AcDbLinetypeTableRecord
  2
CONTINUOUS
 70
0
  3
Solid line
 72
65
 73
0
 40
0.0
  0
LTYPE
  5
7
100
AcDbSymbolTableRecord
100
AcDbLinetypeTableRecord
  2
L_0_04
 70
0
  3
Budynek_projektowany
 72
65
 73
2
 40
0.75
 49
0.5
 74
0
 49
-0.25
 74
0
  0
LTYPE
  5
8
100
AcDbSymbolTableRecord
100
AcDbLinetypeTableRecord
  2
L_0_15
 70
0
  3
Ogrodzenie_trwale
 72
65
 73
11
 40
3.75
 49
0.1875
 74
0
 49
0.375
 74
0
 49
0.375
 74
0
 49
0.375
 74
0
 49
0.375
 74
0
 49
0.375
 74
4
 75
1
340
9
 46
0.025
 50
0.0
 44
0.0
 45
0.0
 49
0.375
 74
0
 49
0.375
 74
0
 49
0.375
 74
0
 49
0.375
 74
0
 49
0.1875
 74
0
  0
ENDTAB
  0
TABLE
  2
LAYER
  5
A
100
AcDbSymbolTable
 70
10
  0
LAYER
  5
B
100
AcDbSymbolTableRecord
100
AcDbLayerTableRecord
  2
0
 70
0
 62
7
  6
CONTINUOUS
370
18
390
C
  0
LAYER
  5
D
100
AcDbSymbolTableRecord
100
AcDbLayerTableRecord
  2
budynek_obrys
 70
0
 62
7
  6
CONTINUOUS
370
18
390
C
  0
LAYER
  5
E
100
AcDbSymbolTableRecord
100
AcDbLayerTableRecord
  2
osie
 70
0
 62
1
  6
CONTINUOUS
370
18
390
C
  0
LAYER
  5
F
100
AcDbSymbolTableRecord
100
AcDbLayerTableRecord
  2
osnowa
 70
0
 62
7
  6
CONTINUOUS
370
18
390
C
  0
LAYER
  5
10
100
AcDbSymbolTableRecord
100
AcDbLayerTableRecord
  2
PAV_Sc_Murowane
 70
0
 62
121
  6
CONTINUOUS
370
13
390
C
  0
LAYER
  5
11
100
AcDbSymbolTableRecord
100
AcDbLayerTableRecord
  2
pkt_glowne
 70
0
 62
7
  6
CONTINUOUS
370
18
390
C
  0
LAYER
  5
12
100
AcDbSymbolTableRecord
100
AcDbLayerTableRecord
  2
pkt_osi
 70
0
 62
5
  6
CONTINUOUS
370
18
390
C
  0
LAYER
  5
13
100
AcDbSymbolTableRecord
100
AcDbLayerTableRecord
  2
plot
 70
0
 62
7
  6
L_0_15
370
18
390
C
  0
LAYER
  5
14
100
AcDbSymbolTableRecord
100
AcDbLayerTableRecord
  2
PZT_gruba
 70
0
 62
40
  6
CONTINUOUS
370
13
390
C
  0
LAYER
  5
15
100
AcDbSymbolTableRecord
100
AcDbLayerTableRecord
  2
PZT_hatch
 70
0
 62
251
  6
CONTINUOUS
370
18
390
C
  0
ENDTAB
  0
TABLE
  2
STYLE
  5
16
100
AcDbSymbolTable
 70
2
  0
STYLE
  5
17
100
AcDbSymbolTableRecord
100
AcDbTextStyleTableRecord
  2
STANDARD
 70
0
 40
0.0
 41
1.0
 50
0.0
 71
0
  3
simplex.shx
  4

  0
STYLE
  5
9
100
AcDbSymbolTableRecord
100
AcDbTextStyleTableRecord
  2

 70
1
 40
0.0
 41
0.025
 50
0.0
 71
0
  3
osie-celejowska.shx
  4

  0
ENDTAB
  0
TABLE
  2
VIEW
  5
18
100
AcDbSymbolTable
 70
0
  0
ENDTAB
  0
TABLE
  2
UCS
  5
19
100
AcDbSymbolTable
 70
0
  0
ENDTAB
  0
TABLE
  2
APPID
  5
1A
100
AcDbSymbolTable
 70
1
  0
APPID
  5
1B
100
AcDbSymbolTableRecord
100
AcDbRegAppTableRecord
  2
ACAD
 70
0
  0
ENDTAB
  0
TABLE
  2
DIMSTYLE
  5
1C
100
AcDbSymbolTable
 70
1
100
AcDbDimStyleTable
  0
DIMSTYLE
105
1D
100
AcDbSymbolTableRecord
100
AcDbDimStyleTableRecord
  2
Standard
 70
0
340
17
  0
ENDTAB
  0
TABLE
  2
BLOCK_RECORD
  5
1E
100
AcDbSymbolTable
 70
3
  0
BLOCK_RECORD
  5
1F
100
AcDbSymbolTableRecord
100
AcDbBlockTableRecord
  2
*Model_Space
340
20
  0
BLOCK_RECORD
  5
21
100
AcDbSymbolTableRecord
100
AcDbBlockTableRecord
  2
*Paper_Space
340
22
  0
BLOCK_RECORD
  5
23
100
AcDbSymbolTableRecord
100
AcDbBlockTableRecord
  2
OSP
340
24
  0
ENDTAB
  0
ENDSEC
  0
SECTION
  2
BLOCKS
  0
BLOCK
  5
25
100
AcDbEntity
  8
0
100
AcDbBlockBegin
  2
*Model_Space
 70
0
 10
0.0
 20
0.0
 30
0.0
  3
*Model_Space
  1

  0
ENDBLK
  5
26
100
AcDbEntity
  8
0
100
AcDbBlockEnd
  0
BLOCK
  5
27
100
AcDbEntity
 67
1
  8
0
100
AcDbBlockBegin
  2
*Paper_Space
 70
0
 10
0.0
 20
0.0
 30
0.0
  3
*Paper_Space
  1

  0
ENDBLK
  5
28
100
AcDbEntity
 67
1
  8
0
100
AcDbBlockEnd
  0
BLOCK
  5
24
100
AcDbEntity
  8
0
100
AcDbBlockBegin
 62
0
370
13
  2
OSP
 70
0
 10
0
 20
0
 30
0
  3
OSP
  0
WIPEOUT
  5
29
100
AcDbEntity
  8
0
  6
CONTINUOUS
 62
0
370
18
100
AcDbWipeout
 90
0
 10
-1.30000000000000004
 20
-1.30000000000000004
 30
0.0
 11
2.60000000000000009
 21
0.0
 31
0.0
 12
0.0
 22
2.60000000000000009
 32
0.0
 13
1.0
 23
1.0
 70
7
280
1
281
100
282
100
283
0
 71
2
 91
13
 14
0.0
 24
0.5
 14
0.25
 24
0.4330127018922193
 14
0.4330127018922193
 24
0.25
 14
0.5
 24
0.0
 14
0.4330127018922193
 24
-0.25
 14
0.25
 24
-0.4330127018922193
 14
0.0
 24
-0.5
 14
-0.25
 24
-0.4330127018922193
 14
-0.4330127018922193
 24
-0.25
 14
-0.5
 24
0.0
 14
-0.4330127018922193
 24
0.25
 14
-0.25
 24
0.4330127018922193
 14
0.0
 24
0.5
  0
CIRCLE
  5
2A
100
AcDbEntity
  8
0
  6
CONTINUOUS
 62
0
370
18
100
AcDbCircle
 10
0.0
 20
-0.0
 40
1.30000000000000004
  0
WIPEOUT
  5
2B
100
AcDbEntity
  8
0
  6
CONTINUOUS
 62
0
370
18
100
AcDbWipeout
 90
0
 10
-0.10000000000000001
 20
-0.10000000000000001
 30
0.0
 11
0.20000000000000001
 21
0.0
 31
0.0
 12
0.0
 22
0.20000000000000001
 32
0.0
 13
1.0
 23
1.0
 70
7
280
1
281
100
282
100
283
0
 71
2
 91
13
 14
0.0
 24
0.5
 14
0.25
 24
0.4330127018922193
 14
0.4330127018922193
 24
0.25
 14
0.5
 24
0.0
 14
0.4330127018922193
 24
-0.25
 14
0.25
 24
-0.4330127018922193
 14
0.0
 24
-0.5
 14
-0.25
 24
-0.4330127018922193
 14
-0.4330127018922193
 24
-0.25
 14
-0.5
 24
0.0
 14
-0.4330127018922193
 24
0.25
 14
-0.25
 24
0.4330127018922193
 14
0.0
 24
0.5
  0
CIRCLE
  5
2C
100
AcDbEntity
  8
0
  6
CONTINUOUS
 62
0
370
18
100
AcDbCircle
 10
0.0
 20
-0.0
 40
0.10000000000000001
  0
ENDBLK
  5
2D
100
AcDbEntity
  8
0
100
AcDbBlockEnd
  0
ENDSEC
  0
SECTION
  2
ENTITIES
  0
POLYLINE
  5
2E
100
AcDbEntity
  8
budynek_obrys
  6
CONTINUOUS
370
18
100
AcDb2dPolyline
 66
1
 70
128
  0
VERTEX
  5
2F
100
AcDbEntity
  8
budynek_obrys
100
AcDbVertex
100
AcDb2dVertex
 10
7565883.09437564574
 20
5687892.86483486835
  0
VERTEX
  5
30
100
AcDbEntity
  8
budynek_obrys
100
AcDbVertex
100
AcDb2dVertex
 10
7565886.37431124877
 20
5687894.72307919059
  0
SEQEND
  5
31
100
AcDbEntity
  8
budynek_obrys
  0
POLYLINE
  5
32
100
AcDbEntity
  8
budynek_obrys
  6
CONTINUOUS
370
18
100
AcDb2dPolyline
 66
1
 70
128
  0
VERTEX
  5
33
100
AcDbEntity
  8
budynek_obrys
100
AcDbVertex
100
AcDb2dVertex
 10
7565879.88999999966
 20
5687898.51999999955
  0
VERTEX
  5
34
100
AcDbEntity
  8
budynek_obrys
100
AcDbVertex
100
AcDb2dVertex
 10
7565883.17010803148
 20
5687900.37843786553
  0
SEQEND
  5
35
100
AcDbEntity
  8
budynek_obrys
  0
POLYLINE
  5
36
100
AcDbEntity
  8
budynek_obrys
  6
CONTINUOUS
370
18
100
AcDb2dPolyline
 66
1
 70
128
  0
VERTEX
  5
37
100
AcDbEntity
  8
budynek_obrys
100
AcDbVertex
100
AcDb2dVertex
 10
7565883.09437564574
 20
5687892.86483486835
  0
VERTEX
  5
38
100
AcDbEntity
  8
budynek_obrys
100
AcDbVertex
100
AcDb2dVertex
 10
7565879.88999999966
 20
5687898.51999999955
  0
SEQEND
  5
39
100
AcDbEntity
  8
budynek_obrys
  0
POLYLINE
  5
3A
100
AcDbEntity
  8
budynek_obrys
  6
CONTINUOUS
370
18
100
AcDb2dPolyline
 66
1
 70
128
  0
VERTEX
  5
3B
100
AcDbEntity
  8
budynek_obrys
100
AcDbVertex
100
AcDb2dVertex
 10
7565886.37431124877
 20
5687894.72307919059
  0
VERTEX
  5
3C
100
AcDbEntity
  8
budynek_obrys
100
AcDbVertex
100
AcDb2dVertex
 10
7565883.17010803148
 20
5687900.37843786553
  0
SEQEND
  5
3D
100
AcDbEntity
  8
budynek_obrys
  0
POLYLINE
  5
3E
100
AcDbEntity
  8
budynek_obrys
  6
CONTINUOUS
370
18
100
AcDb2dPolyline
 66
1
 70
129
  0
VERTEX
  5
3F
100
AcDbEntity
  8
budynek_obrys
100
AcDbVertex
100
AcDb2dVertex
 10
7565883.17010803148
 20
5687900.37843786553
  0
VERTEX
  5
40
100
AcDbEntity
  8
budynek_obrys
100
AcDbVertex
100
AcDb2dVertex
 10
7565879.88999999966
 20
5687898.51999999955
  0
VERTEX
  5
41
100
AcDbEntity
  8
budynek_obrys
100
AcDbVertex
100
AcDb2dVertex
 10
7565883.09437564574
 20
5687892.86483486835
  0
VERTEX
  5
42
100
AcDbEntity
  8
budynek_obrys
100
AcDbVertex
100
AcDb2dVertex
 10
7565886.37431124877
 20
5687894.72307919059
  0
SEQEND
  5
43
100
AcDbEntity
  8
budynek_obrys
  0
POLYLINE
  5
44
100
AcDbEntity
  8
osie
  6
CONTINUOUS
370
18
100
AcDb2dPolyline
 66
1
 70
128
  0
VERTEX
  5
45
100
AcDbEntity
  8
osie
100
AcDbVertex
100
AcDb2dVertex
 10
7565883.0422477359
 20
5687892.95636029355
  0
VERTEX
  5
46
100
AcDbEntity
  8
osie
100
AcDbVertex
100
AcDb2dVertex
 10
7565883.13360008784
 20
5687893.00810805894
  0
VERTEX
  5
47
100
AcDbEntity
  8
osie
100
AcDbVertex
100
AcDb2dVertex
 10
7565886.23087949958
 20
5687894.76260353066
  0
VERTEX
  5
48
100
AcDbEntity
  8
osie
100
AcDbVertex
100
AcDb2dVertex
 10
7565886.32224773616
 20
5687894.81436029356
  0
SEQEND
  5
49
100
AcDbEntity
  8
osie
  0
POLYLINE
  5
4A
100
AcDbEntity
  8
osie
  6
CONTINUOUS
370
18
100
AcDb2dPolyline
 66
1
 70
128
  0
VERTEX
  5
4B
100
AcDbEntity
  8
osie
100
AcDbVertex
100
AcDb2dVertex
 10
7565879.94175226334
 20
5687898.42863970622
  0
VERTEX
  5
4C
100
AcDbEntity
  8
osie
100
AcDbVertex
100
AcDb2dVertex
 10
7565880.03312049992
 20
5687898.48039646912
  0
VERTEX
  5
4D
100
AcDbEntity
  8
osie
100
AcDbVertex
100
AcDb2dVertex
 10
7565883.13039991166
 20
5687900.23489194084
  0
VERTEX
  5
4E
100
AcDbEntity
  8
osie
100
AcDbVertex
100
AcDb2dVertex
 10
7565883.22175226361
 20
5687900.28663970623
  0
SEQEND
  5
4F
100
AcDbEntity
  8
osie
  0
POLYLINE
  5
50
100
AcDbEntity
  8
osie
  6
CONTINUOUS
370
18
100
AcDb2dPolyline
 66
1
 70
128
  0
VERTEX
  5
51
100
AcDbEntity
  8
osie
100
AcDbVertex
100
AcDb2dVertex
 10
7565879.80152956955
 20
5687898.67697793897
  0
VERTEX
  5
52
100
AcDbEntity
  8
osie
100
AcDbVertex
100
AcDb2dVertex
 10
7565879.89253416657
 20
5687898.72852871381
  0
VERTEX
  5
53
100
AcDbEntity
  8
osie
100
AcDbVertex
100
AcDb2dVertex
 10
7565882.98981357925
 20
5687900.48302418552
  0
VERTEX
  5
54
100
AcDbEntity
  8
osie
100
AcDbVertex
100
AcDb2dVertex
 10
7565883.08152956981
 20
5687900.53497793898
  0
SEQEND
  5
55
100
AcDbEntity
  8
osie
  0
POLYLINE
  5
56
100
AcDbEntity
  8
osie
  6
CONTINUOUS
370
18
100
AcDb2dPolyline
 66
1
 70
128
  0
VERTEX
  5
57
100
AcDbEntity
  8
osie
100
AcDbVertex
100
AcDb2dVertex
 10
7565878.60900000017
 20
5687900.78299999982
  0
VERTEX
  5
58
100
AcDbEntity
  8
osie
100
AcDbVertex
100
AcDb2dVertex
 10
7565878.69947715476
 20
5687900.83425199799
  0
VERTEX
  5
59
100
AcDbEntity
  8
osie
100
AcDbVertex
100
AcDb2dVertex
 10
7565881.7967565665
 20
5687902.58874746971
  0
VERTEX
  5
5A
100
AcDbEntity
  8
osie
100
AcDbVertex
100
AcDb2dVertex
 10
7565881.88900000043
 20
5687902.64099999983
  0
SEQEND
  5
5B
100
AcDbEntity
  8
osie
  0
POLYLINE
  5
5C
100
AcDbEntity
  8
osie
  6
CONTINUOUS
370
18
100
AcDb2dPolyline
 66
1
 70
128
  0
VERTEX
  5
5D
100
AcDbEntity
  8
osie
100
AcDbVertex
100
AcDb2dVertex
 10
7565878.69947715476
 20
5687900.83425199799
  0
VERTEX
  5
5E
100
AcDbEntity
  8
osie
100
AcDbVertex
100
AcDb2dVertex
 10
7565879.89253416657
 20
5687898.72852871381
  0
VERTEX
  5
5F
100
AcDbEntity
  8
osie
100
AcDbVertex
100
AcDb2dVertex
 10
7565880.03312049992
 20
5687898.48039646912
  0
VERTEX
  5
60
100
AcDbEntity
  8
osie
100
AcDbVertex
100
AcDb2dVertex
 10
7565883.13360008784
 20
5687893.00810805894
  0
SEQEND
  5
61
100
AcDbEntity
  8
osie
  0
POLYLINE
  5
62
100
AcDbEntity
  8
osie
  6
CONTINUOUS
370
18
100
AcDb2dPolyline
 66
1
 70
128
  0
VERTEX
  5
63
100
AcDbEntity
  8
osie
100
AcDbVertex
100
AcDb2dVertex
 10
7565881.7967565665
 20
5687902.58874746971
  0
VERTEX
  5
64
100
AcDbEntity
  8
osie
100
AcDbVertex
100
AcDb2dVertex
 10
7565882.98981357925
 20
5687900.48302418552
  0
VERTEX
  5
65
100
AcDbEntity
  8
osie
100
AcDbVertex
100
AcDb2dVertex
 10
7565883.13039991166
 20
5687900.23489194084
  0
VERTEX
  5
66
100
AcDbEntity
  8
osie
100
AcDbVertex
100
AcDb2dVertex
 10
7565886.23087949958
 20
5687894.76260353066
  0
SEQEND
  5
67
100
AcDbEntity
  8
osie
  0
POLYLINE
  5
68
100
AcDbEntity
  8
PAV_Sc_Murowane
  6
CONTINUOUS
 62
121
370
13
100
AcDb2dPolyline
 66
1
 70
128
  0
VERTEX
  5
69
100
AcDbEntity
  8
PAV_Sc_Murowane
100
AcDbVertex
100
AcDb2dVertex
 10
7565889.02251166757
 20
5687900.99816903099
  0
VERTEX
  5
6A
100
AcDbEntity
  8
PAV_Sc_Murowane
100
AcDbVertex
100
AcDb2dVertex
 10
7565889.02275090106
 20
5687902.19895599782
  0
SEQEND
  5
6B
100
AcDbEntity
  8
PAV_Sc_Murowane
  0
POLYLINE
  5
6C
100
AcDbEntity
  8
PAV_Sc_Murowane
  6
CONTINUOUS
 62
121
370
70
100
AcDb2dPolyline
 66
1
 70
129
  0
VERTEX
  5
6D
100
AcDbEntity
  8
PAV_Sc_Murowane
100
AcDbVertex
100
AcDb2dVertex
 10
7565882.86000000034
 20
5687900.24000000022
  0
VERTEX
  5
6E
100
AcDbEntity
  8
PAV_Sc_Murowane
100
AcDbVertex
100
AcDb2dVertex
 10
7565883.08000000008
 20
5687900.36000000034
  0
VERTEX
  5
6F
100
AcDbEntity
  8
PAV_Sc_Murowane
100
AcDbVertex
100
AcDb2dVertex
 10
7565882.95999999996
 20
5687900.58000000007
  0
VERTEX
  5
70
100
AcDbEntity
  8
PAV_Sc_Murowane
100
AcDbVertex
100
AcDb2dVertex
 10
7565882.74000000022
 20
5687900.45000000019
  0
SEQEND
  5
71
100
AcDbEntity
  8
PAV_Sc_Murowane
  0
POLYLINE
  5
72
100
AcDbEntity
  8
PAV_Sc_Murowane
  6
CONTINUOUS
 62
121
370
70
100
AcDb2dPolyline
 66
1
 70
129
  0
VERTEX
  5
73
100
AcDbEntity
  8
PAV_Sc_Murowane
100
AcDbVertex
100
AcDb2dVertex
 10
7565879.94000000041
 20
5687898.61000000034
  0
VERTEX
  5
74
100
AcDbEntity
  8
PAV_Sc_Murowane
100
AcDbVertex
100
AcDb2dVertex
 10
7565880.15000000037
 20
5687898.73000000045
  0
VERTEX
  5
75
100
AcDbEntity
  8
PAV_Sc_Murowane
100
AcDbVertex
100
AcDb2dVertex
 10
7565880.03000000026
 20
5687898.95000000019
  0
VERTEX
  5
76
100
AcDbEntity
  8
PAV_Sc_Murowane
100
AcDbVertex
100
AcDb2dVertex
 10
7565879.80999999959
 20
5687898.83000000007
  0
SEQEND
  5
77
100
AcDbEntity
  8
PAV_Sc_Murowane
  0
POLYLINE
  5
78
100
AcDbEntity
  8
PAV_Sc_Murowane
  6
CONTINUOUS
 62
121
370
70
100
AcDb2dPolyline
 66
1
 70
129
  0
VERTEX
  5
79
100
AcDbEntity
  8
PAV_Sc_Murowane
100
AcDbVertex
100
AcDb2dVertex
 10
7565881.69000000041
 20
5687902.34999999963
  0
VERTEX
  5
7A
100
AcDbEntity
  8
PAV_Sc_Murowane
100
AcDbVertex
100
AcDb2dVertex
 10
7565881.91000000015
 20
5687902.48000000045
  0
VERTEX
  5
7B
100
AcDbEntity
  8
PAV_Sc_Murowane
100
AcDbVertex
100
AcDb2dVertex
 10
7565881.78000000026
 20
5687902.69000000041
  0
VERTEX
  5
7C
100
AcDbEntity
  8
PAV_Sc_Murowane
100
AcDbVertex
100
AcDb2dVertex
 10
7565881.5700000003
 20
5687902.5700000003
  0
SEQEND
  5
7D
100
AcDbEntity
  8
PAV_Sc_Murowane
  0
POLYLINE
  5
7E
100
AcDbEntity
  8
PAV_Sc_Murowane
  6
CONTINUOUS
 62
121
370
70
100
AcDb2dPolyline
 66
1
 70
129
  0
VERTEX
  5
7F
100
AcDbEntity
  8
PAV_Sc_Murowane
100
AcDbVertex
100
AcDb2dVertex
 10
7565878.75999999978
 20
5687900.73000000045
  0
VERTEX
  5
80
100
AcDbEntity
  8
PAV_Sc_Murowane
100
AcDbVertex
100
AcDb2dVertex
 10
7565878.98000000045
 20
5687900.84999999963
  0
VERTEX
  5
81
100
AcDbEntity
  8
PAV_Sc_Murowane
100
AcDbVertex
100
AcDb2dVertex
 10
7565878.86000000034
 20
5687901.0700000003
  0
VERTEX
  5
82
100
AcDbEntity
  8
PAV_Sc_Murowane
100
AcDbVertex
100
AcDb2dVertex
 10
7565878.63999999966
 20
5687900.95000000019
  0
SEQEND
  5
83
100
AcDbEntity
  8
PAV_Sc_Murowane
  0
POLYLINE
  5
84
100
AcDbEntity
  8
PAV_Sc_Murowane
  6
CONTINUOUS
 62
121
370
70
100
AcDb2dPolyline
 66
1
 70
129
  0
VERTEX
  5
85
100
AcDbEntity
  8
PAV_Sc_Murowane
100
AcDbVertex
100
AcDb2dVertex
 10
7565896.38999999966
 20
5687899.83999999985
  0
VERTEX
  5
86
100
AcDbEntity
  8
PAV_Sc_Murowane
100
AcDbVertex
100
AcDb2dVertex
 10
7565896.65000000037
 20
5687899.41000000015
  0
VERTEX
  5
87
100
AcDbEntity
  8
PAV_Sc_Murowane
100
AcDbVertex
100
AcDb2dVertex
 10
7565897.08000000007
 20
5687899.66999999993
  0
VERTEX
  5
88
100
AcDbEntity
  8
PAV_Sc_Murowane
100
AcDbVertex
100
AcDb2dVertex
 10
7565896.8200000003
 20
5687900.11000000034
  0
SEQEND
  5
89
100
AcDbEntity
  8
PAV_Sc_Murowane
  0
POLYLINE
  5
8A
100
AcDbEntity
  8
PAV_Sc_Murowane
  6
CONTINUOUS
 62
121
370
70
100
AcDb2dPolyline
 66
1
 70
129
  0
VERTEX
  5
8B
100
AcDbEntity
  8
PAV_Sc_Murowane
100
AcDbVertex
100
AcDb2dVertex
 10
7565895.13999999966
 20
5687901.88999999966
  0
VERTEX
  5
8C
100
AcDbEntity
  8
PAV_Sc_Murowane
100
AcDbVertex
100
AcDb2dVertex
 10
7565895.40000000037
 20
5687901.45999999996
  0
VERTEX
  5
8D
100
AcDbEntity
  8
PAV_Sc_Murowane
100
AcDbVertex
100
AcDb2dVertex
 10
7565895.83000000007
 20
5687901.73000000045
  0
VERTEX
  5
8E
100
AcDbEntity
  8
PAV_Sc_Murowane
100
AcDbVertex
100
AcDb2dVertex
 10
7565895.5700000003
 20
5687902.16000000015
  0
SEQEND
  5
8F
100
AcDbEntity
  8
PAV_Sc_Murowane
  0
POLYLINE
  5
90
100
AcDbEntity
  8
PAV_Sc_Murowane
  6
CONTINUOUS
 62
121
370
70
100
AcDb2dPolyline
 66
1
 70
129
  0
VERTEX
  5
91
100
AcDbEntity
  8
PAV_Sc_Murowane
100
AcDbVertex
100
AcDb2dVertex
 10
7565893.88999999966
 20
5687903.95000000019
  0
VERTEX
  5
92
100
AcDbEntity
  8
PAV_Sc_Murowane
100
AcDbVertex
100
AcDb2dVertex
 10
7565894.15000000037
 20
5687903.51999999955
  0
VERTEX
  5
93
100
AcDbEntity
  8
PAV_Sc_Murowane
100
AcDbVertex
100
AcDb2dVertex
 10
7565894.58000000007
 20
5687903.78000000026
  0
VERTEX
  5
94
100
AcDbEntity
  8
PAV_Sc_Murowane
100
AcDbVertex
100
AcDb2dVertex
 10
7565894.3200000003
 20
5687904.20999999996
  0
SEQEND
  5
95
100
AcDbEntity
  8
PAV_Sc_Murowane
  0
POLYLINE
  5
96
100
AcDbEntity
  8
PAV_Sc_Murowane
  6
CONTINUOUS
 62
121
370
70
100
AcDb2dPolyline
 66
1
 70
129
  0
VERTEX
  5
97
100
AcDbEntity
  8
PAV_Sc_Murowane
100
AcDbVertex
100
AcDb2dVertex
 10
7565892.63999999966
 20
5687906.0
  0
VERTEX
  5
98
100
AcDbEntity
  8
PAV_Sc_Murowane
100
AcDbVertex
100
AcDb2dVertex
 10
7565892.90000000037
 20
5687905.5700000003
  0
VERTEX
  5
99
100
AcDbEntity
  8
PAV_Sc_Murowane
100
AcDbVertex
100
AcDb2dVertex
 10
7565893.33000000007
 20
5687905.83000000007
  0
VERTEX
  5
9A
100
AcDbEntity
  8
PAV_Sc_Murowane
100
AcDbVertex
100
AcDb2dVertex
 10
7565893.0700000003
 20
5687906.25999999978
  0
SEQEND
  5
9B
100
AcDbEntity
  8
PAV_Sc_Murowane
  0
POLYLINE
  5
9C
100
AcDbEntity
  8
plot
  6
ByLayer
370
18
100
AcDb2dPolyline
 66
1
 70
128
  0
VERTEX
  5
9D
100
AcDbEntity
  8
plot
100
AcDbVertex
100
AcDb2dVertex
 10
7565883.66829143185
 20
5687888.86903231312
  0
VERTEX
  5
9E
100
AcDbEntity
  8
plot
100
AcDbVertex
100
AcDb2dVertex
 10
7565896.89431713428
 20
5687897.33740341198
  0
SEQEND
  5
9F
100
AcDbEntity
  8
plot
  0
POLYLINE
  5
A0
100
AcDbEntity
  8
PZT_gruba
  6
CONTINUOUS
370
13
100
AcDb2dPolyline
 66
1
 70
128
  0
VERTEX
  5
A1
100
AcDbEntity
  8
PZT_gruba
100
AcDbVertex
100
AcDb2dVertex
 10
7565875.55685317609
 20
5687903.03342030011
  0
VERTEX
  5
A2
100
AcDbEntity
  8
PZT_gruba
100
AcDbVertex
100
AcDb2dVertex
 10
7565883.66683295369
 20
5687888.8755278131
  0
VERTEX
  5
A3
100
AcDbEntity
  8
PZT_gruba
100
AcDbVertex
100
AcDb2dVertex
 10
7565896.89625095017
 20
5687897.33864051104
  0
SEQEND
  5
A4
100
AcDbEntity
  8
PZT_gruba
  0
POLYLINE
  5
A5
100
AcDbEntity
  8
PZT_gruba
  6
CONTINUOUS
370
13
100
AcDb2dPolyline
 66
1
 70
128
  0
VERTEX
  5
A6
100
AcDbEntity
  8
PZT_gruba
100
AcDbVertex
100
AcDb2dVertex
 10
7565874.47937870584
 20
5687904.89280878659
  0
VERTEX
  5
A7
100
AcDbEntity
  8
PZT_gruba
100
AcDbVertex
100
AcDb2dVertex
 10
7565873.84999999776
 20
5687906.00999999791
  0
VERTEX
  5
A8
100
AcDbEntity
  8
PZT_gruba
100
AcDbVertex
100
AcDb2dVertex
 10
7565888.33826263342
 20
5687914.40203019325
  0
SEQEND
  5
A9
100
AcDbEntity
  8
PZT_gruba
  0
POLYLINE
  5
AA
100
AcDbEntity
  8
PZT_gruba
  6
CONTINUOUS
370
13
100
AcDb2dPolyline
 66
1
 70
128
  0
VERTEX
  5
AB
100
AcDbEntity
  8
PZT_gruba
100
AcDbVertex
100
AcDb2dVertex
 10
7565896.88999999966
 20
5687897.33999999985
  0
VERTEX
  5
AC
100
AcDbEntity
  8
PZT_gruba
100
AcDbVertex
100
AcDb2dVertex
 10
7565896.25999999978
 20
5687898.33000000007
  0
VERTEX
  5
AD
100
AcDbEntity
  8
PZT_gruba
100
AcDbVertex
100
AcDb2dVertex
 10
7565897.20000000019
 20
5687898.95000000019
  0
VERTEX
  5
AE
100
AcDbEntity
  8
PZT_gruba
100
AcDbVertex
100
AcDb2dVertex
 10
7565897.33999999985
 20
5687898.71999999974
  0
SEQEND
  5
AF
100
AcDbEntity
  8
PZT_gruba
  0
POLYLINE
  5
B0
100
AcDbEntity
  8
PZT_gruba
  6
CONTINUOUS
370
13
100
AcDb2dPolyline
 66
1
 70
128
  0
VERTEX
  5
B1
100
AcDbEntity
  8
PZT_gruba
100
AcDbVertex
100
AcDb2dVertex
 10
7565896.90000000037
 20
5687897.33999999985
  0
VERTEX
  5
B2
100
AcDbEntity
  8
PZT_gruba
100
AcDbVertex
100
AcDb2dVertex
 10
7565897.6799999997
 20
5687897.76999999955
  0
VERTEX
  5
B3
100
AcDbEntity
  8
PZT_gruba
100
AcDbVertex
100
AcDb2dVertex
 10
7565912.73000000045
 20
5687907.6799999997
  0
VERTEX
  5
B4
100
AcDbEntity
  8
PZT_gruba
100
AcDbVertex
100
AcDb2dVertex
 10
7565907.20000000019
 20
5687916.33999999985
  0
VERTEX
  5
B5
100
AcDbEntity
  8
PZT_gruba
100
AcDbVertex
100
AcDb2dVertex
 10
7565903.40000000037
 20
5687922.20999999996
  0
VERTEX
  5
B6
100
AcDbEntity
  8
PZT_gruba
100
AcDbVertex
100
AcDb2dVertex
 10
7565888.13999999966
 20
5687914.44000000041
  0
VERTEX
  5
B7
100
AcDbEntity
  8
PZT_gruba
100
AcDbVertex
100
AcDb2dVertex
 10
7565892.25999999978
 20
5687906.70999999996
  0
VERTEX
  5
B8
100
AcDbEntity
  8
PZT_gruba
100
AcDbVertex
100
AcDb2dVertex
 10
7565894.40000000037
 20
5687908.04999999981
  0
VERTEX
  5
B9
100
AcDbEntity
  8
PZT_gruba
100
AcDbVertex
100
AcDb2dVertex
 10
7565899.36000000034
 20
5687900.0
  0
VERTEX
  5
BA
100
AcDbEntity
  8
PZT_gruba
100
AcDbVertex
100
AcDb2dVertex
 10
7565897.33999999985
 20
5687898.71999999974
  0
SEQEND
  5
BB
100
AcDbEntity
  8
PZT_gruba
  0
POLYLINE
  5
BC
100
AcDbEntity
  8
PZT_gruba
  6
CONTINUOUS
370
13
100
AcDb2dPolyline
 66
1
 70
129
  0
VERTEX
  5
BD
100
AcDbEntity
  8
PZT_gruba
100
AcDbVertex
100
AcDb2dVertex
 10
7565883.04000000004
 20
5687892.83999999985
  0
VERTEX
  5
BE
100
AcDbEntity
  8
PZT_gruba
100
AcDbVertex
100
AcDb2dVertex
 10
7565879.88999999966
 20
5687898.51999999955
  0
VERTEX
  5
BF
100
AcDbEntity
  8
PZT_gruba
100
AcDbVertex
100
AcDb2dVertex
 10
7565883.1799999997
 20
5687900.34999999963
  0
VERTEX
  5
C0
100
AcDbEntity
  8
PZT_gruba
100
AcDbVertex
100
AcDb2dVertex
 10
7565886.33999999985
 20
5687894.66999999993
  0
SEQEND
  5
C1
100
AcDbEntity
  8
PZT_gruba
  0
POLYLINE
  5
C2
100
AcDbEntity
  8
PZT_gruba
  6
CONTINUOUS
370
13
100
AcDb2dPolyline
 66
1
 70
129
  0
VERTEX
  5
C3
100
AcDbEntity
  8
PZT_gruba
100
AcDbVertex
100
AcDb2dVertex
 10
7565921.30000000074
 20
5687868.5
  0
VERTEX
  5
C4
100
AcDbEntity
  8
PZT_gruba
100
AcDbVertex
100
AcDb2dVertex
 10
7565934.10000000056
 20
5687876.80000000074
  0
VERTEX
  5
C5
100
AcDbEntity
  8
PZT_gruba
100
AcDbVertex
100
AcDb2dVertex
 10
7565946.98670132924
 20
5687856.92653289344
  0
VERTEX
  5
C6
100
AcDbEntity
  8
PZT_gruba
100
AcDbVertex
100
AcDb2dVertex
 10
7565934.48424784187
 20
5687848.81947320886
  0
SEQEND
  5
C7
100
AcDbEntity
  8
PZT_gruba
  0
CIRCLE
  5
C8
100
AcDbEntity
  8
PZT_hatch
  6
CONTINUOUS
 62
251
370
18
100
AcDbCircle
 10
7565884.51842763927
 20
5687892.686863265
 40
0.76827832404524088
  0
CIRCLE
  5
C9
100
AcDbEntity
  8
PZT_hatch
  6
CONTINUOUS
 62
251
370
18
100
AcDbCircle
 10
7565884.51842763927
 20
5687892.686863265
 40
0.21753451880067587
  0
POLYLINE
  5
CA
100
AcDbEntity
  8
PZT_hatch
  6
CONTINUOUS
 62
251
370
18
100
AcDb2dPolyline
 66
1
 70
128
  0
VERTEX
  5
CB
100
AcDbEntity
  8
PZT_hatch
100
AcDbVertex
100
AcDb2dVertex
 10
7565895.1451891521
 20
5687897.14370315429
  0
VERTEX
  5
CC
100
AcDbEntity
  8
PZT_hatch
100
AcDbVertex
100
AcDb2dVertex
 10
7565895.75518392306
 20
5687895.87844306324
  0
VERTEX
  5
CD
100
AcDbEntity
  8
PZT_hatch
100
AcDbVertex
100
AcDb2dVertex
 10
7565895.99102951121
 20
5687895.87839607522
  0
SEQEND
  5
CE
100
AcDbEntity
  8
PZT_hatch
  0
POLYLINE
  5
CF
100
AcDbEntity
  8
PZT_hatch
  6
CONTINUOUS
 62
7
370
18
100
AcDb2dPolyline
 66
1
 70
128
  0
VERTEX
  5
D0
100
AcDbEntity
  8
PZT_hatch
100
AcDbVertex
100
AcDb2dVertex
 10
7565895.28726178594
 20
5687896.6571234474
  0
VERTEX
  5
D1
100
AcDbEntity
  8
PZT_hatch
100
AcDbVertex
100
AcDb2dVertex
 10
7565895.1451891521
 20
5687897.14370315429
  0
SEQEND
  5
D2
100
AcDbEntity
  8
PZT_hatch
  0
POLYLINE
  5
D3
100
AcDbEntity
  8
PZT_hatch
  6
CONTINUOUS
 62
7
370
18
100
AcDb2dPolyline
 66
1
 70
128
  0
VERTEX
  5
D4
100
AcDbEntity
  8
PZT_hatch
100
AcDbVertex
100
AcDb2dVertex
 10
7565895.1451891521
 20
5687897.14370315429
  0
VERTEX
  5
D5
100
AcDbEntity
  8
PZT_hatch
100
AcDbVertex
100
AcDb2dVertex
 10
7565895.43739181943
 20
5687896.72950266488
  0
SEQEND
  5
D6
100
AcDbEntity
  8
PZT_hatch
  0
POLYLINE
  5
D7
100
AcDbEntity
  8
PZT_hatch
  6
CONTINUOUS
 62
7
370
18
100
AcDb2dPolyline
 66
1
 70
128
  0
VERTEX
  5
D8
100
AcDbEntity
  8
PZT_hatch
100
AcDbVertex
100
AcDb2dVertex
 10
7565895.28726178594
 20
5687896.6571234474
  0
VERTEX
  5
D9
100
AcDbEntity
  8
PZT_hatch
100
AcDbVertex
100
AcDb2dVertex
 10
7565895.43739181943
 20
5687896.72950266488
  0
SEQEND
  5
DA
100
AcDbEntity
  8
PZT_hatch
  0
POLYLINE
  5
DB
100
AcDbEntity
  8
PZT_hatch
  6
CONTINUOUS
 62
251
370
18
100
AcDb2dPolyline
 66
1
 70
128
  0
VERTEX
  5
DC
100
AcDbEntity
  8
PZT_hatch
100
AcDbVertex
100
AcDb2dVertex
 10
7565888.33826214913
 20
5687914.40203101654
  0
VERTEX
  5
DD
100
AcDbEntity
  8
PZT_hatch
100
AcDbVertex
100
AcDb2dVertex
 10
7565892.26109247375
 20
5687906.70844125561
  0
VERTEX
  5
DE
100
AcDbEntity
  8
PZT_hatch
100
AcDbVertex
100
AcDb2dVertex
 10
7565894.45537773427
 20
5687907.96739531308
  0
VERTEX
  5
DF
100
AcDbEntity
  8
PZT_hatch
100
AcDbVertex
100
AcDb2dVertex
 10
7565899.35946373642
 20
5687899.99982468504
  0
VERTEX
  5
E0
100
AcDbEntity
  8
PZT_hatch
100
AcDbVertex
100
AcDb2dVertex
 10
7565897.34300586768
 20
5687898.72047140822
  0
SEQEND
  5
E1
100
AcDbEntity
  8
PZT_hatch
  0
POLYLINE
  5
E2
100
AcDbEntity
  8
PZT_hatch
  6
CONTINUOUS
 62
251
370
18
100
AcDb2dPolyline
 66
1
 70
128
  0
VERTEX
  5
E3
100
AcDbEntity
  8
PZT_hatch
100
AcDbVertex
100
AcDb2dVertex
 10
7565884.51827457454
 20
5687891.91858495679
  0
VERTEX
  5
E4
100
AcDbEntity
  8
PZT_hatch
100
AcDbVertex
100
AcDb2dVertex
 10
7565884.51838430017
 20
5687892.46932875179
  0
SEQEND
  5
E5
100
AcDbEntity
  8
PZT_hatch
  0
POLYLINE
  5
E6
100
AcDbEntity
  8
PZT_hatch
  6
CONTINUOUS
 62
251
370
18
100
AcDb2dPolyline
 66
1
 70
128
  0
VERTEX
  5
E7
100
AcDbEntity
  8
PZT_hatch
100
AcDbVertex
100
AcDb2dVertex
 10
7565883.75015808828
 20
5687892.69053479843
  0
VERTEX
  5
E8
100
AcDbEntity
  8
PZT_hatch
100
AcDbVertex
100
AcDb2dVertex
 10
7565884.30089560524
 20
5687892.68790284358
  0
SEQEND
  5
E9
100
AcDbEntity
  8
PZT_hatch
  0
POLYLINE
  5
EA
100
AcDbEntity
  8
PZT_hatch
  6
CONTINUOUS
 62
251
370
18
100
AcDb2dPolyline
 66
1
 70
128
  0
VERTEX
  5
EB
100
AcDbEntity
  8
PZT_hatch
100
AcDbVertex
100
AcDb2dVertex
 10
7565884.5184709793
 20
5687892.90439777914
  0
VERTEX
  5
EC
100
AcDbEntity
  8
PZT_hatch
100
AcDbVertex
100
AcDb2dVertex
 10
7565884.518580704
 20
5687893.45514157414
  0
SEQEND
  5
ED
100
AcDbEntity
  8
PZT_hatch
  0
POLYLINE
  5
EE
100
AcDbEntity
  8
PZT_hatch
  6
CONTINUOUS
 62
251
370
18
100
AcDb2dPolyline
 66
1
 70
128
  0
VERTEX
  5
EF
100
AcDbEntity
  8
PZT_hatch
100
AcDbVertex
100
AcDb2dVertex
 10
7565884.7359596733
 20
5687892.68582368735
  0
VERTEX
  5
F0
100
AcDbEntity
  8
PZT_hatch
100
AcDbVertex
100
AcDb2dVertex
 10
7565885.28669719026
 20
5687892.6831917325
  0
SEQEND
  5
F1
100
AcDbEntity
  8
PZT_hatch
  0
POLYLINE
  5
F2
100
AcDbEntity
  8
PZT_hatch
  6
CONTINUOUS
 62
251
370
18
100
AcDb2dPolyline
 66
1
 70
129
  0
VERTEX
  5
F3
100
AcDbEntity
  8
PZT_hatch
100
AcDbVertex
100
AcDb2dVertex
 10
7565888.19859531894
 20
5687914.32113184594
  0
VERTEX
  5
F4
100
AcDbEntity
  8
PZT_hatch
100
AcDbVertex
100
AcDb2dVertex
 10
7565888.74803826585
 20
5687913.26524215192
  0
VERTEX
  5
F5
100
AcDbEntity
  8
PZT_hatch
100
AcDbVertex
100
AcDb2dVertex
 10
7565874.47937870584
 20
5687904.89280878659
  0
VERTEX
  5
F6
100
AcDbEntity
  8
PZT_hatch
100
AcDbVertex
100
AcDb2dVertex
 10
7565873.84999999776
 20
5687906.00999999791
  0
SEQEND
  5
F7
100
AcDbEntity
  8
PZT_hatch
  0
POLYLINE
  5
F8
100
AcDbEntity
  8
PZT_hatch
  6
CONTINUOUS
 62
251
370
18
100
AcDb2dPolyline
 66
1
 70
129
  0
VERTEX
  5
F9
100
AcDbEntity
  8
PZT_hatch
100
AcDbVertex
100
AcDb2dVertex
 10
7565896.25519117713
 20
5687898.32811336126
  0
VERTEX
  5
FA
100
AcDbEntity
  8
PZT_hatch
100
AcDbVertex
100
AcDb2dVertex
 10
7565896.89770942833
 20
5687897.33214501198
  0
VERTEX
  5
FB
100
AcDbEntity
  8
PZT_hatch
100
AcDbVertex
100
AcDb2dVertex
 10
7565883.66829143185
 20
5687888.86903231312
  0
VERTEX
  5
FC
100
AcDbEntity
  8
PZT_hatch
100
AcDbVertex
100
AcDb2dVertex
 10
7565882.77953879163
 20
5687890.42099348456
  0
SEQEND
  5
FD
100
AcDbEntity
  8
PZT_hatch
  0
POLYLINE
  5
FE
100
AcDbEntity
  8
PZT_hatch
  6
CONTINUOUS
 62
251
370
18
100
AcDb2dPolyline
 66
1
 70
129
  0
VERTEX
  5
FF
100
AcDbEntity
  8
PZT_hatch
100
AcDbVertex
100
AcDb2dVertex
 10
7565895.28726178594
 20
5687896.6571234474
  0
VERTEX
  5
100
100
AcDbEntity
  8
PZT_hatch
100
AcDbVertex
100
AcDb2dVertex
 10
7565895.43739181943
 20
5687896.72950266488
  0
VERTEX
  5
101
100
AcDbEntity
  8
PZT_hatch
100
AcDbVertex
100
AcDb2dVertex
 10
7565895.1451891521
 20
5687897.14370315429
  0
SEQEND
  5
102
100
AcDbEntity
  8
PZT_hatch
  0
HATCH
  5
103
100
AcDbEntity
  8
PZT_hatch
  6
CONTINUOUS
420
5987163
370
18
100
AcDbHatch
 10
0.0
 20
0.0
 30
0.0
210
0.0
220
0.0
230
1.0
  2
SOLID
 70
1
 71
1
 91
1
 92
3
 72
0
 73
1
 93
3
 10
7565895.28726178594
 20
5687896.6571234474
 10
7565895.43739181943
 20
5687896.72950266488
 10
7565895.1451891521
 20
5687897.14370315429
 97
0
 75
0
 76
1
 98
0
  0
POLYLINE
  5
104
100
AcDbEntity
  8
PZT_hatch
  6
CONTINUOUS
 62
251
370
18
100
AcDb2dPolyline
 66
1
 70
129
  0
VERTEX
  5
105
100
AcDbEntity
  8
PZT_hatch
100
AcDbVertex
100
AcDb2dVertex
 10
7565894.45537773613
 20
5687907.96739531308
  0
VERTEX
  5
106
100
AcDbEntity
  8
PZT_hatch
100
AcDbVertex
100
AcDb2dVertex
 10
7565892.7046942208
 20
5687906.96295429859
  0
VERTEX
  5
107
100
AcDbEntity
  8
PZT_hatch
100
AcDbVertex
100
AcDb2dVertex
 10
7565897.34808241017
 20
5687899.04710943345
  0
VERTEX
  5
108
100
AcDbEntity
  8
PZT_hatch
100
AcDbVertex
100
AcDb2dVertex
 10
7565899.34393078275
 20
5687899.98996971361
  0
SEQEND
  5
109
100
AcDbEntity
  8
PZT_hatch
  0
POINT
  5
10A
100
AcDbEntity
  8
osnowa
100
AcDbPoint
 62
0
 10
7565895.43858099449
 20
5687897.89992183074
  0
POINT
  5
10B
100
AcDbEntity
  8
osnowa
100
AcDbPoint
 62
0
 10
7565861.70199237578
 20
5687897.3981659878
  0
POINT
  5
10C
100
AcDbEntity
  8
osnowa
100
AcDbPoint
 62
0
 10
7565911.57017178554
 20
5687926.53221276309
  0
POINT
  5
10D
100
AcDbEntity
  8
osnowa
100
AcDbPoint
 62
0
 10
7565878.91299999971
 20
5687914.50600000005
  0
POINT
  5
10E
100
AcDbEntity
  8
osnowa
100
AcDbPoint
 62
0
 10
7565878.92300000042
 20
5687914.50600000005
  0
POINT
  5
10F
100
AcDbEntity
  8
pkt_osi
100
AcDbPoint
 62
0
 10
7565879.88999999966
 20
5687898.51999999955
  0
POINT
  5
110
100
AcDbEntity
  8
pkt_osi
100
AcDbPoint
 62
0
 10
7565883.09437564574
 20
5687892.86483486835
  0
POINT
  5
111
100
AcDbEntity
  8
pkt_osi
100
AcDbPoint
 62
0
 10
7565886.37431124877
 20
5687894.72307919059
  0
POINT
  5
112
100
AcDbEntity
  8
pkt_osi
100
AcDbPoint
 62
0
 10
7565883.17010803148
 20
5687900.37843786553
  0
POINT
  5
113
100
AcDbEntity
  8
pkt_osi
100
AcDbPoint
 62
0
 10
7565880.03312049992
 20
5687898.48039646912
  0
POINT
  5
114
100
AcDbEntity
  8
pkt_osi
100
AcDbPoint
 62
0
 10
7565883.13360008784
 20
5687893.00810805894
  0
POINT
  5
115
100
AcDbEntity
  8
pkt_osi
100
AcDbPoint
 62
0
 10
7565886.23087949958
 20
5687894.76260353066
  0
POINT
  5
116
100
AcDbEntity
  8
pkt_osi
100
AcDbPoint
 62
0
 10
7565883.13039991166
 20
5687900.23489194084
  0
POINT
  5
117
100
AcDbEntity
  8
pkt_osi
100
AcDbPoint
 62
0
 10
7565882.98981357925
 20
5687900.48302418552
  0
POINT
  5
118
100
AcDbEntity
  8
pkt_osi
100
AcDbPoint
 62
0
 10
7565879.89253416657
 20
5687898.72852871381
  0
POINT
  5
119
100
AcDbEntity
  8
pkt_osi
100
AcDbPoint
 62
0
 10
7565878.69947715476
 20
5687900.83425199799
  0
POINT
  5
11A
100
AcDbEntity
  8
pkt_osi
100
AcDbPoint
 62
0
 10
7565881.7967565665
 20
5687902.58874746971
  0
POINT
  5
11B
100
AcDbEntity
  8
PZT_gruba
100
AcDbPoint
 62
7
 10
7565883.04000000004
 20
5687892.83999999985
  0
POINT
  5
11C
100
AcDbEntity
  8
PZT_gruba
100
AcDbPoint
 62
7
 10
7565879.88999999966
 20
5687898.51999999955
  0
POINT
  5
11D
100
AcDbEntity
  8
PZT_gruba
100
AcDbPoint
 62
7
 10
7565883.1799999997
 20
5687900.34999999963
  0
POINT
  5
11E
100
AcDbEntity
  8
PZT_gruba
100
AcDbPoint
 62
7
 10
7565886.33999999985
 20
5687894.66999999993
  0
TEXT
  5
11F
100
AcDbEntity
  8
osnowa
370
18
100
AcDbText
 39
0.18
 10
7565895.70858099405
 20
5687897.179921831
 40
0.45
  1
ps1
 50
0.00
 41
0.66
 51
15.00
  7
STANDARD
100
AcDbText
  0
TEXT
  5
120
100
AcDbEntity
  8
osnowa
370
18
100
AcDbText
 39
0.18
 10
7565859.85000000056
 20
5687897.30999999959
 40
0.45
  1
ps2
 50
0.00
 41
0.66
 51
15.00
  7
STANDARD
100
AcDbText
  0
TEXT
  5
121
100
AcDbEntity
  8
osnowa
370
18
100
AcDbText
 39
0.18
 10
7565911.84017178509
 20
5687925.81221276335
 40
0.45
  1
ps3
 50
0.00
 41
0.66
 51
15.00
  7
STANDARD
100
AcDbText
  0
TEXT
  5
122
100
AcDbEntity
  8
osnowa
370
18
100
AcDbText
 39
0.18
 10
7565877.45999999996
 20
5687915.5
 40
0.45
  1
st1
 50
0.00
 41
0.66
 51
15.00
  7
STANDARD
100
AcDbText
  0
ENDSEC
  0
SECTION
  2
OBJECTS
  0
DICTIONARY
  5
123
330
0
100
AcDbDictionary
280
0
281
1
  3
ACAD_GROUP
350
124
  3
ACAD_LAYOUT
350
125
  3
ACAD_MLINESTYLE
350
126
  3
ACAD_PLOTSETTINGS
350
127
  3
ACAD_PLOTSTYLENAME
350
128
  3
ACAD_WIPEOUT_VARS
350
129
  0
DICTIONARY
  5
124
102
{ACAD_REACTORS
330
123
102
}
330
123
100
AcDbDictionary
280
0
281
1
  0
DICTIONARY
  5
125
102
{ACAD_REACTORS
330
123
102
}
330
123
100
AcDbDictionary
280
0
281
1
  3
Layout
350
22
  3
Model
350
20
  0
DICTIONARY
  5
126
102
{ACAD_REACTORS
330
123
102
}
330
123
100
AcDbDictionary
280
0
281
1
  3
Standard
350
12A
  0
DICTIONARY
  5
127
102
{ACAD_REACTORS
330
123
102
}
330
123
100
AcDbDictionary
280
0
281
1
  0
ACDBDICTIONARYWDFLT
  5
128
102
{ACAD_REACTORS
330
123
102
}
330
123
100
AcDbDictionary
281
1
  3
Normal
350
C
100
AcDbDictionaryWithDefault
340
C
  0
WIPEOUTVARIABLES
  5
129
102
{ACAD_REACTORS
330
123
102
}
330
123
100
AcDbWipeoutVariables
 70
0
  0
LAYOUT
  5
22
100
AcDbPlotSettings
  1

  2

  4

  6

 40
0.0
 41
0.0
 42
0.0
 43
0.0
 44
0.0
 45
0.0
 46
0.0
 47
0.0
 48
0.0
 49
0.0
140
0.0
141
0.0
142
1.0
143
1.0
 70
688
 72
1
 73
0
 74
5
  7

 75
0
147
1.0
148
0.0
149
0.0
100
AcDbLayout
  1
Layout
 70
1
 71
1
 10
0.0
 20
0.0
 11
420.0
 21
297.0
 12
0.0
 22
0.0
 32
0.0
 14
100000000000000000000.0
 24
100000000000000000000.0
 34
100000000000000000000.0
 15
-100000000000000000000.0
 25
-100000000000000000000.0
 35
-100000000000000000000.0
146
0.0
 13
0.0
 23
0.0
 33
0.0
 16
1.0
 26
0.0
 36
0.0
 17
0.0
 27
1.0
 37
0.0
 76
0
330
21
  0
LAYOUT
  5
20
100
AcDbPlotSettings
  1

  2

  4

  6

 40
0.0
 41
0.0
 42
0.0
 43
0.0
 44
0.0
 45
0.0
 46
0.0
 47
0.0
 48
0.0
 49
0.0
140
0.0
141
0.0
142
1.0
143
1.0
 70
1712
 72
1
 73
0
 74
0
  7

 75
0
147
1.0
148
0.0
149
0.0
100
AcDbLayout
  1
Model
 70
1
 71
0
 10
0.0
 20
0.0
 11
12.0
 21
9.0
 12
0.0
 22
0.0
 32
0.0
 14
0.0
 24
0.0
 34
0.0
 15
0.0
 25
0.0
 35
0.0
146
0.0
 13
0.0
 23
0.0
 33
0.0
 16
1.0
 26
0.0
 36
0.0
 17
0.0
 27
1.0
 37
0.0
 76
0
330
1F
  0
MLINESTYLE
  5
12A
102
{ACAD_REACTORS
330
126
102
}
330
126
100
AcDbMlineStyle
  2
Standard
 70
0
  3

 62
256
 51
90.0
 52
90.0
  2
Standard
 71
2
 49
0.5
 62
256
  6
ByLayer
 49
-0.5
 62
256
  6
ByLayer
  0
ACDBPLACEHOLDER
  5
C
  0
ENDSEC
  0
EOF
