  0
SECTION
  2
HEADER
  9
$ACADVER
  1
AC1018
  9
$HANDSEED
  5
FFFFFF
  9
$EXTMAX
 10
7570148.62999999989
 20
5724970.54000000004
 30
1000000.00
  9
$EXTMIN
 10
7567508.50999999978
 20
5723411.48000000045
 30
0.00
  9
$LIMMIN
 10
7567508.50999999978
 20
5723411.48000000045
  9
$LIMMAX
 10
7570148.62999999989
 20
5724970.54000000004
  9
$DIMASZ
 40
2.5
  9
$DIMGAP
 40
0.625
  9
$INSUNITS
 70
6
  9
$DIMEXO
 40
0.625
  9
$DIMTXT
 40
2.5
  9
$DIMSTYLE
  2
Standard
  9
$PLIMMIN
 10
0.0
 20
0.0
  9
$PLIMMAX
 10
210.0
 20
297.0
  9
$DIMEXE
 40
1.25
  9
$TEXTSIZE
 40
2.5
  9
$TEXTSTYLE
  7
Standard
  9
$LWDISPLAY
290
1
  9
$TDCREATE
 40
45139.404737581
  9
$TDUCREATE
 40
45139.321404248
  9
$TDUPDATE
 40
45139.404737581
  9
$TDUUPDATE
 40
45139.321404248
  9
$TDINDWG
 40
0.0
  9
$TDUSRTIMER
 40
0.0
  9
$USRTIMER
 70
1
  0
ENDSEC
  0
SECTION
  2
TABLES
  0
TABLE
  2
VPORT
  5
1
100
AcDbSymbolTable
 70
1
  0
VPORT
  5
2
100
AcDbSymbolTableRecord
100
AcDbViewportTableRecord
  2
*ACTIVE
 70
0
 10
0.0
 20
0.0
 11
1.0
 21
1.0
 12
7568828.570
 22
5724191.010
 13
0.0
 23
0.0
 14
1.0
 24
1.0
 15
0.0
 25
0.0
 16
0.0
 26
0.0
 36
1.0
 17
0.0
 27
0.0
 37
0.0
 40
1559.060
 41
1.693
 42
50.0
 43
0.0
 44
0.0
 50
0.0
 51
0.0
 71
0
 72
100
 73
1
 74
1
 75
0
 76
0
 77
0
 78
0
  0
ENDTAB
  0
TABLE
  2
LTYPE
  5
3
100
AcDbSymbolTable
 70
3
  0
LTYPE
  5
4
100
AcDbSymbolTableRecord
100
AcDbLinetypeTableRecord
  2
ByBlock
 70
0
  3

 72
65
 73
0
 40
0.0
  0
LTYPE
  5
5
100
AcDbSymbolTableRecord
100
AcDbLinetypeTableRecord
  2
ByLayer
 70
0
  3

 72
65
 73
0
 40
0.0
  0
LTYPE
  5
6
100
AcDbSymbolTableRecord
100
AcDbLinetypeTableRecord
  2
CONTINUOUS
 70
0
  3
Solid line
 72
65
 73
0
 40
0.0
  0
ENDTAB
  0
TABLE
  2
LAYER
  5
7
100
AcDbSymbolTable
 70
3
  0
LAYER
  5
8
100
AcDbSymbolTableRecord
100
AcDbLayerTableRecord
  2
0
 70
0
420
0
  6
CONTINUOUS
370
18
390
9
  0
LAYER
  5
A
100
AcDbSymbolTableRecord
100
AcDbLayerTableRecord
  2
ewns_budynki
 70
0
420
0
  6
CONTINUOUS
370
18
390
9
  0
LAYER
  5
B
100
AcDbSymbolTableRecord
100
AcDbLayerTableRecord
  2
ewns_dzialki
 70
0
420
0
  6
CONTINUOUS
370
18
390
9
  0
ENDTAB
  0
TABLE
  2
STYLE
  5
C
100
AcDbSymbolTable
 70
2
  0
STYLE
  5
D
100
AcDbSymbolTableRecord
100
AcDbTextStyleTableRecord
  2
STANDARD
 70
0
 40
0.0
 41
1.0
 50
0.0
 71
0
  3
simplex.shx
  4

  0
STYLE
  5
E
100
AcDbSymbolTableRecord
100
AcDbTextStyleTableRecord
  2
STANDARD_ITALIC
 70
0
 40
0.0
 41
1.0
 50
15.0
 71
0
  3
simplex.shx
  4

  0
ENDTAB
  0
TABLE
  2
VIEW
  5
F
100
AcDbSymbolTable
 70
0
  0
ENDTAB
  0
TABLE
  2
UCS
  5
10
100
AcDbSymbolTable
 70
0
  0
ENDTAB
  0
TABLE
  2
APPID
  5
11
100
AcDbSymbolTable
 70
1
  0
APPID
  5
12
100
AcDbSymbolTableRecord
100
AcDbRegAppTableRecord
  2
ACAD
 70
0
  0
ENDTAB
  0
TABLE
  2
DIMSTYLE
  5
13
100
AcDbSymbolTable
 70
1
100
AcDbDimStyleTable
  0
DIMSTYLE
105
14
100
AcDbSymbolTableRecord
100
AcDbDimStyleTableRecord
  2
Standard
 70
0
340
D
  0
ENDTAB
  0
TABLE
  2
BLOCK_RECORD
  5
15
100
AcDbSymbolTable
 70
2
  0
BLOCK_RECORD
  5
16
100
AcDbSymbolTableRecord
100
AcDbBlockTableRecord
  2
*Model_Space
340
17
  0
BLOCK_RECORD
  5
18
100
AcDbSymbolTableRecord
100
AcDbBlockTableRecord
  2
*Paper_Space
340
19
  0
ENDTAB
  0
ENDSEC
  0
SECTION
  2
BLOCKS
  0
BLOCK
  5
1A
100
AcDbEntity
  8
0
100
AcDbBlockBegin
  2
*Model_Space
 70
0
 10
0.0
 20
0.0
 30
0.0
  3
*Model_Space
  1

  0
ENDBLK
  5
1B
100
AcDbEntity
  8
0
100
AcDbBlockEnd
  0
BLOCK
  5
1C
100
AcDbEntity
 67
1
  8
0
100
AcDbBlockBegin
  2
*Paper_Space
 70
0
 10
0.0
 20
0.0
 30
0.0
  3
*Paper_Space
  1

  0
ENDBLK
  5
1D
100
AcDbEntity
 67
1
  8
0
100
AcDbBlockEnd
  0
ENDSEC
  0
SECTION
  2
ENTITIES
  0
POLYLINE
  5
1E
100
AcDbEntity
  8
ewns_budynki
  6
CONTINUOUS
370
18
100
AcDb2dPolyline
 66
1
 70
129
  0
VERTEX
  5
1F
100
AcDbEntity
  8
ewns_budynki
100
AcDbVertex
100
AcDb2dVertex
 10
7568069.14699999988
 20
5723634.9709999999
  0
VERTEX
  5
20
100
AcDbEntity
  8
ewns_budynki
100
AcDbVertex
100
AcDb2dVertex
 10
7568071.85699999984
 20
5723624.90600000042
  0
VERTEX
  5
21
100
AcDbEntity
  8
ewns_budynki
100
AcDbVertex
100
AcDb2dVertex
 10
7568063.02199999988
 20
5723622.64599999972
  0
VERTEX
  5
22
100
AcDbEntity
  8
ewns_budynki
100
AcDbVertex
100
AcDb2dVertex
 10
7568061.90000000037
 20
5723626.23000000045
  0
VERTEX
  5
23
100
AcDbEntity
  8
ewns_budynki
100
AcDbVertex
100
AcDb2dVertex
 10
7568058.6540000001
 20
5723625.39900000021
  0
VERTEX
  5
24
100
AcDbEntity
  8
ewns_budynki
100
AcDbVertex
100
AcDb2dVertex
 10
7568057.82299999986
 20
5723628.64400000032
  0
VERTEX
  5
25
100
AcDbEntity
  8
ewns_budynki
100
AcDbVertex
100
AcDb2dVertex
 10
7568061.06900000013
 20
5723629.47499999963
  0
VERTEX
  5
26
100
AcDbEntity
  8
ewns_budynki
100
AcDbVertex
100
AcDb2dVertex
 10
7568060.24500000011
 20
5723632.69099999964
  0
VERTEX
  5
27
100
AcDbEntity
  8
ewns_budynki
100
AcDbVertex
100
AcDb2dVertex
 10
7568063.68400000036
 20
5723633.57199999969
  0
SEQEND
  5
28
100
AcDbEntity
  8
ewns_budynki
  0
POLYLINE
  5
29
100
AcDbEntity
  8
ewns_budynki
  6
CONTINUOUS
370
18
100
AcDb2dPolyline
 66
1
 70
129
  0
VERTEX
  5
2A
100
AcDbEntity
  8
ewns_budynki
100
AcDbVertex
100
AcDb2dVertex
 10
7568070.64300000016
 20
5723645.88499999978
  0
VERTEX
  5
2B
100
AcDbEntity
  8
ewns_budynki
100
AcDbVertex
100
AcDb2dVertex
 10
7568073.11899999995
 20
5723635.9879999999
  0
VERTEX
  5
2C
100
AcDbEntity
  8
ewns_budynki
100
AcDbVertex
100
AcDb2dVertex
 10
7568069.14699999988
 20
5723634.9709999999
  0
VERTEX
  5
2D
100
AcDbEntity
  8
ewns_budynki
100
AcDbVertex
100
AcDb2dVertex
 10
7568063.68400000036
 20
5723633.57199999969
  0
VERTEX
  5
2E
100
AcDbEntity
  8
ewns_budynki
100
AcDbVertex
100
AcDb2dVertex
 10
7568062.97699999996
 20
5723636.33299999964
  0
VERTEX
  5
2F
100
AcDbEntity
  8
ewns_budynki
100
AcDbVertex
100
AcDb2dVertex
 10
7568055.71399999969
 20
5723634.41899999976
  0
VERTEX
  5
30
100
AcDbEntity
  8
ewns_budynki
100
AcDbVertex
100
AcDb2dVertex
 10
7568053.89300000016
 20
5723641.56199999992
  0
SEQEND
  5
31
100
AcDbEntity
  8
ewns_budynki
  0
POLYLINE
  5
32
100
AcDbEntity
  8
ewns_budynki
  6
CONTINUOUS
370
18
100
AcDb2dPolyline
 66
1
 70
129
  0
VERTEX
  5
33
100
AcDbEntity
  8
ewns_budynki
100
AcDbVertex
100
AcDb2dVertex
 10
7568138.57199999969
 20
5723714.85699999984
  0
VERTEX
  5
34
100
AcDbEntity
  8
ewns_budynki
100
AcDbVertex
100
AcDb2dVertex
 10
7568140.80800000019
 20
5723702.91999999993
  0
VERTEX
  5
35
100
AcDbEntity
  8
ewns_budynki
100
AcDbVertex
100
AcDb2dVertex
 10
7568133.92800000031
 20
5723701.63100000005
  0
VERTEX
  5
36
100
AcDbEntity
  8
ewns_budynki
100
AcDbVertex
100
AcDb2dVertex
 10
7568131.73900000006
 20
5723713.58000000007
  0
SEQEND
  5
37
100
AcDbEntity
  8
ewns_budynki
  0
POLYLINE
  5
38
100
AcDbEntity
  8
ewns_budynki
  6
CONTINUOUS
370
18
100
AcDb2dPolyline
 66
1
 70
129
  0
VERTEX
  5
39
100
AcDbEntity
  8
ewns_budynki
100
AcDbVertex
100
AcDb2dVertex
 10
7568108.06400000025
 20
5723709.18699999992
  0
VERTEX
  5
3A
100
AcDbEntity
  8
ewns_budynki
100
AcDbVertex
100
AcDb2dVertex
 10
7568109.39400000032
 20
5723698.20799999963
  0
VERTEX
  5
3B
100
AcDbEntity
  8
ewns_budynki
100
AcDbVertex
100
AcDb2dVertex
 10
7568099.99600000028
 20
5723697.06900000013
  0
VERTEX
  5
3C
100
AcDbEntity
  8
ewns_budynki
100
AcDbVertex
100
AcDb2dVertex
 10
7568098.67100000009
 20
5723708.00299999956
  0
SEQEND
  5
3D
100
AcDbEntity
  8
ewns_budynki
  0
POLYLINE
  5
3E
100
AcDbEntity
  8
ewns_budynki
  6
CONTINUOUS
370
18
100
AcDb2dPolyline
 66
1
 70
129
  0
VERTEX
  5
3F
100
AcDbEntity
  8
ewns_budynki
100
AcDbVertex
100
AcDb2dVertex
 10
7568071.15799999982
 20
5723698.00499999989
  0
VERTEX
  5
40
100
AcDbEntity
  8
ewns_budynki
100
AcDbVertex
100
AcDb2dVertex
 10
7568072.14300000016
 20
5723692.90099999961
  0
VERTEX
  5
41
100
AcDbEntity
  8
ewns_budynki
100
AcDbVertex
100
AcDb2dVertex
 10
7568059.37200000044
 20
5723690.02400000021
  0
VERTEX
  5
42
100
AcDbEntity
  8
ewns_budynki
100
AcDbVertex
100
AcDb2dVertex
 10
7568058.23000000045
 20
5723695.09200000018
  0
SEQEND
  5
43
100
AcDbEntity
  8
ewns_budynki
  0
POLYLINE
  5
44
100
AcDbEntity
  8
ewns_budynki
  6
CONTINUOUS
370
18
100
AcDb2dPolyline
 66
1
 70
129
  0
VERTEX
  5
45
100
AcDbEntity
  8
ewns_budynki
100
AcDbVertex
100
AcDb2dVertex
 10
7568071.05599999987
 20
5723670.51300000027
  0
VERTEX
  5
46
100
AcDbEntity
  8
ewns_budynki
100
AcDbVertex
100
AcDb2dVertex
 10
7568073.57899999991
 20
5723660.17899999954
  0
VERTEX
  5
47
100
AcDbEntity
  8
ewns_budynki
100
AcDbVertex
100
AcDb2dVertex
 10
7568064.23099999968
 20
5723657.89599999972
  0
VERTEX
  5
48
100
AcDbEntity
  8
ewns_budynki
100
AcDbVertex
100
AcDb2dVertex
 10
7568061.70100000035
 20
5723668.25899999961
  0
SEQEND
  5
49
100
AcDbEntity
  8
ewns_budynki
  0
POLYLINE
  5
4A
100
AcDbEntity
  8
ewns_dzialki
  6
CONTINUOUS
370
18
100
AcDb2dPolyline
 66
1
 70
129
  0
VERTEX
  5
4B
100
AcDbEntity
  8
ewns_dzialki
100
AcDbVertex
100
AcDb2dVertex
 10
7568077.53000000026
 20
5723623.37999999989
  0
VERTEX
  5
4C
100
AcDbEntity
  8
ewns_dzialki
100
AcDbVertex
100
AcDb2dVertex
 10
7567800.54999999981
 20
5723554.25
  0
VERTEX
  5
4D
100
AcDbEntity
  8
ewns_dzialki
100
AcDbVertex
100
AcDb2dVertex
 10
7567798.01999999955
 20
5723567.84999999963
  0
VERTEX
  5
4E
100
AcDbEntity
  8
ewns_dzialki
100
AcDbVertex
100
AcDb2dVertex
 10
7567939.83000000008
 20
5723602.98000000045
  0
VERTEX
  5
4F
100
AcDbEntity
  8
ewns_dzialki
100
AcDbVertex
100
AcDb2dVertex
 10
7568078.44000000041
 20
5723637.29999999981
  0
SEQEND
  5
50
100
AcDbEntity
  8
ewns_dzialki
  0
POLYLINE
  5
51
100
AcDbEntity
  8
ewns_dzialki
  6
CONTINUOUS
370
18
100
AcDb2dPolyline
 66
1
 70
129
  0
VERTEX
  5
52
100
AcDbEntity
  8
ewns_dzialki
100
AcDbVertex
100
AcDb2dVertex
 10
7567790.79000000004
 20
5723606.76999999955
  0
VERTEX
  5
53
100
AcDbEntity
  8
ewns_dzialki
100
AcDbVertex
100
AcDb2dVertex
 10
7567790.05999999959
 20
5723610.51999999955
  0
VERTEX
  5
54
100
AcDbEntity
  8
ewns_dzialki
100
AcDbVertex
100
AcDb2dVertex
 10
7567788.55999999959
 20
5723618.74000000022
  0
VERTEX
  5
55
100
AcDbEntity
  8
ewns_dzialki
100
AcDbVertex
100
AcDb2dVertex
 10
7567786.00999999978
 20
5723632.61000000034
  0
VERTEX
  5
56
100
AcDbEntity
  8
ewns_dzialki
100
AcDbVertex
100
AcDb2dVertex
 10
7567783.34999999963
 20
5723647.11000000034
  0
VERTEX
  5
57
100
AcDbEntity
  8
ewns_dzialki
100
AcDbVertex
100
AcDb2dVertex
 10
7567920.4299999997
 20
5723681.15000000037
  0
VERTEX
  5
58
100
AcDbEntity
  8
ewns_dzialki
100
AcDbVertex
100
AcDb2dVertex
 10
7567923.33999999985
 20
5723679.4299999997
  0
VERTEX
  5
59
100
AcDbEntity
  8
ewns_dzialki
100
AcDbVertex
100
AcDb2dVertex
 10
7568069.30999999959
 20
5723713.6799999997
  0
VERTEX
  5
5A
100
AcDbEntity
  8
ewns_dzialki
100
AcDbVertex
100
AcDb2dVertex
 10
7568082.20999999996
 20
5723698.91999999993
  0
VERTEX
  5
5B
100
AcDbEntity
  8
ewns_dzialki
100
AcDbVertex
100
AcDb2dVertex
 10
7568082.45999999996
 20
5723698.25
  0
VERTEX
  5
5C
100
AcDbEntity
  8
ewns_dzialki
100
AcDbVertex
100
AcDb2dVertex
 10
7568081.25999999978
 20
5723680.11000000034
  0
SEQEND
  5
5D
100
AcDbEntity
  8
ewns_dzialki
  0
POLYLINE
  5
5E
100
AcDbEntity
  8
ewns_dzialki
  6
CONTINUOUS
370
18
100
AcDb2dPolyline
 66
1
 70
129
  0
VERTEX
  5
5F
100
AcDbEntity
  8
ewns_dzialki
100
AcDbVertex
100
AcDb2dVertex
 10
7568201.19000000041
 20
5723605.04999999981
  0
VERTEX
  5
60
100
AcDbEntity
  8
ewns_dzialki
100
AcDbVertex
100
AcDb2dVertex
 10
7568087.33000000007
 20
5723575.04000000004
  0
VERTEX
  5
61
100
AcDbEntity
  8
ewns_dzialki
100
AcDbVertex
100
AcDb2dVertex
 10
7568088.13999999966
 20
5723599.99000000022
  0
VERTEX
  5
62
100
AcDbEntity
  8
ewns_dzialki
100
AcDbVertex
100
AcDb2dVertex
 10
7568195.16000000015
 20
5723628.79000000004
  0
SEQEND
  5
63
100
AcDbEntity
  8
ewns_dzialki
  0
POLYLINE
  5
64
100
AcDbEntity
  8
ewns_dzialki
  6
CONTINUOUS
370
18
100
AcDb2dPolyline
 66
1
 70
129
  0
VERTEX
  5
65
100
AcDbEntity
  8
ewns_dzialki
100
AcDbVertex
100
AcDb2dVertex
 10
7568195.16000000015
 20
5723628.79000000004
  0
VERTEX
  5
66
100
AcDbEntity
  8
ewns_dzialki
100
AcDbVertex
100
AcDb2dVertex
 10
7568088.13999999966
 20
5723599.99000000022
  0
VERTEX
  5
67
100
AcDbEntity
  8
ewns_dzialki
100
AcDbVertex
100
AcDb2dVertex
 10
7568090.37999999989
 20
5723626.41999999993
  0
VERTEX
  5
68
100
AcDbEntity
  8
ewns_dzialki
100
AcDbVertex
100
AcDb2dVertex
 10
7568135.08000000007
 20
5723637.53000000026
  0
VERTEX
  5
69
100
AcDbEntity
  8
ewns_dzialki
100
AcDbVertex
100
AcDb2dVertex
 10
7568190.71999999974
 20
5723646.28000000026
  0
SEQEND
  5
6A
100
AcDbEntity
  8
ewns_dzialki
  0
POLYLINE
  5
6B
100
AcDbEntity
  8
ewns_dzialki
  6
CONTINUOUS
370
18
100
AcDb2dPolyline
 66
1
 70
129
  0
VERTEX
  5
6C
100
AcDbEntity
  8
ewns_dzialki
100
AcDbVertex
100
AcDb2dVertex
 10
7568134.08999999985
 20
5723642.44000000041
  0
VERTEX
  5
6D
100
AcDbEntity
  8
ewns_dzialki
100
AcDbVertex
100
AcDb2dVertex
 10
7568090.55999999959
 20
5723631.61000000034
  0
VERTEX
  5
6E
100
AcDbEntity
  8
ewns_dzialki
100
AcDbVertex
100
AcDb2dVertex
 10
7568091.58999999985
 20
5723643.70000000019
  0
VERTEX
  5
6F
100
AcDbEntity
  8
ewns_dzialki
100
AcDbVertex
100
AcDb2dVertex
 10
7568184.87999999989
 20
5723666.12000000011
  0
VERTEX
  5
70
100
AcDbEntity
  8
ewns_dzialki
100
AcDbVertex
100
AcDb2dVertex
 10
7568189.55999999959
 20
5723651.25
  0
SEQEND
  5
71
100
AcDbEntity
  8
ewns_dzialki
  0
POLYLINE
  5
72
100
AcDbEntity
  8
ewns_dzialki
  6
CONTINUOUS
370
18
100
AcDb2dPolyline
 66
1
 70
129
  0
VERTEX
  5
73
100
AcDbEntity
  8
ewns_dzialki
100
AcDbVertex
100
AcDb2dVertex
 10
7568184.87999999989
 20
5723666.12000000011
  0
VERTEX
  5
74
100
AcDbEntity
  8
ewns_dzialki
100
AcDbVertex
100
AcDb2dVertex
 10
7568091.58999999985
 20
5723643.70000000019
  0
VERTEX
  5
75
100
AcDbEntity
  8
ewns_dzialki
100
AcDbVertex
100
AcDb2dVertex
 10
7568094.54999999981
 20
5723681.87999999989
  0
VERTEX
  5
76
100
AcDbEntity
  8
ewns_dzialki
100
AcDbVertex
100
AcDb2dVertex
 10
7568131.58999999985
 20
5723688.66999999993
  0
VERTEX
  5
77
100
AcDbEntity
  8
ewns_dzialki
100
AcDbVertex
100
AcDb2dVertex
 10
7568135.23000000045
 20
5723667.8200000003
  0
VERTEX
  5
78
100
AcDbEntity
  8
ewns_dzialki
100
AcDbVertex
100
AcDb2dVertex
 10
7568180.95999999996
 20
5723678.62999999989
  0
SEQEND
  5
79
100
AcDbEntity
  8
ewns_dzialki
  0
HATCH
  5
7A
100
AcDbEntity
  8
ewns_dzialki
  6
CONTINUOUS
420
15787660
370
18
100
AcDbHatch
 10
0.0
 20
0.0
 30
0.0
210
0.0
220
0.0
230
1.0
  2
SOLID
 70
1
 71
1
 91
1
 92
3
 72
0
 73
1
 93
6
 10
7568184.87999999989
 20
5723666.12000000011
 10
7568091.58999999985
 20
5723643.70000000019
 10
7568094.54999999981
 20
5723681.87999999989
 10
7568131.58999999985
 20
5723688.66999999993
 10
7568135.23000000045
 20
5723667.8200000003
 10
7568180.95999999996
 20
5723678.62999999989
 97
0
 75
0
 76
1
 98
0
  0
POLYLINE
  5
7B
100
AcDbEntity
  8
ewns_dzialki
  6
CONTINUOUS
370
18
100
AcDb2dPolyline
 66
1
 70
129
  0
VERTEX
  5
7C
100
AcDbEntity
  8
ewns_dzialki
100
AcDbVertex
100
AcDb2dVertex
 10
7568189.55999999959
 20
5723651.25
  0
VERTEX
  5
7D
100
AcDbEntity
  8
ewns_dzialki
100
AcDbVertex
100
AcDb2dVertex
 10
7568184.87999999989
 20
5723666.12000000011
  0
VERTEX
  5
7E
100
AcDbEntity
  8
ewns_dzialki
100
AcDbVertex
100
AcDb2dVertex
 10
7568180.95999999996
 20
5723678.62999999989
  0
VERTEX
  5
7F
100
AcDbEntity
  8
ewns_dzialki
100
AcDbVertex
100
AcDb2dVertex
 10
7568135.23000000045
 20
5723667.8200000003
  0
VERTEX
  5
80
100
AcDbEntity
  8
ewns_dzialki
100
AcDbVertex
100
AcDb2dVertex
 10
7568131.58999999985
 20
5723688.66999999993
  0
VERTEX
  5
81
100
AcDbEntity
  8
ewns_dzialki
100
AcDbVertex
100
AcDb2dVertex
 10
7568094.54999999981
 20
5723681.87999999989
  0
VERTEX
  5
82
100
AcDbEntity
  8
ewns_dzialki
100
AcDbVertex
100
AcDb2dVertex
 10
7568098.08000000007
 20
5723727.55999999959
  0
VERTEX
  5
83
100
AcDbEntity
  8
ewns_dzialki
100
AcDbVertex
100
AcDb2dVertex
 10
7568166.16000000015
 20
5723744.05999999959
  0
VERTEX
  5
84
100
AcDbEntity
  8
ewns_dzialki
100
AcDbVertex
100
AcDb2dVertex
 10
7568175.45999999996
 20
5723727.21999999974
  0
VERTEX
  5
85
100
AcDbEntity
  8
ewns_dzialki
100
AcDbVertex
100
AcDb2dVertex
 10
7568254.54000000004
 20
5723781.09999999963
  0
VERTEX
  5
86
100
AcDbEntity
  8
ewns_dzialki
100
AcDbVertex
100
AcDb2dVertex
 10
7568285.15000000037
 20
5723653.87999999989
  0
VERTEX
  5
87
100
AcDbEntity
  8
ewns_dzialki
100
AcDbVertex
100
AcDb2dVertex
 10
7568190.5
 20
5723651.28000000026
  0
SEQEND
  5
88
100
AcDbEntity
  8
ewns_dzialki
  0
POLYLINE
  5
89
100
AcDbEntity
  8
ewns_dzialki
  6
CONTINUOUS
370
18
100
AcDb2dPolyline
 66
1
 70
129
  0
VERTEX
  5
8A
100
AcDbEntity
  8
ewns_dzialki
100
AcDbVertex
100
AcDb2dVertex
 10
7568078.44000000041
 20
5723637.29999999981
  0
VERTEX
  5
8B
100
AcDbEntity
  8
ewns_dzialki
100
AcDbVertex
100
AcDb2dVertex
 10
7567939.83000000008
 20
5723602.98000000045
  0
VERTEX
  5
8C
100
AcDbEntity
  8
ewns_dzialki
100
AcDbVertex
100
AcDb2dVertex
 10
7567936.86000000034
 20
5723615.00999999978
  0
VERTEX
  5
8D
100
AcDbEntity
  8
ewns_dzialki
100
AcDbVertex
100
AcDb2dVertex
 10
7567795.75999999978
 20
5723580.03000000026
  0
VERTEX
  5
8E
100
AcDbEntity
  8
ewns_dzialki
100
AcDbVertex
100
AcDb2dVertex
 10
7567790.79000000004
 20
5723606.76999999955
  0
VERTEX
  5
8F
100
AcDbEntity
  8
ewns_dzialki
100
AcDbVertex
100
AcDb2dVertex
 10
7568081.25999999978
 20
5723680.11000000034
  0
SEQEND
  5
90
100
AcDbEntity
  8
ewns_dzialki
  0
POLYLINE
  5
91
100
AcDbEntity
  8
ewns_dzialki
  6
CONTINUOUS
370
18
100
AcDb2dPolyline
 66
1
 70
129
  0
VERTEX
  5
92
100
AcDbEntity
  8
ewns_dzialki
100
AcDbVertex
100
AcDb2dVertex
 10
7568217.83000000007
 20
5723539.51999999955
  0
VERTEX
  5
93
100
AcDbEntity
  8
ewns_dzialki
100
AcDbVertex
100
AcDb2dVertex
 10
7568206.29000000004
 20
5723584.98000000045
  0
VERTEX
  5
94
100
AcDbEntity
  8
ewns_dzialki
100
AcDbVertex
100
AcDb2dVertex
 10
7568201.19000000041
 20
5723605.04999999981
  0
VERTEX
  5
95
100
AcDbEntity
  8
ewns_dzialki
100
AcDbVertex
100
AcDb2dVertex
 10
7568195.16000000015
 20
5723628.79000000004
  0
VERTEX
  5
96
100
AcDbEntity
  8
ewns_dzialki
100
AcDbVertex
100
AcDb2dVertex
 10
7568190.71999999974
 20
5723646.28000000026
  0
VERTEX
  5
97
100
AcDbEntity
  8
ewns_dzialki
100
AcDbVertex
100
AcDb2dVertex
 10
7568190.95999999996
 20
5723646.28000000026
  0
VERTEX
  5
98
100
AcDbEntity
  8
ewns_dzialki
100
AcDbVertex
100
AcDb2dVertex
 10
7568286.36000000034
 20
5723648.88999999966
  0
VERTEX
  5
99
100
AcDbEntity
  8
ewns_dzialki
100
AcDbVertex
100
AcDb2dVertex
 10
7568311.41999999993
 20
5723542.55999999959
  0
VERTEX
  5
9A
100
AcDbEntity
  8
ewns_dzialki
100
AcDbVertex
100
AcDb2dVertex
 10
7568222.75999999978
 20
5723520.08999999985
  0
SEQEND
  5
9B
100
AcDbEntity
  8
ewns_dzialki
  0
POLYLINE
  5
9C
100
AcDbEntity
  8
ewns_dzialki
  6
CONTINUOUS
370
18
100
AcDb2dPolyline
 66
1
 70
129
  0
VERTEX
  5
9D
100
AcDbEntity
  8
ewns_dzialki
100
AcDbVertex
100
AcDb2dVertex
 10
7568190.71999999974
 20
5723646.28000000026
  0
VERTEX
  5
9E
100
AcDbEntity
  8
ewns_dzialki
100
AcDbVertex
100
AcDb2dVertex
 10
7568135.08000000007
 20
5723637.53000000026
  0
VERTEX
  5
9F
100
AcDbEntity
  8
ewns_dzialki
100
AcDbVertex
100
AcDb2dVertex
 10
7568090.37999999989
 20
5723626.41999999993
  0
VERTEX
  5
A0
100
AcDbEntity
  8
ewns_dzialki
100
AcDbVertex
100
AcDb2dVertex
 10
7568090.55999999959
 20
5723631.61000000034
  0
VERTEX
  5
A1
100
AcDbEntity
  8
ewns_dzialki
100
AcDbVertex
100
AcDb2dVertex
 10
7568134.08999999985
 20
5723642.44000000041
  0
VERTEX
  5
A2
100
AcDbEntity
  8
ewns_dzialki
100
AcDbVertex
100
AcDb2dVertex
 10
7568189.55999999959
 20
5723651.25
  0
VERTEX
  5
A3
100
AcDbEntity
  8
ewns_dzialki
100
AcDbVertex
100
AcDb2dVertex
 10
7568190.5
 20
5723651.28000000026
  0
VERTEX
  5
A4
100
AcDbEntity
  8
ewns_dzialki
100
AcDbVertex
100
AcDb2dVertex
 10
7568285.15000000037
 20
5723653.87999999989
  0
VERTEX
  5
A5
100
AcDbEntity
  8
ewns_dzialki
100
AcDbVertex
100
AcDb2dVertex
 10
7568285.65000000037
 20
5723653.90000000037
  0
VERTEX
  5
A6
100
AcDbEntity
  8
ewns_dzialki
100
AcDbVertex
100
AcDb2dVertex
 10
7568391.75
 20
5723681.08000000007
  0
VERTEX
  5
A7
100
AcDbEntity
  8
ewns_dzialki
100
AcDbVertex
100
AcDb2dVertex
 10
7568531.24000000022
 20
5723716.83000000007
  0
VERTEX
  5
A8
100
AcDbEntity
  8
ewns_dzialki
100
AcDbVertex
100
AcDb2dVertex
 10
7568544.66000000015
 20
5723720.25999999978
  0
VERTEX
  5
A9
100
AcDbEntity
  8
ewns_dzialki
100
AcDbVertex
100
AcDb2dVertex
 10
7568561.50999999978
 20
5723724.58999999985
  0
VERTEX
  5
AA
100
AcDbEntity
  8
ewns_dzialki
100
AcDbVertex
100
AcDb2dVertex
 10
7568621.29000000004
 20
5723739.91000000015
  0
VERTEX
  5
AB
100
AcDbEntity
  8
ewns_dzialki
100
AcDbVertex
100
AcDb2dVertex
 10
7568654.25999999978
 20
5723748.12000000011
  0
VERTEX
  5
AC
100
AcDbEntity
  8
ewns_dzialki
100
AcDbVertex
100
AcDb2dVertex
 10
7568658.28000000026
 20
5723749.12999999989
  0
VERTEX
  5
AD
100
AcDbEntity
  8
ewns_dzialki
100
AcDbVertex
100
AcDb2dVertex
 10
7568766.30999999959
 20
5723776.04999999981
  0
VERTEX
  5
AE
100
AcDbEntity
  8
ewns_dzialki
100
AcDbVertex
100
AcDb2dVertex
 10
7568831.69000000041
 20
5723792.34999999963
  0
VERTEX
  5
AF
100
AcDbEntity
  8
ewns_dzialki
100
AcDbVertex
100
AcDb2dVertex
 10
7568886.75999999978
 20
5723806.08000000007
  0
VERTEX
  5
B0
100
AcDbEntity
  8
ewns_dzialki
100
AcDbVertex
100
AcDb2dVertex
 10
7568919.5700000003
 20
5723814.25
  0
VERTEX
  5
B1
100
AcDbEntity
  8
ewns_dzialki
100
AcDbVertex
100
AcDb2dVertex
 10
7569009.16000000015
 20
5723836.37999999989
  0
VERTEX
  5
B2
100
AcDbEntity
  8
ewns_dzialki
100
AcDbVertex
100
AcDb2dVertex
 10
7569034.49000000022
 20
5723842.62999999989
  0
VERTEX
  5
B3
100
AcDbEntity
  8
ewns_dzialki
100
AcDbVertex
100
AcDb2dVertex
 10
7569067.66000000015
 20
5723850.8200000003
  0
VERTEX
  5
B4
100
AcDbEntity
  8
ewns_dzialki
100
AcDbVertex
100
AcDb2dVertex
 10
7569078.8200000003
 20
5723853.5700000003
  0
VERTEX
  5
B5
100
AcDbEntity
  8
ewns_dzialki
100
AcDbVertex
100
AcDb2dVertex
 10
7569089.95999999996
 20
5723856.23000000045
  0
VERTEX
  5
B6
100
AcDbEntity
  8
ewns_dzialki
100
AcDbVertex
100
AcDb2dVertex
 10
7569126.86000000034
 20
5723865.33999999985
  0
VERTEX
  5
B7
100
AcDbEntity
  8
ewns_dzialki
100
AcDbVertex
100
AcDb2dVertex
 10
7569139.58999999985
 20
5723868.48000000045
  0
VERTEX
  5
B8
100
AcDbEntity
  8
ewns_dzialki
100
AcDbVertex
100
AcDb2dVertex
 10
7569163.55999999959
 20
5723874.33999999985
  0
VERTEX
  5
B9
100
AcDbEntity
  8
ewns_dzialki
100
AcDbVertex
100
AcDb2dVertex
 10
7569191.30999999959
 20
5723881.34999999963
  0
VERTEX
  5
BA
100
AcDbEntity
  8
ewns_dzialki
100
AcDbVertex
100
AcDb2dVertex
 10
7569215.20000000019
 20
5723887.24000000022
  0
VERTEX
  5
BB
100
AcDbEntity
  8
ewns_dzialki
100
AcDbVertex
100
AcDb2dVertex
 10
7569258.98000000045
 20
5723898.04000000004
  0
VERTEX
  5
BC
100
AcDbEntity
  8
ewns_dzialki
100
AcDbVertex
100
AcDb2dVertex
 10
7569282.23000000045
 20
5723903.74000000022
  0
VERTEX
  5
BD
100
AcDbEntity
  8
ewns_dzialki
100
AcDbVertex
100
AcDb2dVertex
 10
7569347.62000000011
 20
5723919.9299999997
  0
VERTEX
  5
BE
100
AcDbEntity
  8
ewns_dzialki
100
AcDbVertex
100
AcDb2dVertex
 10
7569352.88999999966
 20
5723921.21999999974
  0
VERTEX
  5
BF
100
AcDbEntity
  8
ewns_dzialki
100
AcDbVertex
100
AcDb2dVertex
 10
7569399.15000000037
 20
5723932.58999999985
  0
VERTEX
  5
C0
100
AcDbEntity
  8
ewns_dzialki
100
AcDbVertex
100
AcDb2dVertex
 10
7569458.75999999978
 20
5723947.45999999996
  0
VERTEX
  5
C1
100
AcDbEntity
  8
ewns_dzialki
100
AcDbVertex
100
AcDb2dVertex
 10
7569474.41000000015
 20
5723951.20999999996
  0
VERTEX
  5
C2
100
AcDbEntity
  8
ewns_dzialki
100
AcDbVertex
100
AcDb2dVertex
 10
7569487.09999999963
 20
5723953.83000000007
  0
VERTEX
  5
C3
100
AcDbEntity
  8
ewns_dzialki
100
AcDbVertex
100
AcDb2dVertex
 10
7569531.61000000034
 20
5723965.29999999981
  0
VERTEX
  5
C4
100
AcDbEntity
  8
ewns_dzialki
100
AcDbVertex
100
AcDb2dVertex
 10
7569557.83999999985
 20
5723971.78000000026
  0
VERTEX
  5
C5
100
AcDbEntity
  8
ewns_dzialki
100
AcDbVertex
100
AcDb2dVertex
 10
7569576.87000000011
 20
5723976.46999999974
  0
VERTEX
  5
C6
100
AcDbEntity
  8
ewns_dzialki
100
AcDbVertex
100
AcDb2dVertex
 10
7569634.75
 20
5723990.75
  0
VERTEX
  5
C7
100
AcDbEntity
  8
ewns_dzialki
100
AcDbVertex
100
AcDb2dVertex
 10
7569639.86000000034
 20
5723991.99000000022
  0
VERTEX
  5
C8
100
AcDbEntity
  8
ewns_dzialki
100
AcDbVertex
100
AcDb2dVertex
 10
7569685.44000000041
 20
5724002.94000000041
  0
VERTEX
  5
C9
100
AcDbEntity
  8
ewns_dzialki
100
AcDbVertex
100
AcDb2dVertex
 10
7569799.84999999963
 20
5724030.70000000019
  0
VERTEX
  5
CA
100
AcDbEntity
  8
ewns_dzialki
100
AcDbVertex
100
AcDb2dVertex
 10
7569800.74000000022
 20
5724025.83999999985
  0
VERTEX
  5
CB
100
AcDbEntity
  8
ewns_dzialki
100
AcDbVertex
100
AcDb2dVertex
 10
7569799.9299999997
 20
5724025.62999999989
  0
VERTEX
  5
CC
100
AcDbEntity
  8
ewns_dzialki
100
AcDbVertex
100
AcDb2dVertex
 10
7569678.4299999997
 20
5723996.16999999993
  0
VERTEX
  5
CD
100
AcDbEntity
  8
ewns_dzialki
100
AcDbVertex
100
AcDb2dVertex
 10
7569636.03000000026
 20
5723985.83000000007
  0
VERTEX
  5
CE
100
AcDbEntity
  8
ewns_dzialki
100
AcDbVertex
100
AcDb2dVertex
 10
7569255.0700000003
 20
5723891.96999999974
  0
VERTEX
  5
CF
100
AcDbEntity
  8
ewns_dzialki
100
AcDbVertex
100
AcDb2dVertex
 10
7569140.58000000007
 20
5723863.63999999966
  0
VERTEX
  5
D0
100
AcDbEntity
  8
ewns_dzialki
100
AcDbVertex
100
AcDb2dVertex
 10
7568920.8200000003
 20
5723809.44000000041
  0
VERTEX
  5
D1
100
AcDbEntity
  8
ewns_dzialki
100
AcDbVertex
100
AcDb2dVertex
 10
7568622.49000000022
 20
5723735.03000000026
  0
VERTEX
  5
D2
100
AcDbEntity
  8
ewns_dzialki
100
AcDbVertex
100
AcDb2dVertex
 10
7568286.36000000034
 20
5723648.88999999966
  0
VERTEX
  5
D3
100
AcDbEntity
  8
ewns_dzialki
100
AcDbVertex
100
AcDb2dVertex
 10
7568190.95999999996
 20
5723646.28000000026
  0
SEQEND
  5
D4
100
AcDbEntity
  8
ewns_dzialki
  0
POLYLINE
  5
D5
100
AcDbEntity
  8
ewns_dzialki
  6
CONTINUOUS
370
18
100
AcDb2dPolyline
 66
1
 70
129
  0
VERTEX
  5
D6
100
AcDbEntity
  8
ewns_dzialki
100
AcDbVertex
100
AcDb2dVertex
 10
7568099.49000000022
 20
5723804.62999999989
  0
VERTEX
  5
D7
100
AcDbEntity
  8
ewns_dzialki
100
AcDbVertex
100
AcDb2dVertex
 10
7568103.86000000034
 20
5723811.03000000026
  0
VERTEX
  5
D8
100
AcDbEntity
  8
ewns_dzialki
100
AcDbVertex
100
AcDb2dVertex
 10
7568120.75
 20
5723831.00999999978
  0
VERTEX
  5
D9
100
AcDbEntity
  8
ewns_dzialki
100
AcDbVertex
100
AcDb2dVertex
 10
7568147.0700000003
 20
5723864.55999999959
  0
VERTEX
  5
DA
100
AcDbEntity
  8
ewns_dzialki
100
AcDbVertex
100
AcDb2dVertex
 10
7568166.70999999996
 20
5723887.29999999981
  0
VERTEX
  5
DB
100
AcDbEntity
  8
ewns_dzialki
100
AcDbVertex
100
AcDb2dVertex
 10
7568283.53000000026
 20
5724022.51999999955
  0
VERTEX
  5
DC
100
AcDbEntity
  8
ewns_dzialki
100
AcDbVertex
100
AcDb2dVertex
 10
7568291.95000000019
 20
5724032.25
  0
VERTEX
  5
DD
100
AcDbEntity
  8
ewns_dzialki
100
AcDbVertex
100
AcDb2dVertex
 10
7568302.45999999996
 20
5724044.65000000037
  0
VERTEX
  5
DE
100
AcDbEntity
  8
ewns_dzialki
100
AcDbVertex
100
AcDb2dVertex
 10
7568359.37000000011
 20
5724111.70000000019
  0
VERTEX
  5
DF
100
AcDbEntity
  8
ewns_dzialki
100
AcDbVertex
100
AcDb2dVertex
 10
7568373.29000000004
 20
5724128.08999999985
  0
VERTEX
  5
E0
100
AcDbEntity
  8
ewns_dzialki
100
AcDbVertex
100
AcDb2dVertex
 10
7568387.88999999966
 20
5724145.30999999959
  0
VERTEX
  5
E1
100
AcDbEntity
  8
ewns_dzialki
100
AcDbVertex
100
AcDb2dVertex
 10
7568401.62000000011
 20
5724161.48000000045
  0
VERTEX
  5
E2
100
AcDbEntity
  8
ewns_dzialki
100
AcDbVertex
100
AcDb2dVertex
 10
7568414.24000000022
 20
5724176.33999999985
  0
VERTEX
  5
E3
100
AcDbEntity
  8
ewns_dzialki
100
AcDbVertex
100
AcDb2dVertex
 10
7568432.91000000015
 20
5724198.33999999985
  0
VERTEX
  5
E4
100
AcDbEntity
  8
ewns_dzialki
100
AcDbVertex
100
AcDb2dVertex
 10
7568477.41999999993
 20
5724250.0700000003
  0
VERTEX
  5
E5
100
AcDbEntity
  8
ewns_dzialki
100
AcDbVertex
100
AcDb2dVertex
 10
7568492.86000000034
 20
5724268.0
  0
VERTEX
  5
E6
100
AcDbEntity
  8
ewns_dzialki
100
AcDbVertex
100
AcDb2dVertex
 10
7568510.0700000003
 20
5724288.00999999978
  0
VERTEX
  5
E7
100
AcDbEntity
  8
ewns_dzialki
100
AcDbVertex
100
AcDb2dVertex
 10
7568523.98000000045
 20
5724304.1799999997
  0
VERTEX
  5
E8
100
AcDbEntity
  8
ewns_dzialki
100
AcDbVertex
100
AcDb2dVertex
 10
7568536.20999999996
 20
5724318.37000000011
  0
VERTEX
  5
E9
100
AcDbEntity
  8
ewns_dzialki
100
AcDbVertex
100
AcDb2dVertex
 10
7568544.98000000045
 20
5724328.5700000003
  0
VERTEX
  5
EA
100
AcDbEntity
  8
ewns_dzialki
100
AcDbVertex
100
AcDb2dVertex
 10
7568570.41999999993
 20
5724358.50999999978
  0
VERTEX
  5
EB
100
AcDbEntity
  8
ewns_dzialki
100
AcDbVertex
100
AcDb2dVertex
 10
7568593.44000000041
 20
5724385.58000000007
  0
VERTEX
  5
EC
100
AcDbEntity
  8
ewns_dzialki
100
AcDbVertex
100
AcDb2dVertex
 10
7568596.38999999966
 20
5724389.04999999981
  0
VERTEX
  5
ED
100
AcDbEntity
  8
ewns_dzialki
100
AcDbVertex
100
AcDb2dVertex
 10
7568625.50999999978
 20
5724419.28000000026
  0
VERTEX
  5
EE
100
AcDbEntity
  8
ewns_dzialki
100
AcDbVertex
100
AcDb2dVertex
 10
7568640.21999999974
 20
5724432.80999999959
  0
VERTEX
  5
EF
100
AcDbEntity
  8
ewns_dzialki
100
AcDbVertex
100
AcDb2dVertex
 10
7568713.46999999974
 20
5724500.21999999974
  0
VERTEX
  5
F0
100
AcDbEntity
  8
ewns_dzialki
100
AcDbVertex
100
AcDb2dVertex
 10
7568735.88999999966
 20
5724520.83000000007
  0
VERTEX
  5
F1
100
AcDbEntity
  8
ewns_dzialki
100
AcDbVertex
100
AcDb2dVertex
 10
7568754.25999999978
 20
5724537.54999999981
  0
VERTEX
  5
F2
100
AcDbEntity
  8
ewns_dzialki
100
AcDbVertex
100
AcDb2dVertex
 10
7568776.45999999996
 20
5724557.98000000045
  0
VERTEX
  5
F3
100
AcDbEntity
  8
ewns_dzialki
100
AcDbVertex
100
AcDb2dVertex
 10
7568799.44000000041
 20
5724579.12999999989
  0
VERTEX
  5
F4
100
AcDbEntity
  8
ewns_dzialki
100
AcDbVertex
100
AcDb2dVertex
 10
7568835.58000000007
 20
5724612.37000000011
  0
VERTEX
  5
F5
100
AcDbEntity
  8
ewns_dzialki
100
AcDbVertex
100
AcDb2dVertex
 10
7568842.45999999996
 20
5724618.91000000015
  0
VERTEX
  5
F6
100
AcDbEntity
  8
ewns_dzialki
100
AcDbVertex
100
AcDb2dVertex
 10
7568856.5700000003
 20
5724628.65000000037
  0
VERTEX
  5
F7
100
AcDbEntity
  8
ewns_dzialki
100
AcDbVertex
100
AcDb2dVertex
 10
7568873.62999999989
 20
5724640.12000000011
  0
VERTEX
  5
F8
100
AcDbEntity
  8
ewns_dzialki
100
AcDbVertex
100
AcDb2dVertex
 10
7568874.61000000034
 20
5724640.50999999978
  0
VERTEX
  5
F9
100
AcDbEntity
  8
ewns_dzialki
100
AcDbVertex
100
AcDb2dVertex
 10
7568893.90000000037
 20
5724648.36000000034
  0
VERTEX
  5
FA
100
AcDbEntity
  8
ewns_dzialki
100
AcDbVertex
100
AcDb2dVertex
 10
7568916.37000000011
 20
5724657.46999999974
  0
VERTEX
  5
FB
100
AcDbEntity
  8
ewns_dzialki
100
AcDbVertex
100
AcDb2dVertex
 10
7568941.54000000004
 20
5724667.69000000041
  0
VERTEX
  5
FC
100
AcDbEntity
  8
ewns_dzialki
100
AcDbVertex
100
AcDb2dVertex
 10
7569001.79000000004
 20
5724692.1799999997
  0
VERTEX
  5
FD
100
AcDbEntity
  8
ewns_dzialki
100
AcDbVertex
100
AcDb2dVertex
 10
7569061.54999999981
 20
5724717.23000000045
  0
VERTEX
  5
FE
100
AcDbEntity
  8
ewns_dzialki
100
AcDbVertex
100
AcDb2dVertex
 10
7569062.99000000022
 20
5724717.25999999978
  0
VERTEX
  5
FF
100
AcDbEntity
  8
ewns_dzialki
100
AcDbVertex
100
AcDb2dVertex
 10
7569066.54999999981
 20
5724717.34999999963
  0
VERTEX
  5
100
100
AcDbEntity
  8
ewns_dzialki
100
AcDbVertex
100
AcDb2dVertex
 10
7569070.50999999978
 20
5724717.37999999989
  0
VERTEX
  5
101
100
AcDbEntity
  8
ewns_dzialki
100
AcDbVertex
100
AcDb2dVertex
 10
7569139.4299999997
 20
5724725.66000000015
  0
VERTEX
  5
102
100
AcDbEntity
  8
ewns_dzialki
100
AcDbVertex
100
AcDb2dVertex
 10
7569249.41999999992
 20
5724736.87000000011
  0
VERTEX
  5
103
100
AcDbEntity
  8
ewns_dzialki
100
AcDbVertex
100
AcDb2dVertex
 10
7569305.66999999993
 20
5724742.61000000034
  0
VERTEX
  5
104
100
AcDbEntity
  8
ewns_dzialki
100
AcDbVertex
100
AcDb2dVertex
 10
7569343.75
 20
5724746.5
  0
VERTEX
  5
105
100
AcDbEntity
  8
ewns_dzialki
100
AcDbVertex
100
AcDb2dVertex
 10
7569426.71999999974
 20
5724754.95000000019
  0
VERTEX
  5
106
100
AcDbEntity
  8
ewns_dzialki
100
AcDbVertex
100
AcDb2dVertex
 10
7569468.91999999993
 20
5724759.25999999978
  0
VERTEX
  5
107
100
AcDbEntity
  8
ewns_dzialki
100
AcDbVertex
100
AcDb2dVertex
 10
7569516.58000000008
 20
5724764.12999999989
  0
VERTEX
  5
108
100
AcDbEntity
  8
ewns_dzialki
100
AcDbVertex
100
AcDb2dVertex
 10
7569548.16000000015
 20
5724775.70000000019
  0
VERTEX
  5
109
100
AcDbEntity
  8
ewns_dzialki
100
AcDbVertex
100
AcDb2dVertex
 10
7569617.23000000045
 20
5724808.29999999981
  0
VERTEX
  5
10A
100
AcDbEntity
  8
ewns_dzialki
100
AcDbVertex
100
AcDb2dVertex
 10
7569625.71999999974
 20
5724811.54999999981
  0
VERTEX
  5
10B
100
AcDbEntity
  8
ewns_dzialki
100
AcDbVertex
100
AcDb2dVertex
 10
7569686.4299999997
 20
5724834.83999999985
  0
VERTEX
  5
10C
100
AcDbEntity
  8
ewns_dzialki
100
AcDbVertex
100
AcDb2dVertex
 10
7569719.95999999996
 20
5724846.79999999981
  0
VERTEX
  5
10D
100
AcDbEntity
  8
ewns_dzialki
100
AcDbVertex
100
AcDb2dVertex
 10
7569755.13999999966
 20
5724859.25999999978
  0
VERTEX
  5
10E
100
AcDbEntity
  8
ewns_dzialki
100
AcDbVertex
100
AcDb2dVertex
 10
7569837.09999999963
 20
5724888.26999999955
  0
VERTEX
  5
10F
100
AcDbEntity
  8
ewns_dzialki
100
AcDbVertex
100
AcDb2dVertex
 10
7569841.13999999966
 20
5724889.21999999974
  0
VERTEX
  5
110
100
AcDbEntity
  8
ewns_dzialki
100
AcDbVertex
100
AcDb2dVertex
 10
7569844.30999999959
 20
5724889.99000000022
  0
VERTEX
  5
111
100
AcDbEntity
  8
ewns_dzialki
100
AcDbVertex
100
AcDb2dVertex
 10
7569847.3200000003
 20
5724890.70000000019
  0
VERTEX
  5
112
100
AcDbEntity
  8
ewns_dzialki
100
AcDbVertex
100
AcDb2dVertex
 10
7569853.49000000022
 20
5724892.1799999997
  0
VERTEX
  5
113
100
AcDbEntity
  8
ewns_dzialki
100
AcDbVertex
100
AcDb2dVertex
 10
7569857.05999999959
 20
5724893.01999999955
  0
VERTEX
  5
114
100
AcDbEntity
  8
ewns_dzialki
100
AcDbVertex
100
AcDb2dVertex
 10
7569859.8200000003
 20
5724893.6799999997
  0
VERTEX
  5
115
100
AcDbEntity
  8
ewns_dzialki
100
AcDbVertex
100
AcDb2dVertex
 10
7569866.04000000004
 20
5724895.16000000015
  0
VERTEX
  5
116
100
AcDbEntity
  8
ewns_dzialki
100
AcDbVertex
100
AcDb2dVertex
 10
7569869.30999999959
 20
5724895.95000000019
  0
VERTEX
  5
117
100
AcDbEntity
  8
ewns_dzialki
100
AcDbVertex
100
AcDb2dVertex
 10
7569872.21999999974
 20
5724896.65000000037
  0
VERTEX
  5
118
100
AcDbEntity
  8
ewns_dzialki
100
AcDbVertex
100
AcDb2dVertex
 10
7569875.6799999997
 20
5724897.46999999974
  0
VERTEX
  5
119
100
AcDbEntity
  8
ewns_dzialki
100
AcDbVertex
100
AcDb2dVertex
 10
7569880.12000000011
 20
5724898.53000000026
  0
VERTEX
  5
11A
100
AcDbEntity
  8
ewns_dzialki
100
AcDbVertex
100
AcDb2dVertex
 10
7569883.83000000007
 20
5724899.41999999993
  0
VERTEX
  5
11B
100
AcDbEntity
  8
ewns_dzialki
100
AcDbVertex
100
AcDb2dVertex
 10
7569889.3200000003
 20
5724900.71999999974
  0
VERTEX
  5
11C
100
AcDbEntity
  8
ewns_dzialki
100
AcDbVertex
100
AcDb2dVertex
 10
7569894.30999999959
 20
5724901.91000000015
  0
VERTEX
  5
11D
100
AcDbEntity
  8
ewns_dzialki
100
AcDbVertex
100
AcDb2dVertex
 10
7569897.50999999978
 20
5724902.6799999997
  0
VERTEX
  5
11E
100
AcDbEntity
  8
ewns_dzialki
100
AcDbVertex
100
AcDb2dVertex
 10
7569910.36000000034
 20
5724905.75
  0
VERTEX
  5
11F
100
AcDbEntity
  8
ewns_dzialki
100
AcDbVertex
100
AcDb2dVertex
 10
7569913.5700000003
 20
5724906.45999999996
  0
VERTEX
  5
120
100
AcDbEntity
  8
ewns_dzialki
100
AcDbVertex
100
AcDb2dVertex
 10
7569916.78000000026
 20
5724907.26999999955
  0
VERTEX
  5
121
100
AcDbEntity
  8
ewns_dzialki
100
AcDbVertex
100
AcDb2dVertex
 10
7569923.34999999963
 20
5724908.84999999963
  0
VERTEX
  5
122
100
AcDbEntity
  8
ewns_dzialki
100
AcDbVertex
100
AcDb2dVertex
 10
7569926.55999999959
 20
5724909.61000000034
  0
VERTEX
  5
123
100
AcDbEntity
  8
ewns_dzialki
100
AcDbVertex
100
AcDb2dVertex
 10
7569929.86000000034
 20
5724910.40000000037
  0
VERTEX
  5
124
100
AcDbEntity
  8
ewns_dzialki
100
AcDbVertex
100
AcDb2dVertex
 10
7569934.8200000003
 20
5724911.58000000007
  0
VERTEX
  5
125
100
AcDbEntity
  8
ewns_dzialki
100
AcDbVertex
100
AcDb2dVertex
 10
7569937.12999999989
 20
5724912.12999999989
  0
VERTEX
  5
126
100
AcDbEntity
  8
ewns_dzialki
100
AcDbVertex
100
AcDb2dVertex
 10
7569942.61000000034
 20
5724913.44000000041
  0
VERTEX
  5
127
100
AcDbEntity
  8
ewns_dzialki
100
AcDbVertex
100
AcDb2dVertex
 10
7569949.13999999966
 20
5724915.0
  0
VERTEX
  5
128
100
AcDbEntity
  8
ewns_dzialki
100
AcDbVertex
100
AcDb2dVertex
 10
7569952.54000000004
 20
5724915.79999999981
  0
VERTEX
  5
129
100
AcDbEntity
  8
ewns_dzialki
100
AcDbVertex
100
AcDb2dVertex
 10
7569955.84999999963
 20
5724916.59999999963
  0
VERTEX
  5
12A
100
AcDbEntity
  8
ewns_dzialki
100
AcDbVertex
100
AcDb2dVertex
 10
7569959.94000000041
 20
5724917.58000000007
  0
VERTEX
  5
12B
100
AcDbEntity
  8
ewns_dzialki
100
AcDbVertex
100
AcDb2dVertex
 10
7569961.03000000026
 20
5724917.83000000007
  0
VERTEX
  5
12C
100
AcDbEntity
  8
ewns_dzialki
100
AcDbVertex
100
AcDb2dVertex
 10
7569962.6799999997
 20
5724918.23000000045
  0
VERTEX
  5
12D
100
AcDbEntity
  8
ewns_dzialki
100
AcDbVertex
100
AcDb2dVertex
 10
7569965.58000000007
 20
5724918.91999999993
  0
VERTEX
  5
12E
100
AcDbEntity
  8
ewns_dzialki
100
AcDbVertex
100
AcDb2dVertex
 10
7569968.91000000015
 20
5724919.71999999974
  0
VERTEX
  5
12F
100
AcDbEntity
  8
ewns_dzialki
100
AcDbVertex
100
AcDb2dVertex
 10
7569975.90000000037
 20
5724921.37999999989
  0
VERTEX
  5
130
100
AcDbEntity
  8
ewns_dzialki
100
AcDbVertex
100
AcDb2dVertex
 10
7569978.8200000003
 20
5724922.0700000003
  0
VERTEX
  5
131
100
AcDbEntity
  8
ewns_dzialki
100
AcDbVertex
100
AcDb2dVertex
 10
7569982.40000000037
 20
5724922.94000000041
  0
VERTEX
  5
132
100
AcDbEntity
  8
ewns_dzialki
100
AcDbVertex
100
AcDb2dVertex
 10
7569985.99000000022
 20
5724923.79000000004
  0
VERTEX
  5
133
100
AcDbEntity
  8
ewns_dzialki
100
AcDbVertex
100
AcDb2dVertex
 10
7569989.20000000019
 20
5724924.54999999981
  0
VERTEX
  5
134
100
AcDbEntity
  8
ewns_dzialki
100
AcDbVertex
100
AcDb2dVertex
 10
7569995.50999999978
 20
5724926.05999999959
  0
VERTEX
  5
135
100
AcDbEntity
  8
ewns_dzialki
100
AcDbVertex
100
AcDb2dVertex
 10
7570002.5
 20
5724927.73000000045
  0
VERTEX
  5
136
100
AcDbEntity
  8
ewns_dzialki
100
AcDbVertex
100
AcDb2dVertex
 10
7570006.96999999974
 20
5724928.79999999981
  0
VERTEX
  5
137
100
AcDbEntity
  8
ewns_dzialki
100
AcDbVertex
100
AcDb2dVertex
 10
7570009.38999999966
 20
5724929.37000000011
  0
VERTEX
  5
138
100
AcDbEntity
  8
ewns_dzialki
100
AcDbVertex
100
AcDb2dVertex
 10
7570015.94000000041
 20
5724931.45000000019
  0
VERTEX
  5
139
100
AcDbEntity
  8
ewns_dzialki
100
AcDbVertex
100
AcDb2dVertex
 10
7570022.98000000045
 20
5724933.53000000026
  0
VERTEX
  5
13A
100
AcDbEntity
  8
ewns_dzialki
100
AcDbVertex
100
AcDb2dVertex
 10
7570029.95999999996
 20
5724935.58999999985
  0
VERTEX
  5
13B
100
AcDbEntity
  8
ewns_dzialki
100
AcDbVertex
100
AcDb2dVertex
 10
7570033.5
 20
5724936.63999999966
  0
VERTEX
  5
13C
100
AcDbEntity
  8
ewns_dzialki
100
AcDbVertex
100
AcDb2dVertex
 10
7570036.99000000022
 20
5724937.66999999993
  0
VERTEX
  5
13D
100
AcDbEntity
  8
ewns_dzialki
100
AcDbVertex
100
AcDb2dVertex
 10
7570040.58000000007
 20
5724938.74000000022
  0
VERTEX
  5
13E
100
AcDbEntity
  8
ewns_dzialki
100
AcDbVertex
100
AcDb2dVertex
 10
7570044.12000000011
 20
5724939.78000000026
  0
VERTEX
  5
13F
100
AcDbEntity
  8
ewns_dzialki
100
AcDbVertex
100
AcDb2dVertex
 10
7570047.61000000034
 20
5724940.80999999959
  0
VERTEX
  5
140
100
AcDbEntity
  8
ewns_dzialki
100
AcDbVertex
100
AcDb2dVertex
 10
7570051.24000000022
 20
5724941.88999999966
  0
VERTEX
  5
141
100
AcDbEntity
  8
ewns_dzialki
100
AcDbVertex
100
AcDb2dVertex
 10
7570054.79000000004
 20
5724942.9299999997
  0
VERTEX
  5
142
100
AcDbEntity
  8
ewns_dzialki
100
AcDbVertex
100
AcDb2dVertex
 10
7570058.33000000007
 20
5724943.99000000022
  0
VERTEX
  5
143
100
AcDbEntity
  8
ewns_dzialki
100
AcDbVertex
100
AcDb2dVertex
 10
7570062.05999999959
 20
5724945.08999999985
  0
VERTEX
  5
144
100
AcDbEntity
  8
ewns_dzialki
100
AcDbVertex
100
AcDb2dVertex
 10
7570065.75
 20
5724946.1799999997
  0
VERTEX
  5
145
100
AcDbEntity
  8
ewns_dzialki
100
AcDbVertex
100
AcDb2dVertex
 10
7570072.87999999989
 20
5724948.29000000004
  0
VERTEX
  5
146
100
AcDbEntity
  8
ewns_dzialki
100
AcDbVertex
100
AcDb2dVertex
 10
7570075.90000000037
 20
5724949.1799999997
  0
VERTEX
  5
147
100
AcDbEntity
  8
ewns_dzialki
100
AcDbVertex
100
AcDb2dVertex
 10
7570080.58999999985
 20
5724950.55999999959
  0
VERTEX
  5
148
100
AcDbEntity
  8
ewns_dzialki
100
AcDbVertex
100
AcDb2dVertex
 10
7570087.66000000015
 20
5724952.66000000015
  0
VERTEX
  5
149
100
AcDbEntity
  8
ewns_dzialki
100
AcDbVertex
100
AcDb2dVertex
 10
7570098.37999999989
 20
5724955.83000000007
  0
VERTEX
  5
14A
100
AcDbEntity
  8
ewns_dzialki
100
AcDbVertex
100
AcDb2dVertex
 10
7570102.69000000041
 20
5724957.09999999963
  0
VERTEX
  5
14B
100
AcDbEntity
  8
ewns_dzialki
100
AcDbVertex
100
AcDb2dVertex
 10
7570108.01999999955
 20
5724958.6799999997
  0
VERTEX
  5
14C
100
AcDbEntity
  8
ewns_dzialki
100
AcDbVertex
100
AcDb2dVertex
 10
7570109.91999999993
 20
5724959.25
  0
VERTEX
  5
14D
100
AcDbEntity
  8
ewns_dzialki
100
AcDbVertex
100
AcDb2dVertex
 10
7570113.45999999996
 20
5724960.28000000026
  0
VERTEX
  5
14E
100
AcDbEntity
  8
ewns_dzialki
100
AcDbVertex
100
AcDb2dVertex
 10
7570116.86000000034
 20
5724961.29000000004
  0
VERTEX
  5
14F
100
AcDbEntity
  8
ewns_dzialki
100
AcDbVertex
100
AcDb2dVertex
 10
7570121.25999999978
 20
5724962.58999999985
  0
VERTEX
  5
150
100
AcDbEntity
  8
ewns_dzialki
100
AcDbVertex
100
AcDb2dVertex
 10
7570124.23000000045
 20
5724963.46999999974
  0
VERTEX
  5
151
100
AcDbEntity
  8
ewns_dzialki
100
AcDbVertex
100
AcDb2dVertex
 10
7570132.54999999981
 20
5724965.91999999993
  0
VERTEX
  5
152
100
AcDbEntity
  8
ewns_dzialki
100
AcDbVertex
100
AcDb2dVertex
 10
7570140.25
 20
5724968.20999999996
  0
VERTEX
  5
153
100
AcDbEntity
  8
ewns_dzialki
100
AcDbVertex
100
AcDb2dVertex
 10
7570148.21999999974
 20
5724970.54000000004
  0
VERTEX
  5
154
100
AcDbEntity
  8
ewns_dzialki
100
AcDbVertex
100
AcDb2dVertex
 10
7570148.20000000019
 20
5724961.69000000041
  0
VERTEX
  5
155
100
AcDbEntity
  8
ewns_dzialki
100
AcDbVertex
100
AcDb2dVertex
 10
7570148.62999999989
 20
5724959.9299999997
  0
VERTEX
  5
156
100
AcDbEntity
  8
ewns_dzialki
100
AcDbVertex
100
AcDb2dVertex
 10
7570068.5
 20
5724935.29000000004
  0
VERTEX
  5
157
100
AcDbEntity
  8
ewns_dzialki
100
AcDbVertex
100
AcDb2dVertex
 10
7570010.0700000003
 20
5724917.30999999959
  0
VERTEX
  5
158
100
AcDbEntity
  8
ewns_dzialki
100
AcDbVertex
100
AcDb2dVertex
 10
7570009.86000000034
 20
5724917.25999999978
  0
VERTEX
  5
159
100
AcDbEntity
  8
ewns_dzialki
100
AcDbVertex
100
AcDb2dVertex
 10
7569986.99000000022
 20
5724911.75999999978
  0
VERTEX
  5
15A
100
AcDbEntity
  8
ewns_dzialki
100
AcDbVertex
100
AcDb2dVertex
 10
7569966.69000000041
 20
5724906.95000000019
  0
VERTEX
  5
15B
100
AcDbEntity
  8
ewns_dzialki
100
AcDbVertex
100
AcDb2dVertex
 10
7569962.41999999993
 20
5724905.70000000019
  0
VERTEX
  5
15C
100
AcDbEntity
  8
ewns_dzialki
100
AcDbVertex
100
AcDb2dVertex
 10
7569879.21999999974
 20
5724885.78000000026
  0
VERTEX
  5
15D
100
AcDbEntity
  8
ewns_dzialki
100
AcDbVertex
100
AcDb2dVertex
 10
7569840.54999999981
 20
5724876.54000000004
  0
VERTEX
  5
15E
100
AcDbEntity
  8
ewns_dzialki
100
AcDbVertex
100
AcDb2dVertex
 10
7569797.01999999955
 20
5724861.20999999996
  0
VERTEX
  5
15F
100
AcDbEntity
  8
ewns_dzialki
100
AcDbVertex
100
AcDb2dVertex
 10
7569758.24000000022
 20
5724847.54999999981
  0
VERTEX
  5
160
100
AcDbEntity
  8
ewns_dzialki
100
AcDbVertex
100
AcDb2dVertex
 10
7569723.12000000011
 20
5724835.15000000037
  0
VERTEX
  5
161
100
AcDbEntity
  8
ewns_dzialki
100
AcDbVertex
100
AcDb2dVertex
 10
7569674.4299999997
 20
5724815.66999999993
  0
VERTEX
  5
162
100
AcDbEntity
  8
ewns_dzialki
100
AcDbVertex
100
AcDb2dVertex
 10
7569625.87000000011
 20
5724796.40000000037
  0
VERTEX
  5
163
100
AcDbEntity
  8
ewns_dzialki
100
AcDbVertex
100
AcDb2dVertex
 10
7569625.40000000037
 20
5724796.24000000022
  0
VERTEX
  5
164
100
AcDbEntity
  8
ewns_dzialki
100
AcDbVertex
100
AcDb2dVertex
 10
7569620.65000000037
 20
5724794.63999999966
  0
VERTEX
  5
165
100
AcDbEntity
  8
ewns_dzialki
100
AcDbVertex
100
AcDb2dVertex
 10
7569620.50999999978
 20
5724794.58999999985
  0
VERTEX
  5
166
100
AcDbEntity
  8
ewns_dzialki
100
AcDbVertex
100
AcDb2dVertex
 10
7569572.58999999985
 20
5724773.26999999955
  0
VERTEX
  5
167
100
AcDbEntity
  8
ewns_dzialki
100
AcDbVertex
100
AcDb2dVertex
 10
7569551.38999999966
 20
5724763.83999999985
  0
VERTEX
  5
168
100
AcDbEntity
  8
ewns_dzialki
100
AcDbVertex
100
AcDb2dVertex
 10
7569521.41000000015
 20
5724752.08000000007
  0
VERTEX
  5
169
100
AcDbEntity
  8
ewns_dzialki
100
AcDbVertex
100
AcDb2dVertex
 10
7569471.91000000015
 20
5724746.91999999993
  0
VERTEX
  5
16A
100
AcDbEntity
  8
ewns_dzialki
100
AcDbVertex
100
AcDb2dVertex
 10
7569429.63999999966
 20
5724742.54000000004
  0
VERTEX
  5
16B
100
AcDbEntity
  8
ewns_dzialki
100
AcDbVertex
100
AcDb2dVertex
 10
7569346.53000000026
 20
5724733.9299999997
  0
VERTEX
  5
16C
100
AcDbEntity
  8
ewns_dzialki
100
AcDbVertex
100
AcDb2dVertex
 10
7569308.58999999985
 20
5724729.99000000022
  0
VERTEX
  5
16D
100
AcDbEntity
  8
ewns_dzialki
100
AcDbVertex
100
AcDb2dVertex
 10
7569253.26999999955
 20
5724724.04999999981
  0
VERTEX
  5
16E
100
AcDbEntity
  8
ewns_dzialki
100
AcDbVertex
100
AcDb2dVertex
 10
7569178.36000000034
 20
5724716.09999999963
  0
VERTEX
  5
16F
100
AcDbEntity
  8
ewns_dzialki
100
AcDbVertex
100
AcDb2dVertex
 10
7569072.34999999963
 20
5724704.84999999963
  0
VERTEX
  5
170
100
AcDbEntity
  8
ewns_dzialki
100
AcDbVertex
100
AcDb2dVertex
 10
7569038.55999999959
 20
5724694.4299999997
  0
VERTEX
  5
171
100
AcDbEntity
  8
ewns_dzialki
100
AcDbVertex
100
AcDb2dVertex
 10
7569009.5700000003
 20
5724682.80999999959
  0
VERTEX
  5
172
100
AcDbEntity
  8
ewns_dzialki
100
AcDbVertex
100
AcDb2dVertex
 10
7568953.19000000041
 20
5724661.45999999996
  0
VERTEX
  5
173
100
AcDbEntity
  8
ewns_dzialki
100
AcDbVertex
100
AcDb2dVertex
 10
7568948.25
 20
5724659.58999999985
  0
VERTEX
  5
174
100
AcDbEntity
  8
ewns_dzialki
100
AcDbVertex
100
AcDb2dVertex
 10
7568922.6799999997
 20
5724649.90000000037
  0
VERTEX
  5
175
100
AcDbEntity
  8
ewns_dzialki
100
AcDbVertex
100
AcDb2dVertex
 10
7568909.70999999996
 20
5724644.4299999997
  0
VERTEX
  5
176
100
AcDbEntity
  8
ewns_dzialki
100
AcDbVertex
100
AcDb2dVertex
 10
7568906.44000000041
 20
5724643.19000000041
  0
VERTEX
  5
177
100
AcDbEntity
  8
ewns_dzialki
100
AcDbVertex
100
AcDb2dVertex
 10
7568882.80999999959
 20
5724632.66999999993
  0
VERTEX
  5
178
100
AcDbEntity
  8
ewns_dzialki
100
AcDbVertex
100
AcDb2dVertex
 10
7568852.28000000026
 20
5724607.16999999993
  0
VERTEX
  5
179
100
AcDbEntity
  8
ewns_dzialki
100
AcDbVertex
100
AcDb2dVertex
 10
7568815.95000000019
 20
5724576.80999999959
  0
VERTEX
  5
17A
100
AcDbEntity
  8
ewns_dzialki
100
AcDbVertex
100
AcDb2dVertex
 10
7568814.44000000041
 20
5724575.44000000041
  0
VERTEX
  5
17B
100
AcDbEntity
  8
ewns_dzialki
100
AcDbVertex
100
AcDb2dVertex
 10
7568784.4299999997
 20
5724548.23000000045
  0
VERTEX
  5
17C
100
AcDbEntity
  8
ewns_dzialki
100
AcDbVertex
100
AcDb2dVertex
 10
7568762.12999999989
 20
5724528.01999999955
  0
VERTEX
  5
17D
100
AcDbEntity
  8
ewns_dzialki
100
AcDbVertex
100
AcDb2dVertex
 10
7568754.09999999963
 20
5724520.74000000022
  0
VERTEX
  5
17E
100
AcDbEntity
  8
ewns_dzialki
100
AcDbVertex
100
AcDb2dVertex
 10
7568743.36000000034
 20
5724511.0
  0
VERTEX
  5
17F
100
AcDbEntity
  8
ewns_dzialki
100
AcDbVertex
100
AcDb2dVertex
 10
7568721.61000000034
 20
5724491.28000000026
  0
VERTEX
  5
180
100
AcDbEntity
  8
ewns_dzialki
100
AcDbVertex
100
AcDb2dVertex
 10
7568648.24000000022
 20
5724424.58000000007
  0
VERTEX
  5
181
100
AcDbEntity
  8
ewns_dzialki
100
AcDbVertex
100
AcDb2dVertex
 10
7568633.1799999997
 20
5724410.94000000041
  0
VERTEX
  5
182
100
AcDbEntity
  8
ewns_dzialki
100
AcDbVertex
100
AcDb2dVertex
 10
7568624.00999999978
 20
5724400.99000000022
  0
VERTEX
  5
183
100
AcDbEntity
  8
ewns_dzialki
100
AcDbVertex
100
AcDb2dVertex
 10
7568605.96999999974
 20
5724381.44000000041
  0
VERTEX
  5
184
100
AcDbEntity
  8
ewns_dzialki
100
AcDbVertex
100
AcDb2dVertex
 10
7568605.20000000019
 20
5724378.3200000003
  0
VERTEX
  5
185
100
AcDbEntity
  8
ewns_dzialki
100
AcDbVertex
100
AcDb2dVertex
 10
7568596.80999999959
 20
5724368.58000000007
  0
VERTEX
  5
186
100
AcDbEntity
  8
ewns_dzialki
100
AcDbVertex
100
AcDb2dVertex
 10
7568581.70999999996
 20
5724350.98000000045
  0
VERTEX
  5
187
100
AcDbEntity
  8
ewns_dzialki
100
AcDbVertex
100
AcDb2dVertex
 10
7568579.0700000003
 20
5724347.90000000037
  0
VERTEX
  5
188
100
AcDbEntity
  8
ewns_dzialki
100
AcDbVertex
100
AcDb2dVertex
 10
7568566.29999999981
 20
5724333.00999999978
  0
VERTEX
  5
189
100
AcDbEntity
  8
ewns_dzialki
100
AcDbVertex
100
AcDb2dVertex
 10
7568553.53000000026
 20
5724318.12000000011
  0
VERTEX
  5
18A
100
AcDbEntity
  8
ewns_dzialki
100
AcDbVertex
100
AcDb2dVertex
 10
7568527.37000000011
 20
5724287.75
  0
VERTEX
  5
18B
100
AcDbEntity
  8
ewns_dzialki
100
AcDbVertex
100
AcDb2dVertex
 10
7568524.12000000011
 20
5724283.95999999996
  0
VERTEX
  5
18C
100
AcDbEntity
  8
ewns_dzialki
100
AcDbVertex
100
AcDb2dVertex
 10
7568501.41000000015
 20
5724257.45000000019
  0
VERTEX
  5
18D
100
AcDbEntity
  8
ewns_dzialki
100
AcDbVertex
100
AcDb2dVertex
 10
7568487.87000000011
 20
5724241.70999999996
  0
VERTEX
  5
18E
100
AcDbEntity
  8
ewns_dzialki
100
AcDbVertex
100
AcDb2dVertex
 10
7568446.25
 20
5724193.25999999978
  0
VERTEX
  5
18F
100
AcDbEntity
  8
ewns_dzialki
100
AcDbVertex
100
AcDb2dVertex
 10
7568434.58999999985
 20
5724179.70000000019
  0
VERTEX
  5
190
100
AcDbEntity
  8
ewns_dzialki
100
AcDbVertex
100
AcDb2dVertex
 10
7568410.01999999955
 20
5724151.12000000011
  0
VERTEX
  5
191
100
AcDbEntity
  8
ewns_dzialki
100
AcDbVertex
100
AcDb2dVertex
 10
7568396.20000000019
 20
5724135.04999999981
  0
VERTEX
  5
192
100
AcDbEntity
  8
ewns_dzialki
100
AcDbVertex
100
AcDb2dVertex
 10
7568381.5
 20
5724117.95000000019
  0
VERTEX
  5
193
100
AcDbEntity
  8
ewns_dzialki
100
AcDbVertex
100
AcDb2dVertex
 10
7568367.5
 20
5724101.65000000037
  0
VERTEX
  5
194
100
AcDbEntity
  8
ewns_dzialki
100
AcDbVertex
100
AcDb2dVertex
 10
7568310.25
 20
5724035.04000000004
  0
VERTEX
  5
195
100
AcDbEntity
  8
ewns_dzialki
100
AcDbVertex
100
AcDb2dVertex
 10
7568299.66000000015
 20
5724022.74000000022
  0
VERTEX
  5
196
100
AcDbEntity
  8
ewns_dzialki
100
AcDbVertex
100
AcDb2dVertex
 10
7568291.26999999955
 20
5724012.96999999974
  0
VERTEX
  5
197
100
AcDbEntity
  8
ewns_dzialki
100
AcDbVertex
100
AcDb2dVertex
 10
7568209.36000000034
 20
5723917.87000000011
  0
VERTEX
  5
198
100
AcDbEntity
  8
ewns_dzialki
100
AcDbVertex
100
AcDb2dVertex
 10
7568177.69000000041
 20
5723881.09999999963
  0
VERTEX
  5
199
100
AcDbEntity
  8
ewns_dzialki
100
AcDbVertex
100
AcDb2dVertex
 10
7568147.73000000045
 20
5723842.98000000045
  0
VERTEX
  5
19A
100
AcDbEntity
  8
ewns_dzialki
100
AcDbVertex
100
AcDb2dVertex
 10
7568141.58000000007
 20
5723835.75999999978
  0
VERTEX
  5
19B
100
AcDbEntity
  8
ewns_dzialki
100
AcDbVertex
100
AcDb2dVertex
 10
7568115.01999999955
 20
5723803.99000000022
  0
VERTEX
  5
19C
100
AcDbEntity
  8
ewns_dzialki
100
AcDbVertex
100
AcDb2dVertex
 10
7568108.08000000008
 20
5723789.95000000019
  0
VERTEX
  5
19D
100
AcDbEntity
  8
ewns_dzialki
100
AcDbVertex
100
AcDb2dVertex
 10
7568101.08000000007
 20
5723763.13999999966
  0
VERTEX
  5
19E
100
AcDbEntity
  8
ewns_dzialki
100
AcDbVertex
100
AcDb2dVertex
 10
7568098.08000000007
 20
5723727.55999999959
  0
VERTEX
  5
19F
100
AcDbEntity
  8
ewns_dzialki
100
AcDbVertex
100
AcDb2dVertex
 10
7568094.54999999981
 20
5723681.87999999989
  0
VERTEX
  5
1A0
100
AcDbEntity
  8
ewns_dzialki
100
AcDbVertex
100
AcDb2dVertex
 10
7568091.58999999985
 20
5723643.70000000019
  0
VERTEX
  5
1A1
100
AcDbEntity
  8
ewns_dzialki
100
AcDbVertex
100
AcDb2dVertex
 10
7568090.55999999959
 20
5723631.61000000034
  0
VERTEX
  5
1A2
100
AcDbEntity
  8
ewns_dzialki
100
AcDbVertex
100
AcDb2dVertex
 10
7568090.37999999989
 20
5723626.41999999993
  0
VERTEX
  5
1A3
100
AcDbEntity
  8
ewns_dzialki
100
AcDbVertex
100
AcDb2dVertex
 10
7568088.13999999966
 20
5723599.99000000022
  0
VERTEX
  5
1A4
100
AcDbEntity
  8
ewns_dzialki
100
AcDbVertex
100
AcDb2dVertex
 10
7568087.33000000007
 20
5723575.04000000004
  0
VERTEX
  5
1A5
100
AcDbEntity
  8
ewns_dzialki
100
AcDbVertex
100
AcDb2dVertex
 10
7568086.58999999985
 20
5723552.58999999985
  0
VERTEX
  5
1A6
100
AcDbEntity
  8
ewns_dzialki
100
AcDbVertex
100
AcDb2dVertex
 10
7568087.87000000011
 20
5723503.66999999993
  0
VERTEX
  5
1A7
100
AcDbEntity
  8
ewns_dzialki
100
AcDbVertex
100
AcDb2dVertex
 10
7568088.38999999966
 20
5723483.49000000022
  0
VERTEX
  5
1A8
100
AcDbEntity
  8
ewns_dzialki
100
AcDbVertex
100
AcDb2dVertex
 10
7568088.66999999993
 20
5723466.8200000003
  0
VERTEX
  5
1A9
100
AcDbEntity
  8
ewns_dzialki
100
AcDbVertex
100
AcDb2dVertex
 10
7568089.0700000003
 20
5723443.70999999996
  0
VERTEX
  5
1AA
100
AcDbEntity
  8
ewns_dzialki
100
AcDbVertex
100
AcDb2dVertex
 10
7568088.28000000026
 20
5723438.75
  0
VERTEX
  5
1AB
100
AcDbEntity
  8
ewns_dzialki
100
AcDbVertex
100
AcDb2dVertex
 10
7568088.76999999955
 20
5723421.5700000003
  0
VERTEX
  5
1AC
100
AcDbEntity
  8
ewns_dzialki
100
AcDbVertex
100
AcDb2dVertex
 10
7568090.76999999955
 20
5723411.48000000045
  0
VERTEX
  5
1AD
100
AcDbEntity
  8
ewns_dzialki
100
AcDbVertex
100
AcDb2dVertex
 10
7568076.11000000034
 20
5723432.09999999963
  0
VERTEX
  5
1AE
100
AcDbEntity
  8
ewns_dzialki
100
AcDbVertex
100
AcDb2dVertex
 10
7568076.66999999993
 20
5723462.04000000004
  0
VERTEX
  5
1AF
100
AcDbEntity
  8
ewns_dzialki
100
AcDbVertex
100
AcDb2dVertex
 10
7568076.3200000003
 20
5723480.12000000011
  0
VERTEX
  5
1B0
100
AcDbEntity
  8
ewns_dzialki
100
AcDbVertex
100
AcDb2dVertex
 10
7568076.26999999955
 20
5723482.75
  0
VERTEX
  5
1B1
100
AcDbEntity
  8
ewns_dzialki
100
AcDbVertex
100
AcDb2dVertex
 10
7568076.09999999963
 20
5723491.63999999966
  0
VERTEX
  5
1B2
100
AcDbEntity
  8
ewns_dzialki
100
AcDbVertex
100
AcDb2dVertex
 10
7568075.90000000037
 20
5723501.65000000037
  0
VERTEX
  5
1B3
100
AcDbEntity
  8
ewns_dzialki
100
AcDbVertex
100
AcDb2dVertex
 10
7568075.70999999996
 20
5723511.59999999963
  0
VERTEX
  5
1B4
100
AcDbEntity
  8
ewns_dzialki
100
AcDbVertex
100
AcDb2dVertex
 10
7568075.53000000026
 20
5723520.75
  0
VERTEX
  5
1B5
100
AcDbEntity
  8
ewns_dzialki
100
AcDbVertex
100
AcDb2dVertex
 10
7568075.41999999993
 20
5723526.25
  0
VERTEX
  5
1B6
100
AcDbEntity
  8
ewns_dzialki
100
AcDbVertex
100
AcDb2dVertex
 10
7568075.30999999959
 20
5723531.74000000022
  0
VERTEX
  5
1B7
100
AcDbEntity
  8
ewns_dzialki
100
AcDbVertex
100
AcDb2dVertex
 10
7568075.29000000004
 20
5723533.58000000007
  0
VERTEX
  5
1B8
100
AcDbEntity
  8
ewns_dzialki
100
AcDbVertex
100
AcDb2dVertex
 10
7568075.26999999955
 20
5723537.09999999963
  0
VERTEX
  5
1B9
100
AcDbEntity
  8
ewns_dzialki
100
AcDbVertex
100
AcDb2dVertex
 10
7568075.33000000007
 20
5723556.91999999993
  0
VERTEX
  5
1BA
100
AcDbEntity
  8
ewns_dzialki
100
AcDbVertex
100
AcDb2dVertex
 10
7568075.33999999985
 20
5723560.84999999963
  0
VERTEX
  5
1BB
100
AcDbEntity
  8
ewns_dzialki
100
AcDbVertex
100
AcDb2dVertex
 10
7568075.75999999978
 20
5723580.36000000034
  0
VERTEX
  5
1BC
100
AcDbEntity
  8
ewns_dzialki
100
AcDbVertex
100
AcDb2dVertex
 10
7568075.86000000034
 20
5723584.03000000026
  0
VERTEX
  5
1BD
100
AcDbEntity
  8
ewns_dzialki
100
AcDbVertex
100
AcDb2dVertex
 10
7568076.46999999974
 20
5723608.24000000022
  0
VERTEX
  5
1BE
100
AcDbEntity
  8
ewns_dzialki
100
AcDbVertex
100
AcDb2dVertex
 10
7568076.83999999985
 20
5723612.86000000034
  0
VERTEX
  5
1BF
100
AcDbEntity
  8
ewns_dzialki
100
AcDbVertex
100
AcDb2dVertex
 10
7568077.08000000007
 20
5723616.36000000034
  0
VERTEX
  5
1C0
100
AcDbEntity
  8
ewns_dzialki
100
AcDbVertex
100
AcDb2dVertex
 10
7568077.29999999981
 20
5723619.86000000034
  0
VERTEX
  5
1C1
100
AcDbEntity
  8
ewns_dzialki
100
AcDbVertex
100
AcDb2dVertex
 10
7568077.53000000026
 20
5723623.37999999989
  0
VERTEX
  5
1C2
100
AcDbEntity
  8
ewns_dzialki
100
AcDbVertex
100
AcDb2dVertex
 10
7568078.44000000041
 20
5723637.29999999981
  0
VERTEX
  5
1C3
100
AcDbEntity
  8
ewns_dzialki
100
AcDbVertex
100
AcDb2dVertex
 10
7568081.25999999978
 20
5723680.11000000034
  0
VERTEX
  5
1C4
100
AcDbEntity
  8
ewns_dzialki
100
AcDbVertex
100
AcDb2dVertex
 10
7568082.45999999996
 20
5723698.25
  0
VERTEX
  5
1C5
100
AcDbEntity
  8
ewns_dzialki
100
AcDbVertex
100
AcDb2dVertex
 10
7568082.20999999996
 20
5723698.91999999993
  0
VERTEX
  5
1C6
100
AcDbEntity
  8
ewns_dzialki
100
AcDbVertex
100
AcDb2dVertex
 10
7568087.66999999992
 20
5723732.91000000015
  0
VERTEX
  5
1C7
100
AcDbEntity
  8
ewns_dzialki
100
AcDbVertex
100
AcDb2dVertex
 10
7568091.95999999996
 20
5723796.91000000015
  0
SEQEND
  5
1C8
100
AcDbEntity
  8
ewns_dzialki
  0
POLYLINE
  5
1C9
100
AcDbEntity
  8
ewns_dzialki
  6
CONTINUOUS
370
18
100
AcDb2dPolyline
 66
1
 70
129
  0
VERTEX
  5
1CA
100
AcDbEntity
  8
ewns_dzialki
100
AcDbVertex
100
AcDb2dVertex
 10
7567761.66000000015
 20
5723726.36000000034
  0
VERTEX
  5
1CB
100
AcDbEntity
  8
ewns_dzialki
100
AcDbVertex
100
AcDb2dVertex
 10
7567742.83000000007
 20
5723827.25
  0
VERTEX
  5
1CC
100
AcDbEntity
  8
ewns_dzialki
100
AcDbVertex
100
AcDb2dVertex
 10
7567736.73000000045
 20
5723859.95999999996
  0
VERTEX
  5
1CD
100
AcDbEntity
  8
ewns_dzialki
100
AcDbVertex
100
AcDb2dVertex
 10
7567543.25
 20
5723885.84999999963
  0
VERTEX
  5
1CE
100
AcDbEntity
  8
ewns_dzialki
100
AcDbVertex
100
AcDb2dVertex
 10
7567508.50999999978
 20
5723897.49000000022
  0
VERTEX
  5
1CF
100
AcDbEntity
  8
ewns_dzialki
100
AcDbVertex
100
AcDb2dVertex
 10
7567510.25999999978
 20
5723903.26999999955
  0
VERTEX
  5
1D0
100
AcDbEntity
  8
ewns_dzialki
100
AcDbVertex
100
AcDb2dVertex
 10
7567544.62999999989
 20
5723891.75999999978
  0
VERTEX
  5
1D1
100
AcDbEntity
  8
ewns_dzialki
100
AcDbVertex
100
AcDb2dVertex
 10
7567741.8200000003
 20
5723865.33999999985
  0
VERTEX
  5
1D2
100
AcDbEntity
  8
ewns_dzialki
100
AcDbVertex
100
AcDb2dVertex
 10
7567742.66000000015
 20
5723860.94000000041
  0
VERTEX
  5
1D3
100
AcDbEntity
  8
ewns_dzialki
100
AcDbVertex
100
AcDb2dVertex
 10
7567742.95999999996
 20
5723859.21999999974
  0
VERTEX
  5
1D4
100
AcDbEntity
  8
ewns_dzialki
100
AcDbVertex
100
AcDb2dVertex
 10
7567766.87999999989
 20
5723731.08999999985
  0
VERTEX
  5
1D5
100
AcDbEntity
  8
ewns_dzialki
100
AcDbVertex
100
AcDb2dVertex
 10
7567783.33999999985
 20
5723733.51999999955
  0
VERTEX
  5
1D6
100
AcDbEntity
  8
ewns_dzialki
100
AcDbVertex
100
AcDb2dVertex
 10
7567801.30999999959
 20
5723736.19000000041
  0
VERTEX
  5
1D7
100
AcDbEntity
  8
ewns_dzialki
100
AcDbVertex
100
AcDb2dVertex
 10
7567818.91999999993
 20
5723738.76999999955
  0
VERTEX
  5
1D8
100
AcDbEntity
  8
ewns_dzialki
100
AcDbVertex
100
AcDb2dVertex
 10
7567836.12000000011
 20
5723741.29999999981
  0
VERTEX
  5
1D9
100
AcDbEntity
  8
ewns_dzialki
100
AcDbVertex
100
AcDb2dVertex
 10
7567840.19000000041
 20
5723738.90000000037
  0
VERTEX
  5
1DA
100
AcDbEntity
  8
ewns_dzialki
100
AcDbVertex
100
AcDb2dVertex
 10
7567874.62999999989
 20
5723718.59999999963
  0
VERTEX
  5
1DB
100
AcDbEntity
  8
ewns_dzialki
100
AcDbVertex
100
AcDb2dVertex
 10
7567914.69000000041
 20
5723694.91999999993
  0
VERTEX
  5
1DC
100
AcDbEntity
  8
ewns_dzialki
100
AcDbVertex
100
AcDb2dVertex
 10
7567924.79000000004
 20
5723689.01999999955
  0
VERTEX
  5
1DD
100
AcDbEntity
  8
ewns_dzialki
100
AcDbVertex
100
AcDb2dVertex
 10
7567946.0700000003
 20
5723694.00999999978
  0
VERTEX
  5
1DE
100
AcDbEntity
  8
ewns_dzialki
100
AcDbVertex
100
AcDb2dVertex
 10
7567955.20000000019
 20
5723696.16000000015
  0
VERTEX
  5
1DF
100
AcDbEntity
  8
ewns_dzialki
100
AcDbVertex
100
AcDb2dVertex
 10
7567981.36000000034
 20
5723702.29000000004
  0
VERTEX
  5
1E0
100
AcDbEntity
  8
ewns_dzialki
100
AcDbVertex
100
AcDb2dVertex
 10
7567986.21999999974
 20
5723703.4299999997
  0
VERTEX
  5
1E1
100
AcDbEntity
  8
ewns_dzialki
100
AcDbVertex
100
AcDb2dVertex
 10
7567998.83000000008
 20
5723706.37999999989
  0
VERTEX
  5
1E2
100
AcDbEntity
  8
ewns_dzialki
100
AcDbVertex
100
AcDb2dVertex
 10
7568030.51999999955
 20
5723713.8200000003
  0
VERTEX
  5
1E3
100
AcDbEntity
  8
ewns_dzialki
100
AcDbVertex
100
AcDb2dVertex
 10
7568046.69000000041
 20
5723717.61000000034
  0
VERTEX
  5
1E4
100
AcDbEntity
  8
ewns_dzialki
100
AcDbVertex
100
AcDb2dVertex
 10
7568066.86000000034
 20
5723722.33999999985
  0
VERTEX
  5
1E5
100
AcDbEntity
  8
ewns_dzialki
100
AcDbVertex
100
AcDb2dVertex
 10
7568067.54999999981
 20
5723722.5
  0
VERTEX
  5
1E6
100
AcDbEntity
  8
ewns_dzialki
100
AcDbVertex
100
AcDb2dVertex
 10
7568087.66999999992
 20
5723732.91000000015
  0
VERTEX
  5
1E7
100
AcDbEntity
  8
ewns_dzialki
100
AcDbVertex
100
AcDb2dVertex
 10
7568082.20999999996
 20
5723698.91999999993
  0
VERTEX
  5
1E8
100
AcDbEntity
  8
ewns_dzialki
100
AcDbVertex
100
AcDb2dVertex
 10
7568069.30999999959
 20
5723713.6799999997
  0
VERTEX
  5
1E9
100
AcDbEntity
  8
ewns_dzialki
100
AcDbVertex
100
AcDb2dVertex
 10
7567923.33999999985
 20
5723679.4299999997
  0
VERTEX
  5
1EA
100
AcDbEntity
  8
ewns_dzialki
100
AcDbVertex
100
AcDb2dVertex
 10
7567920.4299999997
 20
5723681.15000000037
  0
VERTEX
  5
1EB
100
AcDbEntity
  8
ewns_dzialki
100
AcDbVertex
100
AcDb2dVertex
 10
7567896.53000000026
 20
5723695.23000000045
  0
VERTEX
  5
1EC
100
AcDbEntity
  8
ewns_dzialki
100
AcDbVertex
100
AcDb2dVertex
 10
7567880.20999999996
 20
5723704.83999999985
  0
VERTEX
  5
1ED
100
AcDbEntity
  8
ewns_dzialki
100
AcDbVertex
100
AcDb2dVertex
 10
7567834.29000000004
 20
5723731.91000000015
  0
VERTEX
  5
1EE
100
AcDbEntity
  8
ewns_dzialki
100
AcDbVertex
100
AcDb2dVertex
 10
7567810.76999999955
 20
5723728.4299999997
  0
VERTEX
  5
1EF
100
AcDbEntity
  8
ewns_dzialki
100
AcDbVertex
100
AcDb2dVertex
 10
7567810.58999999985
 20
5723728.40000000037
  0
VERTEX
  5
1F0
100
AcDbEntity
  8
ewns_dzialki
100
AcDbVertex
100
AcDb2dVertex
 10
7567804.65000000037
 20
5723727.53000000026
  0
VERTEX
  5
1F1
100
AcDbEntity
  8
ewns_dzialki
100
AcDbVertex
100
AcDb2dVertex
 10
7567762.58999999985
 20
5723721.37000000011
  0
SEQEND
  5
1F2
100
AcDbEntity
  8
ewns_dzialki
  0
MTEXT
  5
1F3
100
AcDbEntity
  8
ewns_dzialki
370
50
100
AcDbMText
 10
7567938.23000000045
 20
5723595.77500000037
 40
2.5000
 41
0.0
 71
5
 72
1
  1
\W0.6563x;224
  7
STANDARD
 11
1.00000000
 21
0.00000000
 44
0.90
 90
3
 63
0
 45
1.0
  0
MTEXT
  5
1F4
100
AcDbEntity
  8
ewns_dzialki
370
50
100
AcDbMText
 10
7567932.90499999933
 20
5723660.22499999963
 40
2.5000
 41
0.0
 71
5
 72
1
  1
\W0.6563x;227
  7
STANDARD
 11
1.00000000
 21
0.00000000
 44
0.90
 90
3
 63
0
 45
1.0
  0
MTEXT
  5
1F5
100
AcDbEntity
  8
ewns_dzialki
370
50
100
AcDbMText
 10
7568144.25999999978
 20
5723601.91500000004
 40
2.5000
 41
0.0
 71
5
 72
1
  1
\W0.6563x;257
  7
STANDARD
 11
1.00000000
 21
0.00000000
 44
0.90
 90
3
 63
0
 45
1.0
  0
MTEXT
  5
1F6
100
AcDbEntity
  8
ewns_dzialki
370
50
100
AcDbMText
 10
7568141.65000000037
 20
5723623.13499999978
 40
2.5000
 41
0.0
 71
5
 72
1
  1
\W0.6563x;258
  7
STANDARD
 11
1.00000000
 21
0.00000000
 44
0.90
 90
3
 63
0
 45
1.0
  0
MTEXT
  5
1F7
100
AcDbEntity
  8
ewns_dzialki
370
50
100
AcDbMText
 10
7568140.05999999959
 20
5723648.86500000022
 40
2.5000
 41
0.0
 71
5
 72
1
  1
\W0.6563x;261
  7
STANDARD
 11
1.00000000
 21
0.00000000
 44
0.90
 90
3
 63
0
 45
1.0
  0
MTEXT
  5
1F8
100
AcDbEntity
  8
ewns_dzialki
370
50
100
AcDbMText
 10
7568138.2349999994
 20
5723666.18500000052
 40
2.5000
 41
0.0
 71
5
 72
1
  1
\W0.6563x;262
  7
STANDARD
 11
1.00000000
 21
0.00000000
 44
0.90
 90
3
 63
0
 45
1.0
  0
MTEXT
  5
1F9
100
AcDbEntity
  8
ewns_dzialki
370
50
100
AcDbMText
 10
7568189.84999999963
 20
5723716.17499999981
 40
2.5000
 41
0.0
 71
5
 72
1
  1
\W0.6563x;263
  7
STANDARD
 11
1.00000000
 21
0.00000000
 44
0.90
 90
3
 63
0
 45
1.0
  0
MTEXT
  5
1FA
100
AcDbEntity
  8
ewns_dzialki
370
50
100
AcDbMText
 10
7567936.02500000037
 20
5723630.0700000003
 40
2.5000
 41
0.0
 71
5
 72
1
  1
\W0.6563x;226
  7
STANDARD
 11
1.00000000
 21
0.00000000
 44
0.90
 90
3
 63
0
 45
1.0
  0
MTEXT
  5
1FB
100
AcDbEntity
  8
ewns_dzialki
370
50
100
AcDbMText
 10
7568251.0700000003
 20
5723584.49000000022
 40
2.5000
 41
0.0
 71
5
 72
1
  1
\W0.6563x;259
  7
STANDARD
 11
1.00000000
 21
0.00000000
 44
0.90
 90
3
 63
0
 45
1.0
  0
MTEXT
  5
1FC
100
AcDbEntity
  8
ewns_dzialki
370
50
100
AcDbMText
 10
7568987.92304488085
 20
5723828.56000000052
 40
2.5000
 41
0.0
 71
5
 72
1
  1
\W0.6563x;260
  7
STANDARD
 11
1.00000000
 21
0.00000000
 44
0.90
 90
3
 63
0
 45
1.0
  0
MTEXT
  5
1FD
100
AcDbEntity
  8
ewns_dzialki
370
50
100
AcDbMText
 10
7568435.50238047074
 20
5724191.00999999978
 40
2.5000
 41
0.0
 71
5
 72
1
  1
\W0.6563x;231
  7
STANDARD
 11
1.00000000
 21
0.00000000
 44
0.90
 90
3
 63
0
 45
1.0
  0
MTEXT
  5
1FE
100
AcDbEntity
  8
ewns_dzialki
370
50
100
AcDbMText
 10
7567752.58033746947
 20
5723791.34999999963
 40
2.5000
 41
0.0
 71
5
 72
1
  1
\W0.6563x;104
  7
STANDARD
 11
1.00000000
 21
0.00000000
 44
0.90
 90
3
 63
0
 45
1.0
  0
ENDSEC
  0
SECTION
  2
OBJECTS
  0
DICTIONARY
  5
1FF
330
0
100
AcDbDictionary
280
0
281
1
  3
ACAD_GROUP
350
200
  3
ACAD_LAYOUT
350
201
  3
ACAD_MLINESTYLE
350
202
  3
ACAD_PLOTSETTINGS
350
203
  3
ACAD_PLOTSTYLENAME
350
204
  0
DICTIONARY
  5
200
102
{ACAD_REACTORS
330
1FF
102
}
330
1FF
100
AcDbDictionary
280
0
281
1
  0
DICTIONARY
  5
201
102
{ACAD_REACTORS
330
1FF
102
}
330
1FF
100
AcDbDictionary
280
0
281
1
  3
Layout
350
19
  3
Model
350
17
  0
DICTIONARY
  5
202
102
{ACAD_REACTORS
330
1FF
102
}
330
1FF
100
AcDbDictionary
280
0
281
1
  3
Standard
350
205
  0
DICTIONARY
  5
203
102
{ACAD_REACTORS
330
1FF
102
}
330
1FF
100
AcDbDictionary
280
0
281
1
  0
ACDBDICTIONARYWDFLT
  5
204
102
{ACAD_REACTORS
330
1FF
102
}
330
1FF
100
AcDbDictionary
281
1
  3
Normal
350
9
100
AcDbDictionaryWithDefault
340
9
  0
LAYOUT
  5
19
100
AcDbPlotSettings
  1

  2

  4

  6

 40
0.0
 41
0.0
 42
0.0
 43
0.0
 44
0.0
 45
0.0
 46
0.0
 47
0.0
 48
0.0
 49
0.0
140
0.0
141
0.0
142
1.0
143
1.0
 70
688
 72
1
 73
0
 74
5
  7

 75
0
147
1.0
148
0.0
149
0.0
100
AcDbLayout
  1
Layout
 70
1
 71
1
 10
0.0
 20
0.0
 11
420.0
 21
297.0
 12
0.0
 22
0.0
 32
0.0
 14
100000000000000000000.0
 24
100000000000000000000.0
 34
100000000000000000000.0
 15
-100000000000000000000.0
 25
-100000000000000000000.0
 35
-100000000000000000000.0
146
0.0
 13
0.0
 23
0.0
 33
0.0
 16
1.0
 26
0.0
 36
0.0
 17
0.0
 27
1.0
 37
0.0
 76
0
330
18
  0
LAYOUT
  5
17
100
AcDbPlotSettings
  1

  2

  4

  6

 40
0.0
 41
0.0
 42
0.0
 43
0.0
 44
0.0
 45
0.0
 46
0.0
 47
0.0
 48
0.0
 49
0.0
140
0.0
141
0.0
142
1.0
143
1.0
 70
1712
 72
1
 73
0
 74
0
  7

 75
0
147
1.0
148
0.0
149
0.0
100
AcDbLayout
  1
Model
 70
1
 71
0
 10
0.0
 20
0.0
 11
12.0
 21
9.0
 12
0.0
 22
0.0
 32
0.0
 14
0.0
 24
0.0
 34
0.0
 15
0.0
 25
0.0
 35
0.0
146
0.0
 13
0.0
 23
0.0
 33
0.0
 16
1.0
 26
0.0
 36
0.0
 17
0.0
 27
1.0
 37
0.0
 76
0
330
16
  0
MLINESTYLE
  5
205
102
{ACAD_REACTORS
330
202
102
}
330
202
100
AcDbMlineStyle
  2
Standard
 70
0
  3

 62
256
 51
90.0
 52
90.0
  2
Standard
 71
2
 49
0.5
 62
256
  6
ByLayer
 49
-0.5
 62
256
  6
ByLayer
  0
ACDBPLACEHOLDER
  5
9
  0
ENDSEC
  0
EOF
