  0
SECTION
  2
HEADER
  9
$ACADVER
  1
AC1018
  9
$HANDSEED
  5
FFFFFF
  9
$EXTMAX
 10
7571654.55999999959
 20
5712338.20999999996
 30
1000000.00
  9
$EXTMIN
 10
7570521.62999999989
 20
5711344.86000000034
 30
0.00
  9
$LIMMIN
 10
7570521.62999999989
 20
5711344.86000000034
  9
$LIMMAX
 10
7571654.55999999959
 20
5712338.20999999996
  9
$DIMASZ
 40
2.5
  9
$DIMGAP
 40
0.625
  9
$INSUNITS
 70
6
  9
$DIMEXO
 40
0.625
  9
$DIMTXT
 40
2.5
  9
$DIMSTYLE
  2
Standard
  9
$PLIMMIN
 10
0.0
 20
0.0
  9
$PLIMMAX
 10
210.0
 20
297.0
  9
$DIMEXE
 40
1.25
  9
$TEXTSIZE
 40
2.5
  9
$TEXTSTYLE
  7
Standard
  9
$LWDISPLAY
290
1
  9
$TDCREATE
 40
44170.356726782
  9
$TDUCREATE
 40
44170.315060116
  9
$TDUPDATE
 40
44170.356726782
  9
$TDUUPDATE
 40
44170.315060116
  9
$TDINDWG
 40
0.0
  9
$TDUSRTIMER
 40
0.0
  9
$USRTIMER
 70
1
  0
ENDSEC
  0
SECTION
  2
TABLES
  0
TABLE
  2
VPORT
  5
1
100
AcDbSymbolTable
 70
1
  0
VPORT
  5
2
100
AcDbSymbolTableRecord
100
AcDbViewportTableRecord
  2
*ACTIVE
 70
0
 10
0.0
 20
0.0
 11
1.0
 21
1.0
 12
7571088.09
 22
5711841.54
 13
0.0
 23
0.0
 14
1.0
 24
1.0
 15
0.0
 25
0.0
 16
0.0
 26
0.0
 36
1.0
 17
0.0
 27
0.0
 37
0.0
 40
993.35
 41
1.14
 42
50.0
 43
0.0
 44
0.0
 50
0.0
 51
0.0
 71
0
 72
100
 73
1
 74
1
 75
0
 76
0
 77
0
 78
0
  0
ENDTAB
  0
TABLE
  2
LTYPE
  5
3
100
AcDbSymbolTable
 70
3
  0
LTYPE
  5
4
100
AcDbSymbolTableRecord
100
AcDbLinetypeTableRecord
  2
ByBlock
 70
0
  3

 72
65
 73
0
 40
0.0
  0
LTYPE
  5
5
100
AcDbSymbolTableRecord
100
AcDbLinetypeTableRecord
  2
ByLayer
 70
0
  3

 72
65
 73
0
 40
0.0
  0
LTYPE
  5
6
100
AcDbSymbolTableRecord
100
AcDbLinetypeTableRecord
  2
CONTINUOUS
 70
0
  3
Solid line
 72
65
 73
0
 40
0.0
  0
LTYPE
  5
7
100
AcDbSymbolTableRecord
100
AcDbLinetypeTableRecord
  2
L_0_04
 70
0
  3
Budynek_projektowany
 72
65
 73
2
 40
3.0
 49
2.0
 74
0
 49
-1.0
 74
0
  0
ENDTAB
  0
TABLE
  2
LAYER
  5
8
100
AcDbSymbolTable
 70
7
  0
LAYER
  5
9
100
AcDbSymbolTableRecord
100
AcDbLayerTableRecord
  2
0
 70
0
420
0
  6
CONTINUOUS
370
18
390
A
  0
LAYER
  5
B
100
AcDbSymbolTableRecord
100
AcDbLayerTableRecord
  2
DZIALKI_L_0
 70
0
420
0
  6
CONTINUOUS
370
18
390
A
  0
LAYER
  5
C
100
AcDbSymbolTableRecord
100
AcDbLayerTableRecord
  2
miary_podzial
 70
0
420
16711680
  6
L_0_04
370
18
390
A
  0
LAYER
  5
D
100
AcDbSymbolTableRecord
100
AcDbLayerTableRecord
  2
numery_punktow
 70
0
420
0
  6
CONTINUOUS
370
18
390
A
  0
LAYER
  5
E
100
AcDbSymbolTableRecord
100
AcDbLayerTableRecord
  2
NUMERY_DZIALEK_T_0
 70
0
420
0
  6
CONTINUOUS
370
18
390
A
  0
LAYER
  5
F
100
AcDbSymbolTableRecord
100
AcDbLayerTableRecord
  2
podzial
 70
0
420
16711680
  6
CONTINUOUS
370
18
390
A
  0
LAYER
  5
10
100
AcDbSymbolTableRecord
100
AcDbLayerTableRecord
  2
stabilizacja
 70
0
420
0
  6
CONTINUOUS
370
18
390
A
  0
ENDTAB
  0
TABLE
  2
STYLE
  5
11
100
AcDbSymbolTable
 70
2
  0
STYLE
  5
12
100
AcDbSymbolTableRecord
100
AcDbTextStyleTableRecord
  2
STANDARD
 70
0
 40
0.0
 41
1.0
 50
0.0
 71
0
  3
simplex.shx
  4

  0
STYLE
  5
13
100
AcDbSymbolTableRecord
100
AcDbTextStyleTableRecord
  2
STANDARD_ITALIC
 70
0
 40
0.0
 41
1.0
 50
15.0
 71
0
  3
simplex.shx
  4

  0
ENDTAB
  0
TABLE
  2
VIEW
  5
14
100
AcDbSymbolTable
 70
0
  0
ENDTAB
  0
TABLE
  2
UCS
  5
15
100
AcDbSymbolTable
 70
0
  0
ENDTAB
  0
TABLE
  2
APPID
  5
16
100
AcDbSymbolTable
 70
1
  0
APPID
  5
17
100
AcDbSymbolTableRecord
100
AcDbRegAppTableRecord
  2
ACAD
 70
0
  0
ENDTAB
  0
TABLE
  2
DIMSTYLE
  5
18
100
AcDbSymbolTable
 70
1
100
AcDbDimStyleTable
  0
DIMSTYLE
105
19
100
AcDbSymbolTableRecord
100
AcDbDimStyleTableRecord
  2
Standard
 70
0
340
12
  0
ENDTAB
  0
TABLE
  2
BLOCK_RECORD
  5
1A
100
AcDbSymbolTable
 70
6
  0
BLOCK_RECORD
  5
1B
100
AcDbSymbolTableRecord
100
AcDbBlockTableRecord
  2
*Model_Space
340
1C
  0
BLOCK_RECORD
  5
1D
100
AcDbSymbolTableRecord
100
AcDbBlockTableRecord
  2
*Paper_Space
340
1E
  0
BLOCK_RECORD
  5
1F
100
AcDbSymbolTableRecord
100
AcDbBlockTableRecord
  2
GRT
340
20
  0
BLOCK_RECORD
  5
21
100
AcDbSymbolTableRecord
100
AcDbBlockTableRecord
  2
OSP
340
22
  0
BLOCK_RECORD
  5
23
100
AcDbSymbolTableRecord
100
AcDbBlockTableRecord
  2
PLN
340
24
  0
BLOCK_RECORD
  5
25
100
AcDbSymbolTableRecord
100
AcDbBlockTableRecord
  2
SUUS25
340
26
  0
ENDTAB
  0
ENDSEC
  0
SECTION
  2
BLOCKS
  0
BLOCK
  5
27
100
AcDbEntity
  8
0
100
AcDbBlockBegin
  2
*Model_Space
 70
0
 10
0.0
 20
0.0
 30
0.0
  3
*Model_Space
  1

  0
ENDBLK
  5
28
100
AcDbEntity
  8
0
100
AcDbBlockEnd
  0
BLOCK
  5
29
100
AcDbEntity
 67
1
  8
0
100
AcDbBlockBegin
  2
*Paper_Space
 70
0
 10
0.0
 20
0.0
 30
0.0
  3
*Paper_Space
  1

  0
ENDBLK
  5
2A
100
AcDbEntity
 67
1
  8
0
100
AcDbBlockEnd
  0
BLOCK
  5
20
100
AcDbEntity
  8
0
100
AcDbBlockBegin
 62
0
370
13
  2
GRT
 70
0
 10
0
 20
0
 30
0
  3
GRT
  0
HATCH
  5
2B
100
AcDbEntity
  8
0
  6
CONTINUOUS
420
16777215
370
13
100
AcDbHatch
 10
0.0
 20
0.0
 30
0.0
210
0.0
220
0.0
230
1.0
  2
SOLID
 70
1
 71
1
 91
1
 92
3
 72
1
 73
1
 93
2
 10
0.0
 20
-0.4
 42
1.0
 10
0.0
 20
0.4
 42
1.0
 97
0
 75
0
 76
1
 98
0
  0
CIRCLE
  5
2C
100
AcDbEntity
  8
0
  6
CONTINUOUS
 62
0
370
13
100
AcDbCircle
 10
0.0
 20
-0.0
 40
0.4
  0
ENDBLK
  5
2D
100
AcDbEntity
  8
0
100
AcDbBlockEnd
  0
BLOCK
  5
22
100
AcDbEntity
  8
0
100
AcDbBlockBegin
 62
0
370
13
  2
OSP
 70
0
 10
0
 20
0
 30
0
  3
OSP
  0
HATCH
  5
2E
100
AcDbEntity
  8
0
  6
CONTINUOUS
420
16777215
370
13
100
AcDbHatch
 10
0.0
 20
0.0
 30
0.0
210
0.0
220
0.0
230
1.0
  2
SOLID
 70
1
 71
1
 91
1
 92
3
 72
1
 73
1
 93
2
 10
0.0
 20
-1.0
 42
1.0
 10
0.0
 20
1.0
 42
1.0
 97
0
 75
0
 76
1
 98
0
  0
CIRCLE
  5
2F
100
AcDbEntity
  8
0
  6
CONTINUOUS
 62
0
370
13
100
AcDbCircle
 10
0.0
 20
-0.0
 40
1.0
  0
HATCH
  5
30
100
AcDbEntity
  8
0
  6
CONTINUOUS
 62
0
370
13
100
AcDbHatch
 10
0.0
 20
0.0
 30
0.0
210
0.0
220
0.0
230
1.0
  2
SOLID
 70
1
 71
1
 91
1
 92
3
 72
1
 73
1
 93
2
 10
0.0
 20
-0.2
 42
1.0
 10
0.0
 20
0.2
 42
1.0
 97
0
 75
0
 76
1
 98
0
  0
CIRCLE
  5
31
100
AcDbEntity
  8
0
  6
CONTINUOUS
 62
0
370
13
100
AcDbCircle
 10
0.0
 20
-0.0
 40
0.2
  0
ENDBLK
  5
32
100
AcDbEntity
  8
0
100
AcDbBlockEnd
  0
BLOCK
  5
24
100
AcDbEntity
  8
0
100
AcDbBlockBegin
 62
0
370
13
  2
PLN
 70
0
 10
0
 20
0
 30
0
  3
PLN
  0
POLYLINE
  5
33
100
AcDbEntity
  8
0
  6
CONTINUOUS
 62
0
370
13
100
AcDb2dPolyline
 66
1
 70
128
  0
VERTEX
  5
34
100
AcDbEntity
  8
0
100
AcDbVertex
100
AcDb2dVertex
 10
0.0
 20
-0.0
  0
VERTEX
  5
35
100
AcDbEntity
  8
0
100
AcDbVertex
100
AcDb2dVertex
 10
0.0
 20
5.0
  0
SEQEND
  5
36
100
AcDbEntity
  8
0
  0
POLYLINE
  5
37
100
AcDbEntity
  8
0
  6
CONTINUOUS
 62
0
370
13
100
AcDb2dPolyline
 66
1
 70
128
  0
VERTEX
  5
38
100
AcDbEntity
  8
0
100
AcDbVertex
100
AcDb2dVertex
 10
0.0
 20
5.0
  0
VERTEX
  5
39
100
AcDbEntity
  8
0
100
AcDbVertex
100
AcDb2dVertex
 10
0.0
 20
10.0
  0
SEQEND
  5
3A
100
AcDbEntity
  8
0
  0
POLYLINE
  5
3B
100
AcDbEntity
  8
0
  6
CONTINUOUS
 62
0
370
13
100
AcDb2dPolyline
 66
1
 70
128
  0
VERTEX
  5
3C
100
AcDbEntity
  8
0
100
AcDbVertex
100
AcDb2dVertex
 10
0.0
 20
10.0
  0
VERTEX
  5
3D
100
AcDbEntity
  8
0
100
AcDbVertex
100
AcDb2dVertex
 10
0.0
 20
15.0
  0
SEQEND
  5
3E
100
AcDbEntity
  8
0
  0
POLYLINE
  5
3F
100
AcDbEntity
  8
0
  6
CONTINUOUS
 62
0
370
13
100
AcDb2dPolyline
 66
1
 70
128
  0
VERTEX
  5
40
100
AcDbEntity
  8
0
100
AcDbVertex
100
AcDb2dVertex
 10
0.0
 20
15.0
  0
VERTEX
  5
41
100
AcDbEntity
  8
0
100
AcDbVertex
100
AcDb2dVertex
 10
0.0
 20
20.0
  0
SEQEND
  5
42
100
AcDbEntity
  8
0
  0
POLYLINE
  5
43
100
AcDbEntity
  8
0
  6
CONTINUOUS
 62
0
370
13
100
AcDb2dPolyline
 66
1
 70
128
  0
VERTEX
  5
44
100
AcDbEntity
  8
0
100
AcDbVertex
100
AcDb2dVertex
 10
0.0
 20
20.0
  0
VERTEX
  5
45
100
AcDbEntity
  8
0
100
AcDbVertex
100
AcDb2dVertex
 10
0.0
 20
25.0
  0
SEQEND
  5
46
100
AcDbEntity
  8
0
  0
POLYLINE
  5
47
100
AcDbEntity
  8
0
  6
CONTINUOUS
 62
0
370
13
100
AcDb2dPolyline
 66
1
 70
128
  0
VERTEX
  5
48
100
AcDbEntity
  8
0
100
AcDbVertex
100
AcDb2dVertex
 10
0.0
 20
25.0
  0
VERTEX
  5
49
100
AcDbEntity
  8
0
100
AcDbVertex
100
AcDb2dVertex
 10
0.0
 20
30.0
  0
SEQEND
  5
4A
100
AcDbEntity
  8
0
  0
POLYLINE
  5
4B
100
AcDbEntity
  8
0
  6
CONTINUOUS
 62
0
370
13
100
AcDb2dPolyline
 66
1
 70
128
  0
VERTEX
  5
4C
100
AcDbEntity
  8
0
100
AcDbVertex
100
AcDb2dVertex
 10
0.0
 20
30.0
  0
VERTEX
  5
4D
100
AcDbEntity
  8
0
100
AcDbVertex
100
AcDb2dVertex
 10
0.0
 20
35.0
  0
SEQEND
  5
4E
100
AcDbEntity
  8
0
  0
POLYLINE
  5
4F
100
AcDbEntity
  8
0
  6
CONTINUOUS
 62
0
370
13
100
AcDb2dPolyline
 66
1
 70
128
  0
VERTEX
  5
50
100
AcDbEntity
  8
0
100
AcDbVertex
100
AcDb2dVertex
 10
0.0
 20
35.0
  0
VERTEX
  5
51
100
AcDbEntity
  8
0
100
AcDbVertex
100
AcDb2dVertex
 10
0.0
 20
40.0
  0
SEQEND
  5
52
100
AcDbEntity
  8
0
  0
POLYLINE
  5
53
100
AcDbEntity
  8
0
  6
CONTINUOUS
 62
0
370
13
100
AcDb2dPolyline
 66
1
 70
128
  0
VERTEX
  5
54
100
AcDbEntity
  8
0
100
AcDbVertex
100
AcDb2dVertex
 10
0.0
 20
40.0
  0
VERTEX
  5
55
100
AcDbEntity
  8
0
100
AcDbVertex
100
AcDb2dVertex
 10
0.0
 20
45.0
  0
SEQEND
  5
56
100
AcDbEntity
  8
0
  0
POLYLINE
  5
57
100
AcDbEntity
  8
0
  6
CONTINUOUS
 62
0
370
13
100
AcDb2dPolyline
 66
1
 70
128
  0
VERTEX
  5
58
100
AcDbEntity
  8
0
100
AcDbVertex
100
AcDb2dVertex
 10
0.0
 20
44.9
  0
VERTEX
  5
59
100
AcDbEntity
  8
0
100
AcDbVertex
100
AcDb2dVertex
 10
0.9
 20
35.0
  0
SEQEND
  5
5A
100
AcDbEntity
  8
0
  0
POLYLINE
  5
5B
100
AcDbEntity
  8
0
  6
CONTINUOUS
 62
0
370
13
100
AcDb2dPolyline
 66
1
 70
128
  0
VERTEX
  5
5C
100
AcDbEntity
  8
0
100
AcDbVertex
100
AcDb2dVertex
 10
0.9
 20
35.0
  0
VERTEX
  5
5D
100
AcDbEntity
  8
0
100
AcDbVertex
100
AcDb2dVertex
 10
1.3
 20
30.0
  0
SEQEND
  5
5E
100
AcDbEntity
  8
0
  0
POLYLINE
  5
5F
100
AcDbEntity
  8
0
  6
CONTINUOUS
 62
0
370
13
100
AcDb2dPolyline
 66
1
 70
128
  0
VERTEX
  5
60
100
AcDbEntity
  8
0
100
AcDbVertex
100
AcDb2dVertex
 10
1.3
 20
30.0
  0
VERTEX
  5
61
100
AcDbEntity
  8
0
100
AcDbVertex
100
AcDb2dVertex
 10
1.8
 20
25.0
  0
SEQEND
  5
62
100
AcDbEntity
  8
0
  0
POLYLINE
  5
63
100
AcDbEntity
  8
0
  6
CONTINUOUS
 62
0
370
13
100
AcDb2dPolyline
 66
1
 70
128
  0
VERTEX
  5
64
100
AcDbEntity
  8
0
100
AcDbVertex
100
AcDb2dVertex
 10
1.8
 20
24.9
  0
VERTEX
  5
65
100
AcDbEntity
  8
0
100
AcDbVertex
100
AcDb2dVertex
 10
2.3
 20
20.0
  0
SEQEND
  5
66
100
AcDbEntity
  8
0
  0
POLYLINE
  5
67
100
AcDbEntity
  8
0
  6
CONTINUOUS
 62
0
370
13
100
AcDb2dPolyline
 66
1
 70
128
  0
VERTEX
  5
68
100
AcDbEntity
  8
0
100
AcDbVertex
100
AcDb2dVertex
 10
2.3
 20
20.0
  0
VERTEX
  5
69
100
AcDbEntity
  8
0
100
AcDbVertex
100
AcDb2dVertex
 10
2.7
 20
15.0
  0
SEQEND
  5
6A
100
AcDbEntity
  8
0
  0
POLYLINE
  5
6B
100
AcDbEntity
  8
0
  6
CONTINUOUS
 62
0
370
13
100
AcDb2dPolyline
 66
1
 70
128
  0
VERTEX
  5
6C
100
AcDbEntity
  8
0
100
AcDbVertex
100
AcDb2dVertex
 10
2.7
 20
14.9
  0
VERTEX
  5
6D
100
AcDbEntity
  8
0
100
AcDbVertex
100
AcDb2dVertex
 10
3.0
 20
12.0
  0
VERTEX
  5
6E
100
AcDbEntity
  8
0
100
AcDbVertex
100
AcDb2dVertex
 10
-3.0
 20
12.0
  0
SEQEND
  5
6F
100
AcDbEntity
  8
0
  0
POLYLINE
  5
70
100
AcDbEntity
  8
0
  6
CONTINUOUS
 62
0
370
13
100
AcDb2dPolyline
 66
1
 70
128
  0
VERTEX
  5
71
100
AcDbEntity
  8
0
100
AcDbVertex
100
AcDb2dVertex
 10
3.0
 20
5.0
  0
VERTEX
  5
72
100
AcDbEntity
  8
0
100
AcDbVertex
100
AcDb2dVertex
 10
3.0
 20
-5.0
  0
SEQEND
  5
73
100
AcDbEntity
  8
0
  0
POLYLINE
  5
74
100
AcDbEntity
  8
0
  6
CONTINUOUS
 62
0
370
13
100
AcDb2dPolyline
 66
1
 70
128
  0
VERTEX
  5
75
100
AcDbEntity
  8
0
100
AcDbVertex
100
AcDb2dVertex
 10
-3.0
 20
5.0
  0
VERTEX
  5
76
100
AcDbEntity
  8
0
100
AcDbVertex
100
AcDb2dVertex
 10
-3.0
 20
-5.0
  0
SEQEND
  5
77
100
AcDbEntity
  8
0
  0
ENDBLK
  5
78
100
AcDbEntity
  8
0
100
AcDbBlockEnd
  0
BLOCK
  5
26
100
AcDbEntity
  8
0
100
AcDbBlockBegin
 62
0
370
13
  2
SUUS25
 70
0
 10
0
 20
0
 30
0
  3
SUUS25
  0
HATCH
  5
79
100
AcDbEntity
  8
0
  6
CONTINUOUS
 62
0
370
13
100
AcDbHatch
 10
0.0
 20
0.0
 30
0.0
210
0.0
220
0.0
230
1.0
  2
SOLID
 70
1
 71
1
 91
1
 92
3
 72
1
 73
1
 93
2
 10
0.0
 20
-0.4
 42
1.0
 10
0.0
 20
0.4
 42
1.0
 97
0
 75
0
 76
1
 98
0
  0
CIRCLE
  5
7A
100
AcDbEntity
  8
0
  6
CONTINUOUS
 62
0
370
13
100
AcDbCircle
 10
0.0
 20
-0.0
 40
0.4
  0
ENDBLK
  5
7B
100
AcDbEntity
  8
0
100
AcDbBlockEnd
  0
ENDSEC
  0
SECTION
  2
ENTITIES
  0
POLYLINE
  5
7C
100
AcDbEntity
  8
DZIALKI_L_0
  6
CONTINUOUS
370
18
100
AcDb3dPolyline
 66
1
 70
136
  0
VERTEX
  5
7D
100
AcDbEntity
  8
DZIALKI_L_0
100
AcDbVertex
100
AcDb3dPolylineVertex
 10
7570997.21999999974
 20
5712098.20999999996
 70
32
  0
VERTEX
  5
7E
100
AcDbEntity
  8
DZIALKI_L_0
100
AcDbVertex
100
AcDb3dPolylineVertex
 10
7570975.71999999974
 20
5712056.1799999997
 70
32
  0
SEQEND
  5
7F
100
AcDbEntity
  8
DZIALKI_L_0
  0
POLYLINE
  5
80
100
AcDbEntity
  8
DZIALKI_L_0
  6
CONTINUOUS
370
18
100
AcDb3dPolyline
 66
1
 70
136
  0
VERTEX
  5
81
100
AcDbEntity
  8
DZIALKI_L_0
100
AcDbVertex
100
AcDb3dPolylineVertex
 10
7571157.75999999978
 20
5712020.40000000037
 70
32
  0
VERTEX
  5
82
100
AcDbEntity
  8
DZIALKI_L_0
100
AcDbVertex
100
AcDb3dPolylineVertex
 10
7570997.21999999974
 20
5712098.20999999996
 70
32
  0
SEQEND
  5
83
100
AcDbEntity
  8
DZIALKI_L_0
  0
POLYLINE
  5
84
100
AcDbEntity
  8
DZIALKI_L_0
  6
CONTINUOUS
370
18
100
AcDb3dPolyline
 66
1
 70
136
  0
VERTEX
  5
85
100
AcDbEntity
  8
DZIALKI_L_0
100
AcDbVertex
100
AcDb3dPolylineVertex
 10
7570975.71999999974
 20
5712056.1799999997
 70
32
  0
VERTEX
  5
86
100
AcDbEntity
  8
DZIALKI_L_0
100
AcDbVertex
100
AcDb3dPolylineVertex
 10
7571136.29999999981
 20
5711977.49000000022
 70
32
  0
SEQEND
  5
87
100
AcDbEntity
  8
DZIALKI_L_0
  0
POLYLINE
  5
88
100
AcDbEntity
  8
DZIALKI_L_0
  6
CONTINUOUS
370
18
100
AcDb3dPolyline
 66
1
 70
136
  0
VERTEX
  5
89
100
AcDbEntity
  8
DZIALKI_L_0
100
AcDbVertex
100
AcDb3dPolylineVertex
 10
7571210.66000000015
 20
5711993.41999999993
 70
32
  0
VERTEX
  5
8A
100
AcDbEntity
  8
DZIALKI_L_0
100
AcDbVertex
100
AcDb3dPolylineVertex
 10
7571157.75999999978
 20
5712020.40000000037
 70
32
  0
SEQEND
  5
8B
100
AcDbEntity
  8
DZIALKI_L_0
  0
POLYLINE
  5
8C
100
AcDbEntity
  8
DZIALKI_L_0
  6
CONTINUOUS
370
18
100
AcDb3dPolyline
 66
1
 70
136
  0
VERTEX
  5
8D
100
AcDbEntity
  8
DZIALKI_L_0
100
AcDbVertex
100
AcDb3dPolylineVertex
 10
7570975.71999999974
 20
5712056.1799999997
 70
32
  0
VERTEX
  5
8E
100
AcDbEntity
  8
DZIALKI_L_0
100
AcDbVertex
100
AcDb3dPolylineVertex
 10
7570960.88999999966
 20
5712026.15000000037
 70
32
  0
SEQEND
  5
8F
100
AcDbEntity
  8
DZIALKI_L_0
  0
POLYLINE
  5
90
100
AcDbEntity
  8
DZIALKI_L_0
  6
CONTINUOUS
370
18
100
AcDb3dPolyline
 66
1
 70
136
  0
VERTEX
  5
91
100
AcDbEntity
  8
DZIALKI_L_0
100
AcDbVertex
100
AcDb3dPolylineVertex
 10
7570997.21999999974
 20
5712098.20999999996
 70
32
  0
VERTEX
  5
92
100
AcDbEntity
  8
DZIALKI_L_0
100
AcDbVertex
100
AcDb3dPolylineVertex
 10
7570990.86000000034
 20
5712100.73000000045
 70
32
  0
SEQEND
  5
93
100
AcDbEntity
  8
DZIALKI_L_0
  0
POLYLINE
  5
94
100
AcDbEntity
  8
DZIALKI_L_0
  6
CONTINUOUS
370
18
100
AcDb3dPolyline
 66
1
 70
136
  0
VERTEX
  5
95
100
AcDbEntity
  8
DZIALKI_L_0
100
AcDbVertex
100
AcDb3dPolylineVertex
 10
7571136.29999999981
 20
5711977.49000000022
 70
32
  0
VERTEX
  5
96
100
AcDbEntity
  8
DZIALKI_L_0
100
AcDbVertex
100
AcDb3dPolylineVertex
 10
7571189.66000000015
 20
5711950.95999999996
 70
32
  0
SEQEND
  5
97
100
AcDbEntity
  8
DZIALKI_L_0
  0
POLYLINE
  5
98
100
AcDbEntity
  8
DZIALKI_L_0
  6
CONTINUOUS
370
18
100
AcDb3dPolyline
 66
1
 70
136
  0
VERTEX
  5
99
100
AcDbEntity
  8
DZIALKI_L_0
100
AcDbVertex
100
AcDb3dPolylineVertex
 10
7571136.29999999981
 20
5711977.49000000022
 70
32
  0
VERTEX
  5
9A
100
AcDbEntity
  8
DZIALKI_L_0
100
AcDbVertex
100
AcDb3dPolylineVertex
 10
7571157.75999999978
 20
5712020.40000000037
 70
32
  0
SEQEND
  5
9B
100
AcDbEntity
  8
DZIALKI_L_0
  0
POLYLINE
  5
9C
100
AcDbEntity
  8
DZIALKI_L_0
  6
CONTINUOUS
370
18
100
AcDb3dPolyline
 66
1
 70
136
  0
VERTEX
  5
9D
100
AcDbEntity
  8
DZIALKI_L_0
100
AcDbVertex
100
AcDb3dPolylineVertex
 10
7570937.66999999993
 20
5711994.86000000034
 70
32
  0
VERTEX
  5
9E
100
AcDbEntity
  8
DZIALKI_L_0
100
AcDbVertex
100
AcDb3dPolylineVertex
 10
7570990.86000000034
 20
5712100.73000000045
 70
32
  0
SEQEND
  5
9F
100
AcDbEntity
  8
DZIALKI_L_0
  0
POLYLINE
  5
A0
100
AcDbEntity
  8
DZIALKI_L_0
  6
CONTINUOUS
370
18
100
AcDb3dPolyline
 66
1
 70
136
  0
VERTEX
  5
A1
100
AcDbEntity
  8
DZIALKI_L_0
100
AcDbVertex
100
AcDb3dPolylineVertex
 10
7570990.86000000034
 20
5712100.73000000045
 70
32
  0
VERTEX
  5
A2
100
AcDbEntity
  8
DZIALKI_L_0
100
AcDbVertex
100
AcDb3dPolylineVertex
 10
7570951.96999999974
 20
5712119.71999999974
 70
32
  0
SEQEND
  5
A3
100
AcDbEntity
  8
DZIALKI_L_0
  0
POLYLINE
  5
A4
100
AcDbEntity
  8
DZIALKI_L_0
  6
CONTINUOUS
370
18
100
AcDb3dPolyline
 66
1
 70
137
  0
VERTEX
  5
A5
100
AcDbEntity
  8
DZIALKI_L_0
100
AcDbVertex
100
AcDb3dPolylineVertex
 10
7571136.29999999981
 20
5711977.49000000022
 70
32
  0
VERTEX
  5
A6
100
AcDbEntity
  8
DZIALKI_L_0
100
AcDbVertex
100
AcDb3dPolylineVertex
 10
7570975.71999999974
 20
5712056.1799999997
 70
32
  0
VERTEX
  5
A7
100
AcDbEntity
  8
DZIALKI_L_0
100
AcDbVertex
100
AcDb3dPolylineVertex
 10
7570997.21999999974
 20
5712098.20999999996
 70
32
  0
VERTEX
  5
A8
100
AcDbEntity
  8
DZIALKI_L_0
100
AcDbVertex
100
AcDb3dPolylineVertex
 10
7571157.75999999978
 20
5712020.40000000037
 70
32
  0
SEQEND
  5
A9
100
AcDbEntity
  8
DZIALKI_L_0
  0
POLYLINE
  5
AA
100
AcDbEntity
  8
DZIALKI_L_0
  6
CONTINUOUS
370
18
100
AcDb3dPolyline
 66
1
 70
137
  0
VERTEX
  5
AB
100
AcDbEntity
  8
DZIALKI_L_0
100
AcDbVertex
100
AcDb3dPolylineVertex
 10
7570951.96999999974
 20
5712119.71999999974
 70
32
  0
VERTEX
  5
AC
100
AcDbEntity
  8
DZIALKI_L_0
100
AcDbVertex
100
AcDb3dPolylineVertex
 10
7570990.86000000034
 20
5712100.73000000045
 70
32
  0
VERTEX
  5
AD
100
AcDbEntity
  8
DZIALKI_L_0
100
AcDbVertex
100
AcDb3dPolylineVertex
 10
7570937.66999999993
 20
5711994.86000000034
 70
32
  0
VERTEX
  5
AE
100
AcDbEntity
  8
DZIALKI_L_0
100
AcDbVertex
100
AcDb3dPolylineVertex
 10
7570918.96999999974
 20
5712003.59999999963
 70
32
  0
VERTEX
  5
AF
100
AcDbEntity
  8
DZIALKI_L_0
100
AcDbVertex
100
AcDb3dPolylineVertex
 10
7570872.33000000007
 20
5711909.58999999985
 70
32
  0
VERTEX
  5
B0
100
AcDbEntity
  8
DZIALKI_L_0
100
AcDbVertex
100
AcDb3dPolylineVertex
 10
7570851.30999999959
 20
5711920.37000000011
 70
32
  0
SEQEND
  5
B1
100
AcDbEntity
  8
DZIALKI_L_0
  0
POLYLINE
  5
B2
100
AcDbEntity
  8
DZIALKI_L_0
  6
CONTINUOUS
370
18
100
AcDb3dPolyline
 66
1
 70
137
  0
VERTEX
  5
B3
100
AcDbEntity
  8
DZIALKI_L_0
100
AcDbVertex
100
AcDb3dPolylineVertex
 10
7571157.75999999978
 20
5712020.40000000037
 70
32
  0
VERTEX
  5
B4
100
AcDbEntity
  8
DZIALKI_L_0
100
AcDbVertex
100
AcDb3dPolylineVertex
 10
7571210.66000000015
 20
5711993.41999999993
 70
32
  0
VERTEX
  5
B5
100
AcDbEntity
  8
DZIALKI_L_0
100
AcDbVertex
100
AcDb3dPolylineVertex
 10
7571189.66000000015
 20
5711950.95999999996
 70
32
  0
VERTEX
  5
B6
100
AcDbEntity
  8
DZIALKI_L_0
100
AcDbVertex
100
AcDb3dPolylineVertex
 10
7571136.29999999981
 20
5711977.49000000022
 70
32
  0
SEQEND
  5
B7
100
AcDbEntity
  8
DZIALKI_L_0
  0
POLYLINE
  5
B8
100
AcDbEntity
  8
DZIALKI_L_0
  6
CONTINUOUS
370
18
100
AcDb3dPolyline
 66
1
 70
137
  0
VERTEX
  5
B9
100
AcDbEntity
  8
DZIALKI_L_0
100
AcDbVertex
100
AcDb3dPolylineVertex
 10
7571329.08999999985
 20
5711882.0
 70
32
  0
VERTEX
  5
BA
100
AcDbEntity
  8
DZIALKI_L_0
100
AcDbVertex
100
AcDb3dPolylineVertex
 10
7571314.08000000007
 20
5711852.0
 70
32
  0
VERTEX
  5
BB
100
AcDbEntity
  8
DZIALKI_L_0
100
AcDbVertex
100
AcDb3dPolylineVertex
 10
7570960.88999999966
 20
5712026.15000000037
 70
32
  0
VERTEX
  5
BC
100
AcDbEntity
  8
DZIALKI_L_0
100
AcDbVertex
100
AcDb3dPolylineVertex
 10
7570975.71999999974
 20
5712056.1799999997
 70
32
  0
VERTEX
  5
BD
100
AcDbEntity
  8
DZIALKI_L_0
100
AcDbVertex
100
AcDb3dPolylineVertex
 10
7571136.29999999981
 20
5711977.49000000022
 70
32
  0
VERTEX
  5
BE
100
AcDbEntity
  8
DZIALKI_L_0
100
AcDbVertex
100
AcDb3dPolylineVertex
 10
7571189.66000000015
 20
5711950.95999999996
 70
32
  0
VERTEX
  5
BF
100
AcDbEntity
  8
DZIALKI_L_0
100
AcDbVertex
100
AcDb3dPolylineVertex
 10
7571238.49000000022
 20
5711926.6799999997
 70
32
  0
SEQEND
  5
C0
100
AcDbEntity
  8
DZIALKI_L_0
  0
POLYLINE
  5
C1
100
AcDbEntity
  8
DZIALKI_L_0
  6
CONTINUOUS
370
18
100
AcDb3dPolyline
 66
1
 70
137
  0
VERTEX
  5
C2
100
AcDbEntity
  8
DZIALKI_L_0
100
AcDbVertex
100
AcDb3dPolylineVertex
 10
7570838.44000000041
 20
5711614.45999999996
 70
32
  0
VERTEX
  5
C3
100
AcDbEntity
  8
DZIALKI_L_0
100
AcDbVertex
100
AcDb3dPolylineVertex
 10
7570842.23000000045
 20
5711579.40000000037
 70
32
  0
VERTEX
  5
C4
100
AcDbEntity
  8
DZIALKI_L_0
100
AcDbVertex
100
AcDb3dPolylineVertex
 10
7570845.83000000007
 20
5711559.28000000026
 70
32
  0
VERTEX
  5
C5
100
AcDbEntity
  8
DZIALKI_L_0
100
AcDbVertex
100
AcDb3dPolylineVertex
 10
7570849.84999999963
 20
5711536.79000000004
 70
32
  0
VERTEX
  5
C6
100
AcDbEntity
  8
DZIALKI_L_0
100
AcDbVertex
100
AcDb3dPolylineVertex
 10
7570871.48000000045
 20
5711505.62000000011
 70
32
  0
VERTEX
  5
C7
100
AcDbEntity
  8
DZIALKI_L_0
100
AcDbVertex
100
AcDb3dPolylineVertex
 10
7570895.63999999966
 20
5711468.15000000037
 70
32
  0
VERTEX
  5
C8
100
AcDbEntity
  8
DZIALKI_L_0
100
AcDbVertex
100
AcDb3dPolylineVertex
 10
7570918.3200000003
 20
5711434.51999999955
 70
32
  0
VERTEX
  5
C9
100
AcDbEntity
  8
DZIALKI_L_0
100
AcDbVertex
100
AcDb3dPolylineVertex
 10
7570925.5700000003
 20
5711423.76999999955
 70
32
  0
VERTEX
  5
CA
100
AcDbEntity
  8
DZIALKI_L_0
100
AcDbVertex
100
AcDb3dPolylineVertex
 10
7570931.96999999974
 20
5711417.50999999978
 70
32
  0
VERTEX
  5
CB
100
AcDbEntity
  8
DZIALKI_L_0
100
AcDbVertex
100
AcDb3dPolylineVertex
 10
7570943.91999999993
 20
5711399.08000000007
 70
32
  0
VERTEX
  5
CC
100
AcDbEntity
  8
DZIALKI_L_0
100
AcDbVertex
100
AcDb3dPolylineVertex
 10
7570945.84999999963
 20
5711382.45999999996
 70
32
  0
VERTEX
  5
CD
100
AcDbEntity
  8
DZIALKI_L_0
100
AcDbVertex
100
AcDb3dPolylineVertex
 10
7570944.08999999985
 20
5711345.03000000026
 70
32
  0
VERTEX
  5
CE
100
AcDbEntity
  8
DZIALKI_L_0
100
AcDbVertex
100
AcDb3dPolylineVertex
 10
7570943.25999999978
 20
5711344.86000000034
 70
32
  0
VERTEX
  5
CF
100
AcDbEntity
  8
DZIALKI_L_0
100
AcDbVertex
100
AcDb3dPolylineVertex
 10
7570942.80999999959
 20
5711394.16000000015
 70
32
  0
VERTEX
  5
D0
100
AcDbEntity
  8
DZIALKI_L_0
100
AcDbVertex
100
AcDb3dPolylineVertex
 10
7570935.44000000041
 20
5711408.21999999974
 70
32
  0
VERTEX
  5
D1
100
AcDbEntity
  8
DZIALKI_L_0
100
AcDbVertex
100
AcDb3dPolylineVertex
 10
7570847.0
 20
5711535.62999999989
 70
32
  0
VERTEX
  5
D2
100
AcDbEntity
  8
DZIALKI_L_0
100
AcDbVertex
100
AcDb3dPolylineVertex
 10
7570830.05999999959
 20
5711630.58999999985
 70
32
  0
VERTEX
  5
D3
100
AcDbEntity
  8
DZIALKI_L_0
100
AcDbVertex
100
AcDb3dPolylineVertex
 10
7570819.11000000034
 20
5711654.5700000003
 70
32
  0
VERTEX
  5
D4
100
AcDbEntity
  8
DZIALKI_L_0
100
AcDbVertex
100
AcDb3dPolylineVertex
 10
7570796.99000000022
 20
5711714.90000000037
 70
32
  0
VERTEX
  5
D5
100
AcDbEntity
  8
DZIALKI_L_0
100
AcDbVertex
100
AcDb3dPolylineVertex
 10
7570800.63999999966
 20
5711722.12000000011
 70
32
  0
VERTEX
  5
D6
100
AcDbEntity
  8
DZIALKI_L_0
100
AcDbVertex
100
AcDb3dPolylineVertex
 10
7570866.20999999996
 20
5711852.70999999996
 70
32
  0
VERTEX
  5
D7
100
AcDbEntity
  8
DZIALKI_L_0
100
AcDbVertex
100
AcDb3dPolylineVertex
 10
7570884.49000000022
 20
5711889.12000000011
 70
32
  0
VERTEX
  5
D8
100
AcDbEntity
  8
DZIALKI_L_0
100
AcDbVertex
100
AcDb3dPolylineVertex
 10
7570890.36000000034
 20
5711900.8200000003
 70
32
  0
VERTEX
  5
D9
100
AcDbEntity
  8
DZIALKI_L_0
100
AcDbVertex
100
AcDb3dPolylineVertex
 10
7570937.66999999993
 20
5711994.86000000034
 70
32
  0
VERTEX
  5
DA
100
AcDbEntity
  8
DZIALKI_L_0
100
AcDbVertex
100
AcDb3dPolylineVertex
 10
7570990.86000000034
 20
5712100.73000000045
 70
32
  0
VERTEX
  5
DB
100
AcDbEntity
  8
DZIALKI_L_0
100
AcDbVertex
100
AcDb3dPolylineVertex
 10
7570997.21999999974
 20
5712098.20999999996
 70
32
  0
VERTEX
  5
DC
100
AcDbEntity
  8
DZIALKI_L_0
100
AcDbVertex
100
AcDb3dPolylineVertex
 10
7570975.71999999974
 20
5712056.1799999997
 70
32
  0
VERTEX
  5
DD
100
AcDbEntity
  8
DZIALKI_L_0
100
AcDbVertex
100
AcDb3dPolylineVertex
 10
7570960.88999999966
 20
5712026.15000000037
 70
32
  0
VERTEX
  5
DE
100
AcDbEntity
  8
DZIALKI_L_0
100
AcDbVertex
100
AcDb3dPolylineVertex
 10
7570945.80999999959
 20
5711996.25999999978
 70
32
  0
VERTEX
  5
DF
100
AcDbEntity
  8
DZIALKI_L_0
100
AcDbVertex
100
AcDb3dPolylineVertex
 10
7570922.37000000011
 20
5711950.16999999993
 70
32
  0
VERTEX
  5
E0
100
AcDbEntity
  8
DZIALKI_L_0
100
AcDbVertex
100
AcDb3dPolylineVertex
 10
7570921.04000000004
 20
5711947.51999999955
 70
32
  0
VERTEX
  5
E1
100
AcDbEntity
  8
DZIALKI_L_0
100
AcDbVertex
100
AcDb3dPolylineVertex
 10
7570898.80999999959
 20
5711903.24000000022
 70
32
  0
VERTEX
  5
E2
100
AcDbEntity
  8
DZIALKI_L_0
100
AcDbVertex
100
AcDb3dPolylineVertex
 10
7570872.44000000041
 20
5711850.6799999997
 70
32
  0
VERTEX
  5
E3
100
AcDbEntity
  8
DZIALKI_L_0
100
AcDbVertex
100
AcDb3dPolylineVertex
 10
7570850.83999999985
 20
5711807.62999999989
 70
32
  0
VERTEX
  5
E4
100
AcDbEntity
  8
DZIALKI_L_0
100
AcDbVertex
100
AcDb3dPolylineVertex
 10
7570829.58999999985
 20
5711765.29000000004
 70
32
  0
VERTEX
  5
E5
100
AcDbEntity
  8
DZIALKI_L_0
100
AcDbVertex
100
AcDb3dPolylineVertex
 10
7570804.16000000015
 20
5711714.54999999981
 70
32
  0
VERTEX
  5
E6
100
AcDbEntity
  8
DZIALKI_L_0
100
AcDbVertex
100
AcDb3dPolylineVertex
 10
7570832.62000000011
 20
5711653.29000000004
 70
32
  0
SEQEND
  5
E7
100
AcDbEntity
  8
DZIALKI_L_0
  0
POLYLINE
  5
E8
100
AcDbEntity
  8
DZIALKI_L_0
  6
CONTINUOUS
370
18
100
AcDb3dPolyline
 66
1
 70
137
  0
VERTEX
  5
E9
100
AcDbEntity
  8
DZIALKI_L_0
100
AcDbVertex
100
AcDb3dPolylineVertex
 10
7571000.37000000011
 20
5712106.26999999955
 70
32
  0
VERTEX
  5
EA
100
AcDbEntity
  8
DZIALKI_L_0
100
AcDbVertex
100
AcDb3dPolylineVertex
 10
7571054.65000000037
 20
5712079.74000000022
 70
32
  0
VERTEX
  5
EB
100
AcDbEntity
  8
DZIALKI_L_0
100
AcDbVertex
100
AcDb3dPolylineVertex
 10
7571076.66000000015
 20
5712068.99000000022
 70
32
  0
VERTEX
  5
EC
100
AcDbEntity
  8
DZIALKI_L_0
100
AcDbVertex
100
AcDb3dPolylineVertex
 10
7571114.04999999981
 20
5712050.71999999974
 70
32
  0
VERTEX
  5
ED
100
AcDbEntity
  8
DZIALKI_L_0
100
AcDbVertex
100
AcDb3dPolylineVertex
 10
7571152.59999999963
 20
5712031.88999999966
 70
32
  0
VERTEX
  5
EE
100
AcDbEntity
  8
DZIALKI_L_0
100
AcDbVertex
100
AcDb3dPolylineVertex
 10
7571181.5
 20
5712017.75999999978
 70
32
  0
VERTEX
  5
EF
100
AcDbEntity
  8
DZIALKI_L_0
100
AcDbVertex
100
AcDb3dPolylineVertex
 10
7571252.63999999966
 20
5711982.99000000022
 70
32
  0
VERTEX
  5
F0
100
AcDbEntity
  8
DZIALKI_L_0
100
AcDbVertex
100
AcDb3dPolylineVertex
 10
7571265.80999999959
 20
5711976.54999999981
 70
32
  0
VERTEX
  5
F1
100
AcDbEntity
  8
DZIALKI_L_0
100
AcDbVertex
100
AcDb3dPolylineVertex
 10
7571302.28000000026
 20
5711958.73000000045
 70
32
  0
VERTEX
  5
F2
100
AcDbEntity
  8
DZIALKI_L_0
100
AcDbVertex
100
AcDb3dPolylineVertex
 10
7571369.23000000045
 20
5711926.00999999978
 70
32
  0
VERTEX
  5
F3
100
AcDbEntity
  8
DZIALKI_L_0
100
AcDbVertex
100
AcDb3dPolylineVertex
 10
7571405.5700000003
 20
5711908.25
 70
32
  0
VERTEX
  5
F4
100
AcDbEntity
  8
DZIALKI_L_0
100
AcDbVertex
100
AcDb3dPolylineVertex
 10
7571436.91999999993
 20
5711893.45000000019
 70
32
  0
VERTEX
  5
F5
100
AcDbEntity
  8
DZIALKI_L_0
100
AcDbVertex
100
AcDb3dPolylineVertex
 10
7571654.55999999959
 20
5711786.5700000003
 70
32
  0
VERTEX
  5
F6
100
AcDbEntity
  8
DZIALKI_L_0
100
AcDbVertex
100
AcDb3dPolylineVertex
 10
7571644.83000000007
 20
5711782.0
 70
32
  0
VERTEX
  5
F7
100
AcDbEntity
  8
DZIALKI_L_0
100
AcDbVertex
100
AcDb3dPolylineVertex
 10
7571388.25999999978
 20
5711906.05999999959
 70
32
  0
VERTEX
  5
F8
100
AcDbEntity
  8
DZIALKI_L_0
100
AcDbVertex
100
AcDb3dPolylineVertex
 10
7571350.29999999981
 20
5711924.41999999993
 70
32
  0
VERTEX
  5
F9
100
AcDbEntity
  8
DZIALKI_L_0
100
AcDbVertex
100
AcDb3dPolylineVertex
 10
7571259.23000000045
 20
5711970.20999999996
 70
32
  0
VERTEX
  5
FA
100
AcDbEntity
  8
DZIALKI_L_0
100
AcDbVertex
100
AcDb3dPolylineVertex
 10
7571210.66000000015
 20
5711993.41999999993
 70
32
  0
VERTEX
  5
FB
100
AcDbEntity
  8
DZIALKI_L_0
100
AcDbVertex
100
AcDb3dPolylineVertex
 10
7571157.75999999978
 20
5712020.40000000037
 70
32
  0
VERTEX
  5
FC
100
AcDbEntity
  8
DZIALKI_L_0
100
AcDbVertex
100
AcDb3dPolylineVertex
 10
7570997.21999999974
 20
5712098.20999999996
 70
32
  0
VERTEX
  5
FD
100
AcDbEntity
  8
DZIALKI_L_0
100
AcDbVertex
100
AcDb3dPolylineVertex
 10
7570990.86000000034
 20
5712100.73000000045
 70
32
  0
VERTEX
  5
FE
100
AcDbEntity
  8
DZIALKI_L_0
100
AcDbVertex
100
AcDb3dPolylineVertex
 10
7570951.96999999974
 20
5712119.71999999974
 70
32
  0
VERTEX
  5
FF
100
AcDbEntity
  8
DZIALKI_L_0
100
AcDbVertex
100
AcDb3dPolylineVertex
 10
7570931.08999999985
 20
5712129.91000000015
 70
32
  0
VERTEX
  5
100
100
AcDbEntity
  8
DZIALKI_L_0
100
AcDbVertex
100
AcDb3dPolylineVertex
 10
7570905.29999999981
 20
5712141.95999999996
 70
32
  0
VERTEX
  5
101
100
AcDbEntity
  8
DZIALKI_L_0
100
AcDbVertex
100
AcDb3dPolylineVertex
 10
7570875.62000000011
 20
5712156.75999999978
 70
32
  0
VERTEX
  5
102
100
AcDbEntity
  8
DZIALKI_L_0
100
AcDbVertex
100
AcDb3dPolylineVertex
 10
7570850.46999999974
 20
5712169.29000000004
 70
32
  0
VERTEX
  5
103
100
AcDbEntity
  8
DZIALKI_L_0
100
AcDbVertex
100
AcDb3dPolylineVertex
 10
7570784.61000000034
 20
5712202.12000000011
 70
32
  0
VERTEX
  5
104
100
AcDbEntity
  8
DZIALKI_L_0
100
AcDbVertex
100
AcDb3dPolylineVertex
 10
7570762.65000000037
 20
5712213.0700000003
 70
32
  0
VERTEX
  5
105
100
AcDbEntity
  8
DZIALKI_L_0
100
AcDbVertex
100
AcDb3dPolylineVertex
 10
7570739.76999999955
 20
5712224.46999999974
 70
32
  0
VERTEX
  5
106
100
AcDbEntity
  8
DZIALKI_L_0
100
AcDbVertex
100
AcDb3dPolylineVertex
 10
7570719.62999999989
 20
5712234.50999999978
 70
32
  0
VERTEX
  5
107
100
AcDbEntity
  8
DZIALKI_L_0
100
AcDbVertex
100
AcDb3dPolylineVertex
 10
7570708.54999999981
 20
5712238.5700000003
 70
32
  0
VERTEX
  5
108
100
AcDbEntity
  8
DZIALKI_L_0
100
AcDbVertex
100
AcDb3dPolylineVertex
 10
7570687.58000000007
 20
5712250.04999999981
 70
32
  0
VERTEX
  5
109
100
AcDbEntity
  8
DZIALKI_L_0
100
AcDbVertex
100
AcDb3dPolylineVertex
 10
7570627.99000000022
 20
5712279.49000000022
 70
32
  0
VERTEX
  5
10A
100
AcDbEntity
  8
DZIALKI_L_0
100
AcDbVertex
100
AcDb3dPolylineVertex
 10
7570600.62999999989
 20
5712292.99000000022
 70
32
  0
VERTEX
  5
10B
100
AcDbEntity
  8
DZIALKI_L_0
100
AcDbVertex
100
AcDb3dPolylineVertex
 10
7570573.4299999997
 20
5712304.54000000004
 70
32
  0
VERTEX
  5
10C
100
AcDbEntity
  8
DZIALKI_L_0
100
AcDbVertex
100
AcDb3dPolylineVertex
 10
7570521.62999999989
 20
5712329.83000000007
 70
32
  0
VERTEX
  5
10D
100
AcDbEntity
  8
DZIALKI_L_0
100
AcDbVertex
100
AcDb3dPolylineVertex
 10
7570525.87999999989
 20
5712338.20999999996
 70
32
  0
VERTEX
  5
10E
100
AcDbEntity
  8
DZIALKI_L_0
100
AcDbVertex
100
AcDb3dPolylineVertex
 10
7570598.50999999978
 20
5712302.70000000019
 70
32
  0
VERTEX
  5
10F
100
AcDbEntity
  8
DZIALKI_L_0
100
AcDbVertex
100
AcDb3dPolylineVertex
 10
7570610.75999999978
 20
5712296.71999999974
 70
32
  0
VERTEX
  5
110
100
AcDbEntity
  8
DZIALKI_L_0
100
AcDbVertex
100
AcDb3dPolylineVertex
 10
7570667.50999999978
 20
5712268.98000000045
 70
32
  0
VERTEX
  5
111
100
AcDbEntity
  8
DZIALKI_L_0
100
AcDbVertex
100
AcDb3dPolylineVertex
 10
7570705.9299999997
 20
5712250.19000000041
 70
32
  0
VERTEX
  5
112
100
AcDbEntity
  8
DZIALKI_L_0
100
AcDbVertex
100
AcDb3dPolylineVertex
 10
7570736.75999999978
 20
5712235.95000000019
 70
32
  0
VERTEX
  5
113
100
AcDbEntity
  8
DZIALKI_L_0
100
AcDbVertex
100
AcDb3dPolylineVertex
 10
7570757.66999999993
 20
5712225.69000000041
 70
32
  0
VERTEX
  5
114
100
AcDbEntity
  8
DZIALKI_L_0
100
AcDbVertex
100
AcDb3dPolylineVertex
 10
7570774.45000000019
 20
5712217.45999999996
 70
32
  0
VERTEX
  5
115
100
AcDbEntity
  8
DZIALKI_L_0
100
AcDbVertex
100
AcDb3dPolylineVertex
 10
7570805.70999999996
 20
5712201.4299999997
 70
32
  0
VERTEX
  5
116
100
AcDbEntity
  8
DZIALKI_L_0
100
AcDbVertex
100
AcDb3dPolylineVertex
 10
7570859.71999999974
 20
5712175.01999999955
 70
32
  0
VERTEX
  5
117
100
AcDbEntity
  8
DZIALKI_L_0
100
AcDbVertex
100
AcDb3dPolylineVertex
 10
7570896.41000000015
 20
5712157.08999999985
 70
32
  0
VERTEX
  5
118
100
AcDbEntity
  8
DZIALKI_L_0
100
AcDbVertex
100
AcDb3dPolylineVertex
 10
7570913.37000000011
 20
5712148.79999999981
 70
32
  0
VERTEX
  5
119
100
AcDbEntity
  8
DZIALKI_L_0
100
AcDbVertex
100
AcDb3dPolylineVertex
 10
7570994.49000000022
 20
5712109.13999999966
 70
32
  0
SEQEND
  5
11A
100
AcDbEntity
  8
DZIALKI_L_0
  0
POLYLINE
  5
11B
100
AcDbEntity
  8
miary_podzial
  6
ByLayer
370
18
100
AcDb3dPolyline
 66
1
 70
136
  0
VERTEX
  5
11C
100
AcDbEntity
  8
miary_podzial
100
AcDbVertex
100
AcDb3dPolylineVertex
 10
7571045.19000000041
 20
5712073.24000000022
 70
32
  0
VERTEX
  5
11D
100
AcDbEntity
  8
miary_podzial
100
AcDbVertex
100
AcDb3dPolylineVertex
 10
7571066.36999999639
 20
5712061.76999999676
 70
32
  0
SEQEND
  5
11E
100
AcDbEntity
  8
miary_podzial
  0
POLYLINE
  5
11F
100
AcDbEntity
  8
podzial
  6
CONTINUOUS
370
18
100
AcDb3dPolyline
 66
1
 70
136
  0
VERTEX
  5
120
100
AcDbEntity
  8
podzial
100
AcDbVertex
100
AcDb3dPolylineVertex
 10
7571046.27999999654
 20
5712041.57999999728
 70
32
  0
VERTEX
  5
121
100
AcDbEntity
  8
podzial
100
AcDbVertex
100
AcDb3dPolylineVertex
 10
7571063.24999999628
 20
5712045.48999999743
 70
32
  0
SEQEND
  5
122
100
AcDbEntity
  8
podzial
  0
POLYLINE
  5
123
100
AcDbEntity
  8
podzial
  6
CONTINUOUS
370
18
100
AcDb3dPolyline
 66
1
 70
136
  0
VERTEX
  5
124
100
AcDbEntity
  8
podzial
100
AcDbVertex
100
AcDb3dPolylineVertex
 10
7570996.58999999985
 20
5712096.99000000022
 70
32
  0
VERTEX
  5
125
100
AcDbEntity
  8
podzial
100
AcDbVertex
100
AcDb3dPolylineVertex
 10
7571045.19000000041
 20
5712073.24000000022
 70
32
  0
VERTEX
  5
126
100
AcDbEntity
  8
podzial
100
AcDbVertex
100
AcDb3dPolylineVertex
 10
7571045.86435183883
 20
5712074.63321529422
 70
32
  0
SEQEND
  5
127
100
AcDbEntity
  8
podzial
  0
POLYLINE
  5
128
100
AcDbEntity
  8
podzial
  6
CONTINUOUS
370
18
100
AcDb3dPolyline
 66
1
 70
136
  0
VERTEX
  5
129
100
AcDbEntity
  8
podzial
100
AcDbVertex
100
AcDb3dPolylineVertex
 10
7571045.19000000041
 20
5712073.24000000022
 70
32
  0
VERTEX
  5
12A
100
AcDbEntity
  8
podzial
100
AcDbVertex
100
AcDb3dPolylineVertex
 10
7571025.04999999981
 20
5712032.00999999978
 70
32
  0
SEQEND
  5
12B
100
AcDbEntity
  8
podzial
  0
POLYLINE
  5
12C
100
AcDbEntity
  8
podzial
  6
CONTINUOUS
370
18
100
AcDb3dPolyline
 66
1
 70
136
  0
VERTEX
  5
12D
100
AcDbEntity
  8
podzial
100
AcDbVertex
100
AcDb3dPolylineVertex
 10
7571045.19000000041
 20
5712073.24000000022
 70
32
  0
VERTEX
  5
12E
100
AcDbEntity
  8
podzial
100
AcDbVertex
100
AcDb3dPolylineVertex
 10
7571156.88999999966
 20
5712018.66000000015
 70
32
  0
SEQEND
  5
12F
100
AcDbEntity
  8
podzial
  0
POINT
  5
130
100
AcDbEntity
  8
podzial
100
AcDbPoint
 62
0
 10
7570996.58999999985
 20
5712096.99000000022
  0
INSERT
  5
131
100
AcDbEntity
  8
podzial
  6
CONTINUOUS
100
AcDbBlockReference
 66
0
  2
GRT
 10
7570996.58999999985
 20
5712096.99000000022
 41
1.00
 42
1.00
 43
1.00
 50
0.00
  0
POINT
  5
132
100
AcDbEntity
  8
podzial
100
AcDbPoint
 62
0
 10
7571156.88999999966
 20
5712018.66000000015
  0
INSERT
  5
133
100
AcDbEntity
  8
podzial
  6
CONTINUOUS
100
AcDbBlockReference
 66
0
  2
GRT
 10
7571156.88999999966
 20
5712018.66000000015
 41
1.00
 42
1.00
 43
1.00
 50
0.00
  0
POINT
  5
134
100
AcDbEntity
  8
podzial
100
AcDbPoint
 62
0
 10
7571045.19000000041
 20
5712073.24000000022
  0
INSERT
  5
135
100
AcDbEntity
  8
podzial
  6
CONTINUOUS
100
AcDbBlockReference
 66
0
  2
GRT
 10
7571045.19000000041
 20
5712073.24000000022
 41
1.00
 42
1.00
 43
1.00
 50
0.00
  0
POINT
  5
136
100
AcDbEntity
  8
podzial
100
AcDbPoint
 62
0
 10
7571045.86435183883
 20
5712074.63321529422
  0
INSERT
  5
137
100
AcDbEntity
  8
podzial
  6
CONTINUOUS
100
AcDbBlockReference
 66
0
  2
GRT
 10
7571045.86435183883
 20
5712074.63321529422
 41
1.00
 42
1.00
 43
1.00
 50
0.00
  0
POINT
  5
138
100
AcDbEntity
  8
podzial
100
AcDbPoint
 62
0
 10
7571025.04999999981
 20
5712032.00999999978
  0
INSERT
  5
139
100
AcDbEntity
  8
podzial
  6
CONTINUOUS
100
AcDbBlockReference
 66
0
  2
GRT
 10
7571025.04999999981
 20
5712032.00999999978
 41
1.00
 42
1.00
 43
1.00
 50
0.00
  0
TEXT
  5
13A
100
AcDbEntity
  8
miary_podzial
370
18
100
AcDbText
 39
0.18
 10
7570984.39955693204
 20
5712073.9448258318
 40
1.80
  1
-45.84-
 50
-297.10
 41
0.66
  7
STANDARD
 72
1
 11
7570986.3686510725
 21
5712076.47566922195
100
AcDbText
 73
1
  0
TEXT
  5
13B
100
AcDbEntity
  8
miary_podzial
370
18
100
AcDbText
 39
0.18
 10
7570995.34674399812
 20
5712095.36584731098
 40
1.80
  1
-1.37-
 50
-297.30
 41
0.66
  7
STANDARD
 72
1
 11
7570997.118268135
 21
5712097.48992410582
100
AcDbText
 73
1
  0
TEXT
  5
13C
100
AcDbEntity
  8
miary_podzial
370
18
100
AcDbText
 39
0.18
 10
7571018.86364164017
 20
5712088.11976643372
 40
1.80
  1
-54.05-
 50
-25.90
 41
0.66
  7
STANDARD
 72
1
 11
7571021.43516757153
 21
5712086.20410613343
100
AcDbText
 73
1
  0
TEXT
  5
13D
100
AcDbEntity
  8
miary_podzial
370
18
100
AcDbText
 39
0.18
 10
7571098.72884064075
 20
5712049.41132723913
 40
1.80
  1
-124.35-
 50
-25.90
 41
0.66
  7
STANDARD
 72
1
 11
7571101.70516757201
 21
5712047.2991061341
100
AcDbText
 73
1
  0
TEXT
  5
13E
100
AcDbEntity
  8
miary_podzial
370
18
100
AcDbText
 39
0.18
 10
7571164.50999999605
 20
5712018.51999999676
 40
1.80
  1
-1.95-
 50
0.00
 41
0.66
  7
STANDARD
 72
1
 11
7571167.20999999624
 21
5712017.91999999713
100
AcDbText
 73
1
  0
TEXT
  5
13F
100
AcDbEntity
  8
miary_podzial
370
18
100
AcDbText
 39
0.18
 10
7571145.16955886968
 20
5711990.03341415059
 40
1.80
  1
-46.03-
 50
-296.60
 41
0.66
  7
STANDARD
 72
1
 11
7571147.11649253871
 21
5711992.58134454396
100
AcDbText
 73
1
  0
TEXT
  5
140
100
AcDbEntity
  8
miary_podzial
370
18
100
AcDbText
 39
0.18
 10
7571077.60047882795
 20
5712006.6570709385
 40
1.80
  1
-123.89-
 50
-26.10
 41
0.66
  7
STANDARD
 72
1
 11
7571080.56941459887
 21
5712004.53447338194
100
AcDbText
 73
1
  0
TEXT
  5
141
100
AcDbEntity
  8
miary_podzial
370
18
100
AcDbText
 39
0.18
 10
7570997.71459123678
 20
5712045.80409831181
 40
1.80
  1
-54.93-
 50
-26.10
 41
0.66
  7
STANDARD
 72
1
 11
7571000.27941459883
 21
5712043.87947338168
100
AcDbText
 73
1
  0
TEXT
  5
142
100
AcDbEntity
  8
miary_podzial
370
18
100
AcDbText
 39
0.18
 10
7571033.41556503158
 20
5712049.9516123673
 40
1.80
  1
-45.89-
 50
-296.00
 41
0.66
  7
STANDARD
 72
1
 11
7571035.33571057115
 21
5712052.51979092509
100
AcDbText
 73
1
  0
TEXT
  5
143
100
AcDbEntity
  8
miary_podzial
370
18
100
AcDbText
 39
0.18
 10
7571044.02973274514
 20
5712071.65820931364
 40
1.80
  1
-1.54-
 50
-295.70
 41
0.66
  7
STANDARD
 72
1
 11
7571045.74125848617
 21
5712073.83092182036
100
AcDbText
 73
1
  0
TEXT
  5
144
100
AcDbEntity
  8
miary_podzial
370
18
100
AcDbText
 39
0.18
 10
7571053.18668269645
 20
5712069.29395322409
 40
1.80
  1
-24.12-
 50
-28.60
 41
0.66
  7
STANDARD
 72
1
 11
7571055.6651139548
 21
5712067.25928408653
100
AcDbText
 73
1
  0
TEXT
  5
145
100
AcDbEntity
  8
miary_podzial
370
25
100
AcDbText
 39
0.25
 10
7571027.37999999616
 20
5712068.91999999713
 40
2.50
  1
8-1620
 50
0.00
 41
0.66
  7
STANDARD
 72
0
 11
7571027.37999999616
 21
5712068.08666666411
100
AcDbText
 73
1
  0
TEXT
  5
146
100
AcDbEntity
  8
numery_punktow
370
25
100
AcDbText
 39
0.25
 10
7571161.89999999665
 20
5712025.78999999724
 40
2.50
  1
8-11
 50
0.00
 41
0.66
  7
STANDARD
 72
0
 11
7571161.89999999665
 21
5712024.95666666422
100
AcDbText
 73
1
  0
TEXT
  5
147
100
AcDbEntity
  8
numery_punktow
370
25
100
AcDbText
 39
0.25
 10
7571128.46999999601
 20
5711974.5699999975
 40
2.50
  1
8-12
 50
0.00
 41
0.66
  7
STANDARD
 72
0
 11
7571128.46999999601
 21
5711973.73666666448
100
AcDbText
 73
1
  0
TEXT
  5
148
100
AcDbEntity
  8
numery_punktow
370
25
100
AcDbText
 39
0.25
 10
7571007.1699999962
 20
5712101.54999999702
 40
2.50
  1
8-10
 50
0.00
 41
0.66
  7
STANDARD
 72
0
 11
7571007.1699999962
 21
5712100.716666664
100
AcDbText
 73
1
  0
TEXT
  5
149
100
AcDbEntity
  8
numery_punktow
370
25
100
AcDbText
 39
0.25
 10
7570967.21999999601
 20
5712055.75999999698
 40
2.50
  1
8-15
 50
0.00
 41
0.66
  7
STANDARD
 72
0
 11
7570967.21999999601
 21
5712054.92666666396
100
AcDbText
 73
1
  0
TEXT
  5
14A
100
AcDbEntity
  8
NUMERY_DZIALEK_T_0
370
35
100
AcDbText
 39
0.35
 10
7571039.99999999814
 20
5712005.60000009369
 40
3.60
  1
8-68/9
 50
0.00
 41
0.66
  7
STANDARD
 72
0
 11
7571039.99999999814
 21
5712009.19999999832
100
AcDbText
 73
3
  0
TEXT
  5
14B
100
AcDbEntity
  8
NUMERY_DZIALEK_T_0
370
35
100
AcDbText
 39
0.35
 10
7570957.5999999987
 20
5712071.00000009406
 40
3.60
  1
8-251
 50
0.00
 41
0.66
  7
STANDARD
 72
0
 11
7570957.5999999987
 21
5712074.5999999987
100
AcDbText
 73
3
  0
TEXT
  5
14C
100
AcDbEntity
  8
NUMERY_DZIALEK_T_0
370
35
100
AcDbText
 39
0.35
 10
7571074.39999999851
 20
5712063.30000009388
 40
3.60
  1
8-233
 50
0.00
 41
0.66
  7
STANDARD
 72
0
 11
7571074.39999999851
 21
5712066.89999999851
100
AcDbText
 73
3
  0
TEXT
  5
14D
100
AcDbEntity
  8
NUMERY_DZIALEK_T_0
370
35
100
AcDbText
 39
0.35
 10
7571048.26999999583
 20
5712041.59000009205
 40
3.60
  1
8-68/7
 50
0.00
 41
0.66
  7
STANDARD
 72
0
 11
7571048.26999999583
 21
5712045.18999999668
100
AcDbText
 73
3
  0
TEXT
  5
14E
100
AcDbEntity
  8
NUMERY_DZIALEK_T_0
370
35
100
AcDbText
 39
0.35
 10
7571156.39999999851
 20
5711994.80000009388
 40
3.60
  1
8-68/4
 50
0.00
 41
0.66
  7
STANDARD
 72
0
 11
7571156.39999999851
 21
5711998.39999999851
100
AcDbText
 73
3
  0
TEXT
  5
14F
100
AcDbEntity
  8
podzial
370
25
100
AcDbText
 39
0.25
 10
7571049.14999999665
 20
5712077.90999999736
 40
2.50
  1
8-1617
 50
0.00
 41
0.66
  7
STANDARD
 72
0
 11
7571049.14999999665
 21
5712077.07666666433
100
AcDbText
 73
1
  0
TEXT
  5
150
100
AcDbEntity
  8
podzial
370
25
100
AcDbText
 39
0.25
 10
7571014.24999999628
 20
5712029.35999999754
 40
2.50
  1
8-1618
 50
0.00
 41
0.66
  7
STANDARD
 72
0
 11
7571014.24999999628
 21
5712028.52666666452
100
AcDbText
 73
1
  0
TEXT
  5
151
100
AcDbEntity
  8
podzial
370
35
100
AcDbText
 39
0.35
 10
7571016.24999999627
 20
5712092.64999999758
 40
3.50
  1
8-67/11
 50
0.00
 41
0.66
  7
STANDARD
 72
0
 11
7571016.24999999627
 21
5712091.4833333306
100
AcDbText
 73
1
  0
TEXT
  5
152
100
AcDbEntity
  8
podzial
370
35
100
AcDbText
 39
0.35
 10
7570989.99999999814
 20
5712060.79999999888
 40
3.50
  1
8-67/12
 50
0.00
 41
0.66
  7
STANDARD
 72
0
 11
7570989.99999999814
 21
5712059.63333333191
100
AcDbText
 73
1
  0
TEXT
  5
153
100
AcDbEntity
  8
podzial
370
25
100
AcDbText
 39
0.25
 10
7570971.89999999851
 20
5712092.99999999907
 40
2.50
  1
palik drewniany
 50
0.00
 41
0.66
  7
STANDARD
 72
0
 11
7570971.89999999851
 21
5712092.16666666605
100
AcDbText
 73
1
  0
TEXT
  5
154
100
AcDbEntity
  8
podzial
370
25
100
AcDbText
 39
0.25
 10
7571005.69999999832
 20
5712025.69999999832
 40
2.50
  1
palik drewniany
 50
0.00
 41
0.66
  7
STANDARD
 72
0
 11
7571005.69999999832
 21
5712024.8666666653
100
AcDbText
 73
1
  0
TEXT
  5
155
100
AcDbEntity
  8
podzial
370
35
100
AcDbText
 39
0.35
 10
7571109.0999999987
 20
5712049.49999999907
 40
3.50
  1
8-67/13
 50
0.00
 41
0.66
  7
STANDARD
 72
0
 11
7571109.0999999987
 21
5712048.33333333209
100
AcDbText
 73
1
  0
TEXT
  5
156
100
AcDbEntity
  8
podzial
370
35
100
AcDbText
 39
0.35
 10
7571084.29999999795
 20
5712026.49999999907
 40
3.50
  1
8-67/14
 50
0.00
 41
0.66
  7
STANDARD
 72
0
 11
7571084.29999999795
 21
5712025.33333333209
100
AcDbText
 73
1
  0
TEXT
  5
157
100
AcDbEntity
  8
podzial
370
25
100
AcDbText
 39
0.25
 10
7571019.49999999814
 20
5712064.89999999851
 40
2.50
  1
palik drewniany
 50
0.00
 41
0.66
  7
STANDARD
 72
0
 11
7571019.49999999814
 21
5712064.06666666549
100
AcDbText
 73
1
  0
TEXT
  5
158
100
AcDbEntity
  8
podzial
370
25
100
AcDbText
 39
0.25
 10
7571160.80999999586
 20
5712006.66999999713
 40
2.50
  1
palik drewniany
 50
0.00
 41
0.66
  7
STANDARD
 72
0
 11
7571160.80999999586
 21
5712005.83666666411
100
AcDbText
 73
1
  0
TEXT
  5
159
100
AcDbEntity
  8
podzial
370
25
100
AcDbText
 39
0.25
 10
7570975.10999999661
 20
5712096.97999999672
 40
2.50
  1
8-1619
 50
0.00
 41
0.66
  7
STANDARD
 72
0
 11
7570975.10999999661
 21
5712096.1466666637
100
AcDbText
 73
1
  0
TEXT
  5
15A
100
AcDbEntity
  8
podzial
370
25
100
AcDbText
 39
0.25
 10
7571160.62999999616
 20
5712010.43999999668
 40
2.50
  1
8-1621
 50
0.00
 41
0.66
  7
STANDARD
 72
0
 11
7571160.62999999616
 21
5712009.60666666366
100
AcDbText
 73
1
  0
TEXT
  5
15B
100
AcDbEntity
  8
podzial
370
25
100
AcDbText
 39
0.25
 10
7571048.78999999631
 20
5712074.17999999691
 40
2.50
  1
palik drewniany
 50
0.00
 41
0.66
  7
STANDARD
 72
0
 11
7571048.78999999631
 21
5712073.34666666388
100
AcDbText
 73
1
  0
TEXT
  5
15C
100
AcDbEntity
  8
stabilizacja
370
25
100
AcDbText
 39
0.25
 10
7570955.36999999639
 20
5712052.50999999698
 40
2.50
  1
palik drewniany
 50
0.00
 41
0.66
  7
STANDARD
 72
0
 11
7570955.36999999639
 21
5712051.67666666396
100
AcDbText
 73
1
  0
TEXT
  5
15D
100
AcDbEntity
  8
stabilizacja
370
25
100
AcDbText
 39
0.25
 10
7571006.49999999814
 20
5712105.69999999832
 40
2.50
  1
palik drewniany
 50
0.00
 41
0.66
  7
STANDARD
 72
0
 11
7571006.49999999814
 21
5712104.8666666653
100
AcDbText
 73
1
  0
TEXT
  5
15E
100
AcDbEntity
  8
stabilizacja
370
25
100
AcDbText
 39
0.25
 10
7571161.62999999616
 20
5712022.35999999754
 40
2.50
  1
palik drewniany
 50
0.00
 41
0.66
  7
STANDARD
 72
0
 11
7571161.62999999616
 21
5712021.52666666452
100
AcDbText
 73
1
  0
TEXT
  5
15F
100
AcDbEntity
  8
stabilizacja
370
25
100
AcDbText
 39
0.25
 10
7571117.15999999642
 20
5711971.07999999728
 40
2.50
  1
palik drewniany
 50
0.00
 41
0.66
  7
STANDARD
 72
0
 11
7571117.15999999642
 21
5711970.24666666426
100
AcDbText
 73
1
  0
POLYLINE
  5
160
100
AcDbEntity
  8
miary_podzial
  6
CONTINUOUS
370
13
100
AcDb3dPolyline
 66
1
 70
136
  0
VERTEX
  5
161
100
AcDbEntity
  8
miary_podzial
100
AcDbVertex
100
AcDb3dPolylineVertex
 10
7571170.63962972257
 20
5712018.06999999657
 70
32
  0
VERTEX
  5
162
100
AcDbEntity
  8
miary_podzial
100
AcDbVertex
100
AcDb3dPolylineVertex
 10
7571163.78037027083
 20
5712018.06999999657
 70
32
  0
VERTEX
  5
163
100
AcDbEntity
  8
miary_podzial
100
AcDbVertex
100
AcDb3dPolylineVertex
 10
7571157.28500000201
 20
5712019.43800000101
 70
32
  0
SEQEND
  5
164
100
AcDbEntity
  8
miary_podzial
  0
POLYLINE
  5
165
100
AcDbEntity
  8
miary_podzial
  6
CONTINUOUS
370
13
100
AcDb3dPolyline
 66
1
 70
136
  0
VERTEX
  5
166
100
AcDbEntity
  8
miary_podzial
100
AcDbVertex
100
AcDb3dPolylineVertex
 10
7571027.37999999616
 20
5712068.29499999713
 70
32
  0
VERTEX
  5
167
100
AcDbEntity
  8
miary_podzial
100
AcDbVertex
100
AcDb3dPolylineVertex
 10
7571037.21816902794
 20
5712068.29499999713
 70
32
  0
VERTEX
  5
168
100
AcDbEntity
  8
miary_podzial
100
AcDbVertex
100
AcDb3dPolylineVertex
 10
7571045.19000000041
 20
5712073.24000000022
 70
32
  0
SEQEND
  5
169
100
AcDbEntity
  8
miary_podzial
  0
POLYLINE
  5
16A
100
AcDbEntity
  8
miary_podzial
  6
CONTINUOUS
370
13
100
AcDb3dPolyline
 66
1
 70
136
  0
VERTEX
  5
16B
100
AcDbEntity
  8
miary_podzial
100
AcDbVertex
100
AcDb3dPolylineVertex
 10
7571059.02269775234
 20
5712077.28499999736
 70
32
  0
VERTEX
  5
16C
100
AcDbEntity
  8
miary_podzial
100
AcDbVertex
100
AcDb3dPolylineVertex
 10
7571049.14999999665
 20
5712077.28499999736
 70
32
  0
VERTEX
  5
16D
100
AcDbEntity
  8
miary_podzial
100
AcDbVertex
100
AcDb3dPolylineVertex
 10
7571045.86435183883
 20
5712074.63321529422
 70
32
  0
SEQEND
  5
16E
100
AcDbEntity
  8
miary_podzial
  0
POLYLINE
  5
16F
100
AcDbEntity
  8
numery_punktow
  6
CONTINUOUS
370
13
100
AcDb3dPolyline
 66
1
 70
136
  0
VERTEX
  5
170
100
AcDbEntity
  8
numery_punktow
100
AcDbVertex
100
AcDb3dPolylineVertex
 10
7571168.64762645122
 20
5712025.16499999724
 70
32
  0
VERTEX
  5
171
100
AcDbEntity
  8
numery_punktow
100
AcDbVertex
100
AcDb3dPolylineVertex
 10
7571161.89999999665
 20
5712025.16499999724
 70
32
  0
VERTEX
  5
172
100
AcDbEntity
  8
numery_punktow
100
AcDbVertex
100
AcDb3dPolylineVertex
 10
7571157.75999999978
 20
5712020.40000000037
 70
32
  0
SEQEND
  5
173
100
AcDbEntity
  8
numery_punktow
  0
POLYLINE
  5
174
100
AcDbEntity
  8
podzial
  6
CONTINUOUS
370
13
100
AcDb3dPolyline
 66
1
 70
136
  0
VERTEX
  5
175
100
AcDbEntity
  8
podzial
100
AcDbVertex
100
AcDb3dPolylineVertex
 10
7571038.88884294685
 20
5712091.42499999795
 70
32
  0
VERTEX
  5
176
100
AcDbEntity
  8
podzial
100
AcDbVertex
100
AcDb3dPolylineVertex
 10
7571016.24999999627
 20
5712091.42499999795
 70
32
  0
VERTEX
  5
177
100
AcDbEntity
  8
podzial
100
AcDbVertex
100
AcDb3dPolylineVertex
 10
7571018.69999999646
 20
5712087.21999999694
 70
32
  0
SEQEND
  5
178
100
AcDbEntity
  8
podzial
  0
POLYLINE
  5
179
100
AcDbEntity
  8
podzial
  6
CONTINUOUS
370
13
100
AcDb3dPolyline
 66
1
 70
136
  0
VERTEX
  5
17A
100
AcDbEntity
  8
podzial
100
AcDbVertex
100
AcDb3dPolylineVertex
 10
7571131.73884294927
 20
5712048.27499999944
 70
32
  0
VERTEX
  5
17B
100
AcDbEntity
  8
podzial
100
AcDbVertex
100
AcDb3dPolylineVertex
 10
7571109.0999999987
 20
5712048.27499999944
 70
32
  0
VERTEX
  5
17C
100
AcDbEntity
  8
podzial
100
AcDbVertex
100
AcDb3dPolylineVertex
 10
7571103.51999999583
 20
5712046.01999999676
 70
32
  0
SEQEND
  5
17D
100
AcDbEntity
  8
podzial
  0
POLYLINE
  5
17E
100
AcDbEntity
  8
podzial
  6
CONTINUOUS
370
13
100
AcDb3dPolyline
 66
1
 70
136
  0
VERTEX
  5
17F
100
AcDbEntity
  8
podzial
100
AcDbVertex
100
AcDb3dPolylineVertex
 10
7571170.46816902794
 20
5712009.81499999668
 70
32
  0
VERTEX
  5
180
100
AcDbEntity
  8
podzial
100
AcDbVertex
100
AcDb3dPolylineVertex
 10
7571160.62999999616
 20
5712009.81499999668
 70
32
  0
VERTEX
  5
181
100
AcDbEntity
  8
podzial
100
AcDbVertex
100
AcDb3dPolylineVertex
 10
7571156.88999999966
 20
5712018.66000000015
 70
32
  0
SEQEND
  5
182
100
AcDbEntity
  8
podzial
  0
POLYLINE
  5
183
100
AcDbEntity
  8
podzial
  6
CONTINUOUS
370
13
100
AcDb3dPolyline
 66
1
 70
136
  0
VERTEX
  5
184
100
AcDbEntity
  8
podzial
100
AcDbVertex
100
AcDb3dPolylineVertex
 10
7570975.10999999661
 20
5712096.35499999672
 70
32
  0
VERTEX
  5
185
100
AcDbEntity
  8
podzial
100
AcDbVertex
100
AcDb3dPolylineVertex
 10
7570984.9826977523
 20
5712096.35499999672
 70
32
  0
VERTEX
  5
186
100
AcDbEntity
  8
podzial
100
AcDbVertex
100
AcDb3dPolylineVertex
 10
7570996.58999999985
 20
5712096.99000000022
 70
32
  0
SEQEND
  5
187
100
AcDbEntity
  8
podzial
  0
POLYLINE
  5
188
100
AcDbEntity
  8
stabilizacja
  6
CONTINUOUS
370
13
100
AcDb3dPolyline
 66
1
 70
136
  0
VERTEX
  5
189
100
AcDbEntity
  8
stabilizacja
100
AcDbVertex
100
AcDb3dPolylineVertex
 10
7571024.92702291813
 20
5712105.07499999832
 70
32
  0
VERTEX
  5
18A
100
AcDbEntity
  8
stabilizacja
100
AcDbVertex
100
AcDb3dPolylineVertex
 10
7571006.49999999814
 20
5712105.07499999832
 70
32
  0
VERTEX
  5
18B
100
AcDbEntity
  8
stabilizacja
100
AcDbVertex
100
AcDb3dPolylineVertex
 10
7570997.21999999974
 20
5712098.20999999996
 70
32
  0
SEQEND
  5
18C
100
AcDbEntity
  8
stabilizacja
  0
POLYLINE
  5
18D
100
AcDbEntity
  8
stabilizacja
  6
CONTINUOUS
370
13
100
AcDb3dPolyline
 66
1
 70
136
  0
VERTEX
  5
18E
100
AcDbEntity
  8
stabilizacja
100
AcDbVertex
100
AcDb3dPolylineVertex
 10
7570957.5999999987
 20
5712070.10000011791
 70
32
  0
VERTEX
  5
18F
100
AcDbEntity
  8
stabilizacja
100
AcDbVertex
100
AcDb3dPolylineVertex
 10
7570969.51415588986
 20
5712070.10000011791
 70
32
  0
VERTEX
  5
190
100
AcDbEntity
  8
stabilizacja
100
AcDbVertex
100
AcDb3dPolylineVertex
 10
7570979.39999999851
 20
5712073.19999999832
 70
32
  0
SEQEND
  5
191
100
AcDbEntity
  8
stabilizacja
  0
ENDSEC
  0
SECTION
  2
OBJECTS
  0
DICTIONARY
  5
192
330
0
100
AcDbDictionary
280
0
281
1
  3
ACAD_GROUP
350
193
  3
ACAD_LAYOUT
350
194
  3
ACAD_MLINESTYLE
350
195
  3
ACAD_PLOTSETTINGS
350
196
  3
ACAD_PLOTSTYLENAME
350
197
  0
DICTIONARY
  5
193
102
{ACAD_REACTORS
330
192
102
}
330
192
100
AcDbDictionary
280
0
281
1
  0
DICTIONARY
  5
194
102
{ACAD_REACTORS
330
192
102
}
330
192
100
AcDbDictionary
280
0
281
1
  3
Layout
350
1E
  3
Model
350
1C
  0
DICTIONARY
  5
195
102
{ACAD_REACTORS
330
192
102
}
330
192
100
AcDbDictionary
280
0
281
1
  3
Standard
350
198
  0
DICTIONARY
  5
196
102
{ACAD_REACTORS
330
192
102
}
330
192
100
AcDbDictionary
280
0
281
1
  0
ACDBDICTIONARYWDFLT
  5
197
102
{ACAD_REACTORS
330
192
102
}
330
192
100
AcDbDictionary
281
1
  3
Normal
350
A
100
AcDbDictionaryWithDefault
340
A
  0
LAYOUT
  5
1E
100
AcDbPlotSettings
  1

  2

  4

  6

 40
0.0
 41
0.0
 42
0.0
 43
0.0
 44
0.0
 45
0.0
 46
0.0
 47
0.0
 48
0.0
 49
0.0
140
0.0
141
0.0
142
1.0
143
1.0
 70
688
 72
1
 73
0
 74
5
  7

 75
0
147
1.0
148
0.0
149
0.0
100
AcDbLayout
  1
Layout
 70
1
 71
1
 10
0.0
 20
0.0
 11
420.0
 21
297.0
 12
0.0
 22
0.0
 32
0.0
 14
100000000000000000000.0
 24
100000000000000000000.0
 34
100000000000000000000.0
 15
-100000000000000000000.0
 25
-100000000000000000000.0
 35
-100000000000000000000.0
146
0.0
 13
0.0
 23
0.0
 33
0.0
 16
1.0
 26
0.0
 36
0.0
 17
0.0
 27
1.0
 37
0.0
 76
0
330
1D
  0
LAYOUT
  5
1C
100
AcDbPlotSettings
  1

  2

  4

  6

 40
0.0
 41
0.0
 42
0.0
 43
0.0
 44
0.0
 45
0.0
 46
0.0
 47
0.0
 48
0.0
 49
0.0
140
0.0
141
0.0
142
1.0
143
1.0
 70
1712
 72
1
 73
0
 74
0
  7

 75
0
147
1.0
148
0.0
149
0.0
100
AcDbLayout
  1
Model
 70
1
 71
0
 10
0.0
 20
0.0
 11
12.0
 21
9.0
 12
0.0
 22
0.0
 32
0.0
 14
0.0
 24
0.0
 34
0.0
 15
0.0
 25
0.0
 35
0.0
146
0.0
 13
0.0
 23
0.0
 33
0.0
 16
1.0
 26
0.0
 36
0.0
 17
0.0
 27
1.0
 37
0.0
 76
0
330
1B
  0
MLINESTYLE
  5
198
102
{ACAD_REACTORS
330
195
102
}
330
195
100
AcDbMlineStyle
  2
Standard
 70
0
  3

 62
256
 51
90.0
 52
90.0
  2
Standard
 71
2
 49
0.5
 62
256
  6
ByLayer
 49
-0.5
 62
256
  6
ByLayer
  0
ACDBPLACEHOLDER
  5
A
  0
ENDSEC
  0
EOF
