  0
SECTION
  2
HEADER
  9
$ACADVER
  1
AC1018
  9
$HANDSEED
  5
FFFFFF
  9
$EXTMAX
 10
7572609.26999999955
 20
5712089.08000000007
 30
1000000.00
  9
$EXTMIN
 10
7570921.48000000045
 20
5710929.12999999989
 30
0.00
  9
$LIMMIN
 10
7570921.48000000045
 20
5710929.12999999989
  9
$LIMMAX
 10
7572609.26999999955
 20
5712089.08000000007
  9
$DIMASZ
 40
2.5
  9
$DIMGAP
 40
0.625
  9
$INSUNITS
 70
6
  9
$MEASUREMENT
 70
1
  9
$DIMEXO
 40
0.625
  9
$DIMTXT
 40
2.5
  9
$DIMSTYLE
  2
Standard
  9
$PLIMMIN
 10
0.0
 20
0.0
  9
$PLIMMAX
 10
210.0
 20
297.0
  9
$DIMEXE
 40
1.25
  9
$TEXTSIZE
 40
2.5
  9
$TEXTSTYLE
  7
Standard
  9
$LWDISPLAY
290
1
  9
$TDCREATE
 40
45756.477606285
  9
$TDUCREATE
 40
45756.394272951
  9
$TDUPDATE
 40
45756.477606285
  9
$TDUUPDATE
 40
45756.394272951
  9
$TDINDWG
 40
0.0
  9
$TDUSRTIMER
 40
0.0
  9
$USRTIMER
 70
1
  0
ENDSEC
  0
SECTION
  2
TABLES
  0
TABLE
  2
VPORT
  5
1
100
AcDbSymbolTable
 70
1
  0
VPORT
  5
2
100
AcDbSymbolTableRecord
100
AcDbViewportTableRecord
  2
*ACTIVE
 70
0
 10
0.0
 20
0.0
 11
1.0
 21
1.0
 12
7571765.375
 22
5711509.105
 13
0.0
 23
0.0
 14
1.0
 24
1.0
 15
0.0
 25
0.0
 16
0.0
 26
0.0
 36
1.0
 17
0.0
 27
0.0
 37
0.0
 40
1159.950
 41
1.455
 42
50.0
 43
0.0
 44
0.0
 50
0.0
 51
0.0
 71
0
 72
100
 73
1
 74
1
 75
0
 76
0
 77
0
 78
0
  0
ENDTAB
  0
TABLE
  2
LTYPE
  5
3
100
AcDbSymbolTable
 70
3
  0
LTYPE
  5
4
100
AcDbSymbolTableRecord
100
AcDbLinetypeTableRecord
  2
ByBlock
 70
0
  3

 72
65
 73
0
 40
0.0
  0
LTYPE
  5
5
100
AcDbSymbolTableRecord
100
AcDbLinetypeTableRecord
  2
ByLayer
 70
0
  3

 72
65
 73
0
 40
0.0
  0
LTYPE
  5
6
100
AcDbSymbolTableRecord
100
AcDbLinetypeTableRecord
  2
CONTINUOUS
 70
0
  3
Solid line
 72
65
 73
0
 40
0.0
  0
ENDTAB
  0
TABLE
  2
LAYER
  5
7
100
AcDbSymbolTable
 70
2
  0
LAYER
  5
8
100
AcDbSymbolTableRecord
100
AcDbLayerTableRecord
  2
0
 70
0
420
0
  6
CONTINUOUS
370
18
390
9
  0
LAYER
  5
A
100
AcDbSymbolTableRecord
100
AcDbLayerTableRecord
  2
ewns_dzialki
 70
0
420
0
  6
CONTINUOUS
370
18
390
9
  0
ENDTAB
  0
TABLE
  2
STYLE
  5
B
100
AcDbSymbolTable
 70
2
  0
STYLE
  5
C
100
AcDbSymbolTableRecord
100
AcDbTextStyleTableRecord
  2
STANDARD
 70
0
 40
0.0
 41
1.0
 50
0.0
 71
0
  3
simplex.shx
  4

  0
STYLE
  5
D
100
AcDbSymbolTableRecord
100
AcDbTextStyleTableRecord
  2
STANDARD_ITALIC
 70
0
 40
0.0
 41
1.0
 50
15.0
 71
0
  3
simplex.shx
  4

  0
ENDTAB
  0
TABLE
  2
VIEW
  5
E
100
AcDbSymbolTable
 70
0
  0
ENDTAB
  0
TABLE
  2
UCS
  5
F
100
AcDbSymbolTable
 70
0
  0
ENDTAB
  0
TABLE
  2
APPID
  5
10
100
AcDbSymbolTable
 70
1
  0
APPID
  5
11
100
AcDbSymbolTableRecord
100
AcDbRegAppTableRecord
  2
ACAD
 70
0
  0
ENDTAB
  0
TABLE
  2
DIMSTYLE
  5
12
100
AcDbSymbolTable
 70
1
100
AcDbDimStyleTable
  0
DIMSTYLE
105
13
100
AcDbSymbolTableRecord
100
AcDbDimStyleTableRecord
  2
Standard
 70
0
340
C
  0
ENDTAB
  0
TABLE
  2
BLOCK_RECORD
  5
14
100
AcDbSymbolTable
 70
2
  0
BLOCK_RECORD
  5
15
100
AcDbSymbolTableRecord
100
AcDbBlockTableRecord
  2
*Model_Space
340
16
  0
BLOCK_RECORD
  5
17
100
AcDbSymbolTableRecord
100
AcDbBlockTableRecord
  2
*Paper_Space
340
18
  0
ENDTAB
  0
ENDSEC
  0
SECTION
  2
BLOCKS
  0
BLOCK
  5
19
100
AcDbEntity
  8
0
100
AcDbBlockBegin
  2
*Model_Space
 70
0
 10
0.0
 20
0.0
 30
0.0
  3
*Model_Space
  1

  0
ENDBLK
  5
1A
100
AcDbEntity
  8
0
100
AcDbBlockEnd
  0
BLOCK
  5
1B
100
AcDbEntity
 67
1
  8
0
100
AcDbBlockBegin
  2
*Paper_Space
 70
0
 10
0.0
 20
0.0
 30
0.0
  3
*Paper_Space
  1

  0
ENDBLK
  5
1C
100
AcDbEntity
 67
1
  8
0
100
AcDbBlockEnd
  0
ENDSEC
  0
SECTION
  2
ENTITIES
  0
POLYLINE
  5
1D
100
AcDbEntity
  8
ewns_dzialki
  6
CONTINUOUS
370
18
100
AcDb2dPolyline
 66
1
 70
129
  0
VERTEX
  5
1E
100
AcDbEntity
  8
ewns_dzialki
100
AcDbVertex
100
AcDb2dVertex
 10
7571601.48000000045
 20
5711295.87000000011
  0
VERTEX
  5
1F
100
AcDbEntity
  8
ewns_dzialki
100
AcDbVertex
100
AcDb2dVertex
 10
7571629.99000000022
 20
5711213.26999999955
  0
VERTEX
  5
20
100
AcDbEntity
  8
ewns_dzialki
100
AcDbVertex
100
AcDb2dVertex
 10
7571669.49000000022
 20
5711098.79000000004
  0
VERTEX
  5
21
100
AcDbEntity
  8
ewns_dzialki
100
AcDbVertex
100
AcDb2dVertex
 10
7571678.8200000003
 20
5711071.75999999978
  0
VERTEX
  5
22
100
AcDbEntity
  8
ewns_dzialki
100
AcDbVertex
100
AcDb2dVertex
 10
7571711.48000000045
 20
5710977.23000000045
  0
VERTEX
  5
23
100
AcDbEntity
  8
ewns_dzialki
100
AcDbVertex
100
AcDb2dVertex
 10
7571703.15000000037
 20
5710972.25999999978
  0
VERTEX
  5
24
100
AcDbEntity
  8
ewns_dzialki
100
AcDbVertex
100
AcDb2dVertex
 10
7571699.08000000008
 20
5710969.26999999955
  0
VERTEX
  5
25
100
AcDbEntity
  8
ewns_dzialki
100
AcDbVertex
100
AcDb2dVertex
 10
7571653.83999999985
 20
5711094.20999999996
  0
VERTEX
  5
26
100
AcDbEntity
  8
ewns_dzialki
100
AcDbVertex
100
AcDb2dVertex
 10
7571586.13999999966
 20
5711290.08999999985
  0
VERTEX
  5
27
100
AcDbEntity
  8
ewns_dzialki
100
AcDbVertex
100
AcDb2dVertex
 10
7571517.26999999955
 20
5711490.00999999978
  0
VERTEX
  5
28
100
AcDbEntity
  8
ewns_dzialki
100
AcDbVertex
100
AcDb2dVertex
 10
7571458.16000000015
 20
5711661.5
  0
VERTEX
  5
29
100
AcDbEntity
  8
ewns_dzialki
100
AcDbVertex
100
AcDb2dVertex
 10
7571472.65000000037
 20
5711670.1799999997
  0
VERTEX
  5
2A
100
AcDbEntity
  8
ewns_dzialki
100
AcDbVertex
100
AcDb2dVertex
 10
7571532.71999999974
 20
5711496.62000000011
  0
SEQEND
  5
2B
100
AcDbEntity
  8
ewns_dzialki
  0
POLYLINE
  5
2C
100
AcDbEntity
  8
ewns_dzialki
  6
CONTINUOUS
370
18
100
AcDb2dPolyline
 66
1
 70
129
  0
VERTEX
  5
2D
100
AcDbEntity
  8
ewns_dzialki
100
AcDbVertex
100
AcDb2dVertex
 10
7571630.70999999996
 20
5711128.74000000022
  0
VERTEX
  5
2E
100
AcDbEntity
  8
ewns_dzialki
100
AcDbVertex
100
AcDb2dVertex
 10
7571667.63999999966
 20
5711025.9299999997
  0
VERTEX
  5
2F
100
AcDbEntity
  8
ewns_dzialki
100
AcDbVertex
100
AcDb2dVertex
 10
7571674.53000000026
 20
5711005.09999999963
  0
VERTEX
  5
30
100
AcDbEntity
  8
ewns_dzialki
100
AcDbVertex
100
AcDb2dVertex
 10
7571689.41999999993
 20
5710962.71999999974
  0
VERTEX
  5
31
100
AcDbEntity
  8
ewns_dzialki
100
AcDbVertex
100
AcDb2dVertex
 10
7571678.95999999996
 20
5710955.03000000026
  0
VERTEX
  5
32
100
AcDbEntity
  8
ewns_dzialki
100
AcDbVertex
100
AcDb2dVertex
 10
7571670.75999999978
 20
5710975.66999999993
  0
VERTEX
  5
33
100
AcDbEntity
  8
ewns_dzialki
100
AcDbVertex
100
AcDb2dVertex
 10
7571654.70000000019
 20
5711020.5700000003
  0
VERTEX
  5
34
100
AcDbEntity
  8
ewns_dzialki
100
AcDbVertex
100
AcDb2dVertex
 10
7571653.78000000026
 20
5711020.19000000041
  0
VERTEX
  5
35
100
AcDbEntity
  8
ewns_dzialki
100
AcDbVertex
100
AcDb2dVertex
 10
7571650.91999999992
 20
5711027.23000000045
  0
VERTEX
  5
36
100
AcDbEntity
  8
ewns_dzialki
100
AcDbVertex
100
AcDb2dVertex
 10
7571651.9299999997
 20
5711027.65000000037
  0
VERTEX
  5
37
100
AcDbEntity
  8
ewns_dzialki
100
AcDbVertex
100
AcDb2dVertex
 10
7571642.78000000026
 20
5711054.24000000022
  0
VERTEX
  5
38
100
AcDbEntity
  8
ewns_dzialki
100
AcDbVertex
100
AcDb2dVertex
 10
7571631.38999999966
 20
5711087.33000000007
  0
VERTEX
  5
39
100
AcDbEntity
  8
ewns_dzialki
100
AcDbVertex
100
AcDb2dVertex
 10
7571562.90000000037
 20
5711281.61000000034
  0
VERTEX
  5
3A
100
AcDbEntity
  8
ewns_dzialki
100
AcDbVertex
100
AcDb2dVertex
 10
7571494.29999999981
 20
5711480.51999999955
  0
VERTEX
  5
3B
100
AcDbEntity
  8
ewns_dzialki
100
AcDbVertex
100
AcDb2dVertex
 10
7571437.16999999993
 20
5711649.08999999985
  0
VERTEX
  5
3C
100
AcDbEntity
  8
ewns_dzialki
100
AcDbVertex
100
AcDb2dVertex
 10
7571448.91999999993
 20
5711656.11000000034
  0
VERTEX
  5
3D
100
AcDbEntity
  8
ewns_dzialki
100
AcDbVertex
100
AcDb2dVertex
 10
7571507.26999999955
 20
5711486.05999999959
  0
VERTEX
  5
3E
100
AcDbEntity
  8
ewns_dzialki
100
AcDbVertex
100
AcDb2dVertex
 10
7571576.08999999985
 20
5711286.5700000003
  0
SEQEND
  5
3F
100
AcDbEntity
  8
ewns_dzialki
  0
POLYLINE
  5
40
100
AcDbEntity
  8
ewns_dzialki
  6
CONTINUOUS
370
18
100
AcDb2dPolyline
 66
1
 70
129
  0
VERTEX
  5
41
100
AcDbEntity
  8
ewns_dzialki
100
AcDbVertex
100
AcDb2dVertex
 10
7571458.16000000015
 20
5711661.5
  0
VERTEX
  5
42
100
AcDbEntity
  8
ewns_dzialki
100
AcDbVertex
100
AcDb2dVertex
 10
7571517.26999999955
 20
5711490.00999999978
  0
VERTEX
  5
43
100
AcDbEntity
  8
ewns_dzialki
100
AcDbVertex
100
AcDb2dVertex
 10
7571586.13999999966
 20
5711290.08999999985
  0
VERTEX
  5
44
100
AcDbEntity
  8
ewns_dzialki
100
AcDbVertex
100
AcDb2dVertex
 10
7571653.83999999985
 20
5711094.20999999996
  0
VERTEX
  5
45
100
AcDbEntity
  8
ewns_dzialki
100
AcDbVertex
100
AcDb2dVertex
 10
7571699.08000000008
 20
5710969.26999999955
  0
VERTEX
  5
46
100
AcDbEntity
  8
ewns_dzialki
100
AcDbVertex
100
AcDb2dVertex
 10
7571689.41999999993
 20
5710962.71999999974
  0
VERTEX
  5
47
100
AcDbEntity
  8
ewns_dzialki
100
AcDbVertex
100
AcDb2dVertex
 10
7571674.53000000026
 20
5711005.09999999963
  0
VERTEX
  5
48
100
AcDbEntity
  8
ewns_dzialki
100
AcDbVertex
100
AcDb2dVertex
 10
7571667.63999999966
 20
5711025.9299999997
  0
VERTEX
  5
49
100
AcDbEntity
  8
ewns_dzialki
100
AcDbVertex
100
AcDb2dVertex
 10
7571630.70999999996
 20
5711128.74000000022
  0
VERTEX
  5
4A
100
AcDbEntity
  8
ewns_dzialki
100
AcDbVertex
100
AcDb2dVertex
 10
7571576.08999999985
 20
5711286.5700000003
  0
VERTEX
  5
4B
100
AcDbEntity
  8
ewns_dzialki
100
AcDbVertex
100
AcDb2dVertex
 10
7571507.26999999955
 20
5711486.05999999959
  0
VERTEX
  5
4C
100
AcDbEntity
  8
ewns_dzialki
100
AcDbVertex
100
AcDb2dVertex
 10
7571448.91999999993
 20
5711656.11000000034
  0
SEQEND
  5
4D
100
AcDbEntity
  8
ewns_dzialki
  0
POLYLINE
  5
4E
100
AcDbEntity
  8
ewns_dzialki
  6
CONTINUOUS
370
18
100
AcDb2dPolyline
 66
1
 70
129
  0
VERTEX
  5
4F
100
AcDbEntity
  8
ewns_dzialki
100
AcDbVertex
100
AcDb2dVertex
 10
7571598.16999999993
 20
5711745.23000000045
  0
VERTEX
  5
50
100
AcDbEntity
  8
ewns_dzialki
100
AcDbVertex
100
AcDb2dVertex
 10
7571613.1799999997
 20
5711754.20000000019
  0
VERTEX
  5
51
100
AcDbEntity
  8
ewns_dzialki
100
AcDbVertex
100
AcDb2dVertex
 10
7571671.46999999974
 20
5711596.63999999966
  0
VERTEX
  5
52
100
AcDbEntity
  8
ewns_dzialki
100
AcDbVertex
100
AcDb2dVertex
 10
7571654.25
 20
5711591.12000000011
  0
SEQEND
  5
53
100
AcDbEntity
  8
ewns_dzialki
  0
POLYLINE
  5
54
100
AcDbEntity
  8
ewns_dzialki
  6
CONTINUOUS
370
18
100
AcDb2dPolyline
 66
1
 70
129
  0
VERTEX
  5
55
100
AcDbEntity
  8
ewns_dzialki
100
AcDbVertex
100
AcDb2dVertex
 10
7572018.62000000011
 20
5711351.70999999996
  0
VERTEX
  5
56
100
AcDbEntity
  8
ewns_dzialki
100
AcDbVertex
100
AcDb2dVertex
 10
7572024.25
 20
5711432.25
  0
VERTEX
  5
57
100
AcDbEntity
  8
ewns_dzialki
100
AcDbVertex
100
AcDb2dVertex
 10
7572051.87000000011
 20
5711395.49000000022
  0
SEQEND
  5
58
100
AcDbEntity
  8
ewns_dzialki
  0
POLYLINE
  5
59
100
AcDbEntity
  8
ewns_dzialki
  6
CONTINUOUS
370
18
100
AcDb2dPolyline
 66
1
 70
129
  0
VERTEX
  5
5A
100
AcDbEntity
  8
ewns_dzialki
100
AcDbVertex
100
AcDb2dVertex
 10
7572018.62000000011
 20
5711351.70999999996
  0
VERTEX
  5
5B
100
AcDbEntity
  8
ewns_dzialki
100
AcDbVertex
100
AcDb2dVertex
 10
7572015.29999999981
 20
5711347.33000000007
  0
VERTEX
  5
5C
100
AcDbEntity
  8
ewns_dzialki
100
AcDbVertex
100
AcDb2dVertex
 10
7572021.83999999985
 20
5711435.45000000019
  0
VERTEX
  5
5D
100
AcDbEntity
  8
ewns_dzialki
100
AcDbVertex
100
AcDb2dVertex
 10
7572024.25
 20
5711432.25
  0
SEQEND
  5
5E
100
AcDbEntity
  8
ewns_dzialki
  0
POLYLINE
  5
5F
100
AcDbEntity
  8
ewns_dzialki
  6
CONTINUOUS
370
18
100
AcDb2dPolyline
 66
1
 70
129
  0
VERTEX
  5
60
100
AcDbEntity
  8
ewns_dzialki
100
AcDbVertex
100
AcDb2dVertex
 10
7571654.25
 20
5711591.12000000011
  0
VERTEX
  5
61
100
AcDbEntity
  8
ewns_dzialki
100
AcDbVertex
100
AcDb2dVertex
 10
7571671.46999999974
 20
5711596.63999999966
  0
VERTEX
  5
62
100
AcDbEntity
  8
ewns_dzialki
100
AcDbVertex
100
AcDb2dVertex
 10
7571684.48000000045
 20
5711561.5
  0
VERTEX
  5
63
100
AcDbEntity
  8
ewns_dzialki
100
AcDbVertex
100
AcDb2dVertex
 10
7571759.79999999981
 20
5711355.55999999959
  0
VERTEX
  5
64
100
AcDbEntity
  8
ewns_dzialki
100
AcDbVertex
100
AcDb2dVertex
 10
7571795.34999999963
 20
5711237.28000000026
  0
VERTEX
  5
65
100
AcDbEntity
  8
ewns_dzialki
100
AcDbVertex
100
AcDb2dVertex
 10
7571805.87999999989
 20
5711209.36000000034
  0
VERTEX
  5
66
100
AcDbEntity
  8
ewns_dzialki
100
AcDbVertex
100
AcDb2dVertex
 10
7571815.94000000041
 20
5711185.01999999955
  0
VERTEX
  5
67
100
AcDbEntity
  8
ewns_dzialki
100
AcDbVertex
100
AcDb2dVertex
 10
7571841.66999999993
 20
5711133.41999999993
  0
VERTEX
  5
68
100
AcDbEntity
  8
ewns_dzialki
100
AcDbVertex
100
AcDb2dVertex
 10
7571831.61000000034
 20
5711126.03000000026
  0
VERTEX
  5
69
100
AcDbEntity
  8
ewns_dzialki
100
AcDbVertex
100
AcDb2dVertex
 10
7571859.53000000026
 20
5711057.38999999966
  0
VERTEX
  5
6A
100
AcDbEntity
  8
ewns_dzialki
100
AcDbVertex
100
AcDb2dVertex
 10
7571844.70000000019
 20
5711051.28000000026
  0
VERTEX
  5
6B
100
AcDbEntity
  8
ewns_dzialki
100
AcDbVertex
100
AcDb2dVertex
 10
7571816.41999999993
 20
5711120.87000000011
  0
VERTEX
  5
6C
100
AcDbEntity
  8
ewns_dzialki
100
AcDbVertex
100
AcDb2dVertex
 10
7571825.04000000004
 20
5711124.37000000011
  0
VERTEX
  5
6D
100
AcDbEntity
  8
ewns_dzialki
100
AcDbVertex
100
AcDb2dVertex
 10
7571814.5
 20
5711146.29999999981
  0
VERTEX
  5
6E
100
AcDbEntity
  8
ewns_dzialki
100
AcDbVertex
100
AcDb2dVertex
 10
7571802.16999999993
 20
5711174.91999999993
  0
VERTEX
  5
6F
100
AcDbEntity
  8
ewns_dzialki
100
AcDbVertex
100
AcDb2dVertex
 10
7571785.12999999989
 20
5711222.48000000045
  0
VERTEX
  5
70
100
AcDbEntity
  8
ewns_dzialki
100
AcDbVertex
100
AcDb2dVertex
 10
7571742.20999999996
 20
5711348.95000000019
  0
VERTEX
  5
71
100
AcDbEntity
  8
ewns_dzialki
100
AcDbVertex
100
AcDb2dVertex
 10
7571667.63999999966
 20
5711554.33000000007
  0
SEQEND
  5
72
100
AcDbEntity
  8
ewns_dzialki
  0
POLYLINE
  5
73
100
AcDbEntity
  8
ewns_dzialki
  6
CONTINUOUS
370
18
100
AcDb2dPolyline
 66
1
 70
129
  0
VERTEX
  5
74
100
AcDbEntity
  8
ewns_dzialki
100
AcDbVertex
100
AcDb2dVertex
 10
7571857.59999999963
 20
5711146.95000000019
  0
VERTEX
  5
75
100
AcDbEntity
  8
ewns_dzialki
100
AcDbVertex
100
AcDb2dVertex
 10
7571858.95999999996
 20
5711145.48000000045
  0
VERTEX
  5
76
100
AcDbEntity
  8
ewns_dzialki
100
AcDbVertex
100
AcDb2dVertex
 10
7571883.54999999981
 20
5711162.70000000019
  0
VERTEX
  5
77
100
AcDbEntity
  8
ewns_dzialki
100
AcDbVertex
100
AcDb2dVertex
 10
7571869.11000000034
 20
5711136.05999999959
  0
VERTEX
  5
78
100
AcDbEntity
  8
ewns_dzialki
100
AcDbVertex
100
AcDb2dVertex
 10
7571874.65000000037
 20
5711101.01999999955
  0
VERTEX
  5
79
100
AcDbEntity
  8
ewns_dzialki
100
AcDbVertex
100
AcDb2dVertex
 10
7571862.79000000004
 20
5711131.8200000003
  0
VERTEX
  5
7A
100
AcDbEntity
  8
ewns_dzialki
100
AcDbVertex
100
AcDb2dVertex
 10
7571856.70000000019
 20
5711140.11000000034
  0
VERTEX
  5
7B
100
AcDbEntity
  8
ewns_dzialki
100
AcDbVertex
100
AcDb2dVertex
 10
7571815.94000000041
 20
5711185.01999999955
  0
VERTEX
  5
7C
100
AcDbEntity
  8
ewns_dzialki
100
AcDbVertex
100
AcDb2dVertex
 10
7571805.87999999989
 20
5711209.36000000034
  0
VERTEX
  5
7D
100
AcDbEntity
  8
ewns_dzialki
100
AcDbVertex
100
AcDb2dVertex
 10
7571795.34999999963
 20
5711237.28000000026
  0
VERTEX
  5
7E
100
AcDbEntity
  8
ewns_dzialki
100
AcDbVertex
100
AcDb2dVertex
 10
7571759.79999999981
 20
5711355.55999999959
  0
VERTEX
  5
7F
100
AcDbEntity
  8
ewns_dzialki
100
AcDbVertex
100
AcDb2dVertex
 10
7571764.83999999985
 20
5711356.1799999997
  0
VERTEX
  5
80
100
AcDbEntity
  8
ewns_dzialki
100
AcDbVertex
100
AcDb2dVertex
 10
7571800.13999999966
 20
5711238.71999999974
  0
VERTEX
  5
81
100
AcDbEntity
  8
ewns_dzialki
100
AcDbVertex
100
AcDb2dVertex
 10
7571810.55999999959
 20
5711211.12000000011
  0
VERTEX
  5
82
100
AcDbEntity
  8
ewns_dzialki
100
AcDbVertex
100
AcDb2dVertex
 10
7571820.55999999959
 20
5711186.9299999997
  0
SEQEND
  5
83
100
AcDbEntity
  8
ewns_dzialki
  0
POLYLINE
  5
84
100
AcDbEntity
  8
ewns_dzialki
  6
CONTINUOUS
370
18
100
AcDb2dPolyline
 66
1
 70
129
  0
VERTEX
  5
85
100
AcDbEntity
  8
ewns_dzialki
100
AcDbVertex
100
AcDb2dVertex
 10
7571598.16999999993
 20
5711745.23000000045
  0
VERTEX
  5
86
100
AcDbEntity
  8
ewns_dzialki
100
AcDbVertex
100
AcDb2dVertex
 10
7571654.25
 20
5711591.12000000011
  0
VERTEX
  5
87
100
AcDbEntity
  8
ewns_dzialki
100
AcDbVertex
100
AcDb2dVertex
 10
7571667.63999999966
 20
5711554.33000000007
  0
VERTEX
  5
88
100
AcDbEntity
  8
ewns_dzialki
100
AcDbVertex
100
AcDb2dVertex
 10
7571742.20999999996
 20
5711348.95000000019
  0
VERTEX
  5
89
100
AcDbEntity
  8
ewns_dzialki
100
AcDbVertex
100
AcDb2dVertex
 10
7571785.12999999989
 20
5711222.48000000045
  0
VERTEX
  5
8A
100
AcDbEntity
  8
ewns_dzialki
100
AcDbVertex
100
AcDb2dVertex
 10
7571802.16999999993
 20
5711174.91999999993
  0
VERTEX
  5
8B
100
AcDbEntity
  8
ewns_dzialki
100
AcDbVertex
100
AcDb2dVertex
 10
7571814.5
 20
5711146.29999999981
  0
VERTEX
  5
8C
100
AcDbEntity
  8
ewns_dzialki
100
AcDbVertex
100
AcDb2dVertex
 10
7571825.04000000004
 20
5711124.37000000011
  0
VERTEX
  5
8D
100
AcDbEntity
  8
ewns_dzialki
100
AcDbVertex
100
AcDb2dVertex
 10
7571816.41999999993
 20
5711120.87000000011
  0
VERTEX
  5
8E
100
AcDbEntity
  8
ewns_dzialki
100
AcDbVertex
100
AcDb2dVertex
 10
7571844.70000000019
 20
5711051.28000000026
  0
VERTEX
  5
8F
100
AcDbEntity
  8
ewns_dzialki
100
AcDbVertex
100
AcDb2dVertex
 10
7571837.79999999981
 20
5711048.4299999997
  0
VERTEX
  5
90
100
AcDbEntity
  8
ewns_dzialki
100
AcDbVertex
100
AcDb2dVertex
 10
7571820.95999999996
 20
5711039.86000000034
  0
VERTEX
  5
91
100
AcDbEntity
  8
ewns_dzialki
100
AcDbVertex
100
AcDb2dVertex
 10
7571792.87000000011
 20
5711116.34999999963
  0
VERTEX
  5
92
100
AcDbEntity
  8
ewns_dzialki
100
AcDbVertex
100
AcDb2dVertex
 10
7571806.5700000003
 20
5711121.38999999966
  0
VERTEX
  5
93
100
AcDbEntity
  8
ewns_dzialki
100
AcDbVertex
100
AcDb2dVertex
 10
7571772.58000000007
 20
5711204.29999999981
  0
VERTEX
  5
94
100
AcDbEntity
  8
ewns_dzialki
100
AcDbVertex
100
AcDb2dVertex
 10
7571724.79999999981
 20
5711342.41000000015
  0
VERTEX
  5
95
100
AcDbEntity
  8
ewns_dzialki
100
AcDbVertex
100
AcDb2dVertex
 10
7571652.28000000026
 20
5711547.79000000004
  0
VERTEX
  5
96
100
AcDbEntity
  8
ewns_dzialki
100
AcDbVertex
100
AcDb2dVertex
 10
7571582.80999999959
 20
5711736.05999999959
  0
SEQEND
  5
97
100
AcDbEntity
  8
ewns_dzialki
  0
POLYLINE
  5
98
100
AcDbEntity
  8
ewns_dzialki
  6
CONTINUOUS
370
18
100
AcDb2dPolyline
 66
1
 70
129
  0
VERTEX
  5
99
100
AcDbEntity
  8
ewns_dzialki
100
AcDbVertex
100
AcDb2dVertex
 10
7571582.80999999959
 20
5711736.05999999959
  0
VERTEX
  5
9A
100
AcDbEntity
  8
ewns_dzialki
100
AcDbVertex
100
AcDb2dVertex
 10
7571652.28000000026
 20
5711547.79000000004
  0
VERTEX
  5
9B
100
AcDbEntity
  8
ewns_dzialki
100
AcDbVertex
100
AcDb2dVertex
 10
7571724.79999999981
 20
5711342.41000000015
  0
VERTEX
  5
9C
100
AcDbEntity
  8
ewns_dzialki
100
AcDbVertex
100
AcDb2dVertex
 10
7571772.58000000007
 20
5711204.29999999981
  0
VERTEX
  5
9D
100
AcDbEntity
  8
ewns_dzialki
100
AcDbVertex
100
AcDb2dVertex
 10
7571806.5700000003
 20
5711121.38999999966
  0
VERTEX
  5
9E
100
AcDbEntity
  8
ewns_dzialki
100
AcDbVertex
100
AcDb2dVertex
 10
7571792.87000000011
 20
5711116.34999999963
  0
VERTEX
  5
9F
100
AcDbEntity
  8
ewns_dzialki
100
AcDbVertex
100
AcDb2dVertex
 10
7571764.74000000022
 20
5711192.95000000019
  0
VERTEX
  5
A0
100
AcDbEntity
  8
ewns_dzialki
100
AcDbVertex
100
AcDb2dVertex
 10
7571713.37999999989
 20
5711338.12000000011
  0
VERTEX
  5
A1
100
AcDbEntity
  8
ewns_dzialki
100
AcDbVertex
100
AcDb2dVertex
 10
7571641.05999999959
 20
5711543.00999999978
  0
VERTEX
  5
A2
100
AcDbEntity
  8
ewns_dzialki
100
AcDbVertex
100
AcDb2dVertex
 10
7571572.94000000041
 20
5711730.16000000015
  0
SEQEND
  5
A3
100
AcDbEntity
  8
ewns_dzialki
  0
POLYLINE
  5
A4
100
AcDbEntity
  8
ewns_dzialki
  6
CONTINUOUS
370
18
100
AcDb2dPolyline
 66
1
 70
129
  0
VERTEX
  5
A5
100
AcDbEntity
  8
ewns_dzialki
100
AcDbVertex
100
AcDb2dVertex
 10
7571792.87000000011
 20
5711116.34999999963
  0
VERTEX
  5
A6
100
AcDbEntity
  8
ewns_dzialki
100
AcDbVertex
100
AcDb2dVertex
 10
7571820.95999999996
 20
5711039.86000000034
  0
VERTEX
  5
A7
100
AcDbEntity
  8
ewns_dzialki
100
AcDbVertex
100
AcDb2dVertex
 10
7571808.12999999989
 20
5711033.33999999985
  0
VERTEX
  5
A8
100
AcDbEntity
  8
ewns_dzialki
100
AcDbVertex
100
AcDb2dVertex
 10
7571754.74000000022
 20
5711178.48000000045
  0
VERTEX
  5
A9
100
AcDbEntity
  8
ewns_dzialki
100
AcDbVertex
100
AcDb2dVertex
 10
7571700.46999999974
 20
5711333.26999999955
  0
VERTEX
  5
AA
100
AcDbEntity
  8
ewns_dzialki
100
AcDbVertex
100
AcDb2dVertex
 10
7571628.0
 20
5711537.45000000019
  0
VERTEX
  5
AB
100
AcDbEntity
  8
ewns_dzialki
100
AcDbVertex
100
AcDb2dVertex
 10
7571562.04000000004
 20
5711723.65000000037
  0
VERTEX
  5
AC
100
AcDbEntity
  8
ewns_dzialki
100
AcDbVertex
100
AcDb2dVertex
 10
7571572.94000000041
 20
5711730.16000000015
  0
VERTEX
  5
AD
100
AcDbEntity
  8
ewns_dzialki
100
AcDbVertex
100
AcDb2dVertex
 10
7571641.05999999959
 20
5711543.00999999978
  0
VERTEX
  5
AE
100
AcDbEntity
  8
ewns_dzialki
100
AcDbVertex
100
AcDb2dVertex
 10
7571713.37999999989
 20
5711338.12000000011
  0
VERTEX
  5
AF
100
AcDbEntity
  8
ewns_dzialki
100
AcDbVertex
100
AcDb2dVertex
 10
7571764.74000000022
 20
5711192.95000000019
  0
SEQEND
  5
B0
100
AcDbEntity
  8
ewns_dzialki
  0
POLYLINE
  5
B1
100
AcDbEntity
  8
ewns_dzialki
  6
CONTINUOUS
370
18
100
AcDb2dPolyline
 66
1
 70
129
  0
VERTEX
  5
B2
100
AcDbEntity
  8
ewns_dzialki
100
AcDbVertex
100
AcDb2dVertex
 10
7571562.04000000004
 20
5711723.65000000037
  0
VERTEX
  5
B3
100
AcDbEntity
  8
ewns_dzialki
100
AcDbVertex
100
AcDb2dVertex
 10
7571628.0
 20
5711537.45000000019
  0
VERTEX
  5
B4
100
AcDbEntity
  8
ewns_dzialki
100
AcDbVertex
100
AcDb2dVertex
 10
7571700.46999999974
 20
5711333.26999999955
  0
VERTEX
  5
B5
100
AcDbEntity
  8
ewns_dzialki
100
AcDbVertex
100
AcDb2dVertex
 10
7571754.74000000022
 20
5711178.48000000045
  0
VERTEX
  5
B6
100
AcDbEntity
  8
ewns_dzialki
100
AcDbVertex
100
AcDb2dVertex
 10
7571750.55999999959
 20
5711168.16000000015
  0
VERTEX
  5
B7
100
AcDbEntity
  8
ewns_dzialki
100
AcDbVertex
100
AcDb2dVertex
 10
7571749.58000000007
 20
5711170.99000000022
  0
VERTEX
  5
B8
100
AcDbEntity
  8
ewns_dzialki
100
AcDbVertex
100
AcDb2dVertex
 10
7571694.00999999978
 20
5711330.84999999963
  0
VERTEX
  5
B9
100
AcDbEntity
  8
ewns_dzialki
100
AcDbVertex
100
AcDb2dVertex
 10
7571621.9299999997
 20
5711534.87000000011
  0
VERTEX
  5
BA
100
AcDbEntity
  8
ewns_dzialki
100
AcDbVertex
100
AcDb2dVertex
 10
7571556.54999999981
 20
5711720.37000000011
  0
SEQEND
  5
BB
100
AcDbEntity
  8
ewns_dzialki
  0
POLYLINE
  5
BC
100
AcDbEntity
  8
ewns_dzialki
  6
CONTINUOUS
370
18
100
AcDb2dPolyline
 66
1
 70
129
  0
VERTEX
  5
BD
100
AcDbEntity
  8
ewns_dzialki
100
AcDbVertex
100
AcDb2dVertex
 10
7571613.19000000041
 20
5711531.15000000037
  0
VERTEX
  5
BE
100
AcDbEntity
  8
ewns_dzialki
100
AcDbVertex
100
AcDb2dVertex
 10
7571684.55999999959
 20
5711327.29999999981
  0
VERTEX
  5
BF
100
AcDbEntity
  8
ewns_dzialki
100
AcDbVertex
100
AcDb2dVertex
 10
7571741.96999999974
 20
5711159.96999999974
  0
VERTEX
  5
C0
100
AcDbEntity
  8
ewns_dzialki
100
AcDbVertex
100
AcDb2dVertex
 10
7571743.08000000007
 20
5711157.19000000041
  0
VERTEX
  5
C1
100
AcDbEntity
  8
ewns_dzialki
100
AcDbVertex
100
AcDb2dVertex
 10
7571734.41999999993
 20
5711149.03000000026
  0
VERTEX
  5
C2
100
AcDbEntity
  8
ewns_dzialki
100
AcDbVertex
100
AcDb2dVertex
 10
7571674.36000000034
 20
5711323.46999999974
  0
VERTEX
  5
C3
100
AcDbEntity
  8
ewns_dzialki
100
AcDbVertex
100
AcDb2dVertex
 10
7571603.33999999985
 20
5711526.95999999996
  0
VERTEX
  5
C4
100
AcDbEntity
  8
ewns_dzialki
100
AcDbVertex
100
AcDb2dVertex
 10
7571539.38999999966
 20
5711710.12000000011
  0
VERTEX
  5
C5
100
AcDbEntity
  8
ewns_dzialki
100
AcDbVertex
100
AcDb2dVertex
 10
7571547.96999999974
 20
5711715.25
  0
SEQEND
  5
C6
100
AcDbEntity
  8
ewns_dzialki
  0
POLYLINE
  5
C7
100
AcDbEntity
  8
ewns_dzialki
  6
CONTINUOUS
370
18
100
AcDb2dPolyline
 66
1
 70
129
  0
VERTEX
  5
C8
100
AcDbEntity
  8
ewns_dzialki
100
AcDbVertex
100
AcDb2dVertex
 10
7571751.54999999981
 20
5711103.20999999996
  0
VERTEX
  5
C9
100
AcDbEntity
  8
ewns_dzialki
100
AcDbVertex
100
AcDb2dVertex
 10
7571740.63999999966
 20
5711096.16000000015
  0
VERTEX
  5
CA
100
AcDbEntity
  8
ewns_dzialki
100
AcDbVertex
100
AcDb2dVertex
 10
7571725.83999999985
 20
5711136.62000000011
  0
VERTEX
  5
CB
100
AcDbEntity
  8
ewns_dzialki
100
AcDbVertex
100
AcDb2dVertex
 10
7571662.46999999974
 20
5711319.0
  0
VERTEX
  5
CC
100
AcDbEntity
  8
ewns_dzialki
100
AcDbVertex
100
AcDb2dVertex
 10
7571590.9299999997
 20
5711521.66999999993
  0
VERTEX
  5
CD
100
AcDbEntity
  8
ewns_dzialki
100
AcDbVertex
100
AcDb2dVertex
 10
7571527.54999999981
 20
5711703.04999999981
  0
VERTEX
  5
CE
100
AcDbEntity
  8
ewns_dzialki
100
AcDbVertex
100
AcDb2dVertex
 10
7571539.38999999966
 20
5711710.12000000011
  0
VERTEX
  5
CF
100
AcDbEntity
  8
ewns_dzialki
100
AcDbVertex
100
AcDb2dVertex
 10
7571603.33999999985
 20
5711526.95999999996
  0
VERTEX
  5
D0
100
AcDbEntity
  8
ewns_dzialki
100
AcDbVertex
100
AcDb2dVertex
 10
7571674.36000000034
 20
5711323.46999999974
  0
VERTEX
  5
D1
100
AcDbEntity
  8
ewns_dzialki
100
AcDbVertex
100
AcDb2dVertex
 10
7571734.41999999993
 20
5711149.03000000026
  0
SEQEND
  5
D2
100
AcDbEntity
  8
ewns_dzialki
  0
POLYLINE
  5
D3
100
AcDbEntity
  8
ewns_dzialki
  6
CONTINUOUS
370
18
100
AcDb2dPolyline
 66
1
 70
129
  0
VERTEX
  5
D4
100
AcDbEntity
  8
ewns_dzialki
100
AcDbVertex
100
AcDb2dVertex
 10
7571740.63999999966
 20
5711096.16000000015
  0
VERTEX
  5
D5
100
AcDbEntity
  8
ewns_dzialki
100
AcDbVertex
100
AcDb2dVertex
 10
7571731.99000000022
 20
5711090.58000000007
  0
VERTEX
  5
D6
100
AcDbEntity
  8
ewns_dzialki
100
AcDbVertex
100
AcDb2dVertex
 10
7571733.23000000045
 20
5711087.08999999985
  0
VERTEX
  5
D7
100
AcDbEntity
  8
ewns_dzialki
100
AcDbVertex
100
AcDb2dVertex
 10
7571730.16999999993
 20
5711086.0
  0
VERTEX
  5
D8
100
AcDbEntity
  8
ewns_dzialki
100
AcDbVertex
100
AcDb2dVertex
 10
7571716.87000000011
 20
5711123.62000000011
  0
VERTEX
  5
D9
100
AcDbEntity
  8
ewns_dzialki
100
AcDbVertex
100
AcDb2dVertex
 10
7571650.30999999959
 20
5711314.4299999997
  0
VERTEX
  5
DA
100
AcDbEntity
  8
ewns_dzialki
100
AcDbVertex
100
AcDb2dVertex
 10
7571578.78000000026
 20
5711516.5
  0
VERTEX
  5
DB
100
AcDbEntity
  8
ewns_dzialki
100
AcDbVertex
100
AcDb2dVertex
 10
7571515.45999999996
 20
5711695.8200000003
  0
VERTEX
  5
DC
100
AcDbEntity
  8
ewns_dzialki
100
AcDbVertex
100
AcDb2dVertex
 10
7571527.54999999981
 20
5711703.04999999981
  0
VERTEX
  5
DD
100
AcDbEntity
  8
ewns_dzialki
100
AcDbVertex
100
AcDb2dVertex
 10
7571590.9299999997
 20
5711521.66999999993
  0
VERTEX
  5
DE
100
AcDbEntity
  8
ewns_dzialki
100
AcDbVertex
100
AcDb2dVertex
 10
7571662.46999999974
 20
5711319.0
  0
VERTEX
  5
DF
100
AcDbEntity
  8
ewns_dzialki
100
AcDbVertex
100
AcDb2dVertex
 10
7571725.83999999985
 20
5711136.62000000011
  0
SEQEND
  5
E0
100
AcDbEntity
  8
ewns_dzialki
  0
POLYLINE
  5
E1
100
AcDbEntity
  8
ewns_dzialki
  6
CONTINUOUS
370
18
100
AcDb2dPolyline
 66
1
 70
129
  0
VERTEX
  5
E2
100
AcDbEntity
  8
ewns_dzialki
100
AcDbVertex
100
AcDb2dVertex
 10
7571720.54999999981
 20
5711082.5700000003
  0
VERTEX
  5
E3
100
AcDbEntity
  8
ewns_dzialki
100
AcDbVertex
100
AcDb2dVertex
 10
7571717.75
 20
5711081.37000000011
  0
VERTEX
  5
E4
100
AcDbEntity
  8
ewns_dzialki
100
AcDbVertex
100
AcDb2dVertex
 10
7571716.73000000045
 20
5711084.26999999955
  0
VERTEX
  5
E5
100
AcDbEntity
  8
ewns_dzialki
100
AcDbVertex
100
AcDb2dVertex
 10
7571707.61000000034
 20
5711110.21999999974
  0
VERTEX
  5
E6
100
AcDbEntity
  8
ewns_dzialki
100
AcDbVertex
100
AcDb2dVertex
 10
7571637.38999999966
 20
5711309.58000000007
  0
VERTEX
  5
E7
100
AcDbEntity
  8
ewns_dzialki
100
AcDbVertex
100
AcDb2dVertex
 10
7571566.83000000008
 20
5711511.41000000015
  0
VERTEX
  5
E8
100
AcDbEntity
  8
ewns_dzialki
100
AcDbVertex
100
AcDb2dVertex
 10
7571503.53000000026
 20
5711688.70000000019
  0
VERTEX
  5
E9
100
AcDbEntity
  8
ewns_dzialki
100
AcDbVertex
100
AcDb2dVertex
 10
7571515.45999999996
 20
5711695.8200000003
  0
VERTEX
  5
EA
100
AcDbEntity
  8
ewns_dzialki
100
AcDbVertex
100
AcDb2dVertex
 10
7571578.78000000026
 20
5711516.5
  0
VERTEX
  5
EB
100
AcDbEntity
  8
ewns_dzialki
100
AcDbVertex
100
AcDb2dVertex
 10
7571650.30999999959
 20
5711314.4299999997
  0
VERTEX
  5
EC
100
AcDbEntity
  8
ewns_dzialki
100
AcDbVertex
100
AcDb2dVertex
 10
7571716.87000000011
 20
5711123.62000000011
  0
VERTEX
  5
ED
100
AcDbEntity
  8
ewns_dzialki
100
AcDbVertex
100
AcDb2dVertex
 10
7571730.16999999993
 20
5711086.0
  0
SEQEND
  5
EE
100
AcDbEntity
  8
ewns_dzialki
  0
POLYLINE
  5
EF
100
AcDbEntity
  8
ewns_dzialki
  6
CONTINUOUS
370
18
100
AcDb2dPolyline
 66
1
 70
129
  0
VERTEX
  5
F0
100
AcDbEntity
  8
ewns_dzialki
100
AcDbVertex
100
AcDb2dVertex
 10
7571729.36000000034
 20
5710988.19000000041
  0
VERTEX
  5
F1
100
AcDbEntity
  8
ewns_dzialki
100
AcDbVertex
100
AcDb2dVertex
 10
7571697.76999999955
 20
5711078.66000000015
  0
VERTEX
  5
F2
100
AcDbEntity
  8
ewns_dzialki
100
AcDbVertex
100
AcDb2dVertex
 10
7571689.41999999993
 20
5711102.54999999981
  0
VERTEX
  5
F3
100
AcDbEntity
  8
ewns_dzialki
100
AcDbVertex
100
AcDb2dVertex
 10
7571619.41999999993
 20
5711302.83000000007
  0
VERTEX
  5
F4
100
AcDbEntity
  8
ewns_dzialki
100
AcDbVertex
100
AcDb2dVertex
 10
7571549.44000000041
 20
5711504.00999999978
  0
VERTEX
  5
F5
100
AcDbEntity
  8
ewns_dzialki
100
AcDbVertex
100
AcDb2dVertex
 10
7571488.0
 20
5711679.41999999993
  0
VERTEX
  5
F6
100
AcDbEntity
  8
ewns_dzialki
100
AcDbVertex
100
AcDb2dVertex
 10
7571503.53000000026
 20
5711688.70000000019
  0
VERTEX
  5
F7
100
AcDbEntity
  8
ewns_dzialki
100
AcDbVertex
100
AcDb2dVertex
 10
7571566.83000000008
 20
5711511.41000000015
  0
VERTEX
  5
F8
100
AcDbEntity
  8
ewns_dzialki
100
AcDbVertex
100
AcDb2dVertex
 10
7571637.38999999966
 20
5711309.58000000007
  0
VERTEX
  5
F9
100
AcDbEntity
  8
ewns_dzialki
100
AcDbVertex
100
AcDb2dVertex
 10
7571707.61000000034
 20
5711110.21999999974
  0
VERTEX
  5
FA
100
AcDbEntity
  8
ewns_dzialki
100
AcDbVertex
100
AcDb2dVertex
 10
7571716.73000000045
 20
5711084.26999999955
  0
VERTEX
  5
FB
100
AcDbEntity
  8
ewns_dzialki
100
AcDbVertex
100
AcDb2dVertex
 10
7571717.75
 20
5711081.37000000011
  0
VERTEX
  5
FC
100
AcDbEntity
  8
ewns_dzialki
100
AcDbVertex
100
AcDb2dVertex
 10
7571746.83999999985
 20
5710998.59999999963
  0
SEQEND
  5
FD
100
AcDbEntity
  8
ewns_dzialki
  0
POLYLINE
  5
FE
100
AcDbEntity
  8
ewns_dzialki
  6
CONTINUOUS
370
18
100
AcDb2dPolyline
 66
1
 70
129
  0
VERTEX
  5
FF
100
AcDbEntity
  8
ewns_dzialki
100
AcDbVertex
100
AcDb2dVertex
 10
7571601.48000000045
 20
5711295.87000000011
  0
VERTEX
  5
100
100
AcDbEntity
  8
ewns_dzialki
100
AcDbVertex
100
AcDb2dVertex
 10
7571532.71999999974
 20
5711496.62000000011
  0
VERTEX
  5
101
100
AcDbEntity
  8
ewns_dzialki
100
AcDbVertex
100
AcDb2dVertex
 10
7571472.65000000037
 20
5711670.1799999997
  0
VERTEX
  5
102
100
AcDbEntity
  8
ewns_dzialki
100
AcDbVertex
100
AcDb2dVertex
 10
7571480.70999999996
 20
5711675.05999999959
  0
VERTEX
  5
103
100
AcDbEntity
  8
ewns_dzialki
100
AcDbVertex
100
AcDb2dVertex
 10
7571541.53000000026
 20
5711500.63999999966
  0
VERTEX
  5
104
100
AcDbEntity
  8
ewns_dzialki
100
AcDbVertex
100
AcDb2dVertex
 10
7571610.62999999989
 20
5711299.53000000026
  0
VERTEX
  5
105
100
AcDbEntity
  8
ewns_dzialki
100
AcDbVertex
100
AcDb2dVertex
 10
7571639.20999999996
 20
5711217.04999999981
  0
VERTEX
  5
106
100
AcDbEntity
  8
ewns_dzialki
100
AcDbVertex
100
AcDb2dVertex
 10
7571629.99000000022
 20
5711213.26999999955
  0
SEQEND
  5
107
100
AcDbEntity
  8
ewns_dzialki
  0
POLYLINE
  5
108
100
AcDbEntity
  8
ewns_dzialki
  6
CONTINUOUS
370
18
100
AcDb2dPolyline
 66
1
 70
129
  0
VERTEX
  5
109
100
AcDbEntity
  8
ewns_dzialki
100
AcDbVertex
100
AcDb2dVertex
 10
7571694.70000000019
 20
5711077.58999999985
  0
VERTEX
  5
10A
100
AcDbEntity
  8
ewns_dzialki
100
AcDbVertex
100
AcDb2dVertex
 10
7571688.29999999981
 20
5711075.34999999963
  0
VERTEX
  5
10B
100
AcDbEntity
  8
ewns_dzialki
100
AcDbVertex
100
AcDb2dVertex
 10
7571679.75999999978
 20
5711100.00999999978
  0
VERTEX
  5
10C
100
AcDbEntity
  8
ewns_dzialki
100
AcDbVertex
100
AcDb2dVertex
 10
7571639.20999999996
 20
5711217.04999999981
  0
VERTEX
  5
10D
100
AcDbEntity
  8
ewns_dzialki
100
AcDbVertex
100
AcDb2dVertex
 10
7571610.62999999989
 20
5711299.53000000026
  0
VERTEX
  5
10E
100
AcDbEntity
  8
ewns_dzialki
100
AcDbVertex
100
AcDb2dVertex
 10
7571541.53000000026
 20
5711500.63999999966
  0
VERTEX
  5
10F
100
AcDbEntity
  8
ewns_dzialki
100
AcDbVertex
100
AcDb2dVertex
 10
7571480.70999999996
 20
5711675.05999999959
  0
VERTEX
  5
110
100
AcDbEntity
  8
ewns_dzialki
100
AcDbVertex
100
AcDb2dVertex
 10
7571488.0
 20
5711679.41999999993
  0
VERTEX
  5
111
100
AcDbEntity
  8
ewns_dzialki
100
AcDbVertex
100
AcDb2dVertex
 10
7571549.44000000041
 20
5711504.00999999978
  0
VERTEX
  5
112
100
AcDbEntity
  8
ewns_dzialki
100
AcDbVertex
100
AcDb2dVertex
 10
7571619.41999999993
 20
5711302.83000000007
  0
VERTEX
  5
113
100
AcDbEntity
  8
ewns_dzialki
100
AcDbVertex
100
AcDb2dVertex
 10
7571689.41999999993
 20
5711102.54999999981
  0
VERTEX
  5
114
100
AcDbEntity
  8
ewns_dzialki
100
AcDbVertex
100
AcDb2dVertex
 10
7571697.76999999955
 20
5711078.66000000015
  0
SEQEND
  5
115
100
AcDbEntity
  8
ewns_dzialki
  0
POLYLINE
  5
116
100
AcDbEntity
  8
ewns_dzialki
  6
CONTINUOUS
370
18
100
AcDb2dPolyline
 66
1
 70
129
  0
VERTEX
  5
117
100
AcDbEntity
  8
ewns_dzialki
100
AcDbVertex
100
AcDb2dVertex
 10
7571494.29999999981
 20
5711480.51999999955
  0
VERTEX
  5
118
100
AcDbEntity
  8
ewns_dzialki
100
AcDbVertex
100
AcDb2dVertex
 10
7571562.90000000037
 20
5711281.61000000034
  0
VERTEX
  5
119
100
AcDbEntity
  8
ewns_dzialki
100
AcDbVertex
100
AcDb2dVertex
 10
7571631.38999999966
 20
5711087.33000000007
  0
VERTEX
  5
11A
100
AcDbEntity
  8
ewns_dzialki
100
AcDbVertex
100
AcDb2dVertex
 10
7571642.78000000026
 20
5711054.24000000022
  0
VERTEX
  5
11B
100
AcDbEntity
  8
ewns_dzialki
100
AcDbVertex
100
AcDb2dVertex
 10
7571633.79999999981
 20
5711051.15000000037
  0
VERTEX
  5
11C
100
AcDbEntity
  8
ewns_dzialki
100
AcDbVertex
100
AcDb2dVertex
 10
7571622.16000000015
 20
5711084.90000000037
  0
VERTEX
  5
11D
100
AcDbEntity
  8
ewns_dzialki
100
AcDbVertex
100
AcDb2dVertex
 10
7571553.62999999989
 20
5711278.12000000011
  0
VERTEX
  5
11E
100
AcDbEntity
  8
ewns_dzialki
100
AcDbVertex
100
AcDb2dVertex
 10
7571484.15000000037
 20
5711476.12999999989
  0
VERTEX
  5
11F
100
AcDbEntity
  8
ewns_dzialki
100
AcDbVertex
100
AcDb2dVertex
 10
7571426.23000000045
 20
5711642.50999999978
  0
VERTEX
  5
120
100
AcDbEntity
  8
ewns_dzialki
100
AcDbVertex
100
AcDb2dVertex
 10
7571437.16999999993
 20
5711649.08999999985
  0
SEQEND
  5
121
100
AcDbEntity
  8
ewns_dzialki
  0
POLYLINE
  5
122
100
AcDbEntity
  8
ewns_dzialki
  6
CONTINUOUS
370
18
100
AcDb2dPolyline
 66
1
 70
129
  0
VERTEX
  5
123
100
AcDbEntity
  8
ewns_dzialki
100
AcDbVertex
100
AcDb2dVertex
 10
7571642.78000000026
 20
5711054.24000000022
  0
VERTEX
  5
124
100
AcDbEntity
  8
ewns_dzialki
100
AcDbVertex
100
AcDb2dVertex
 10
7571651.9299999997
 20
5711027.65000000037
  0
VERTEX
  5
125
100
AcDbEntity
  8
ewns_dzialki
100
AcDbVertex
100
AcDb2dVertex
 10
7571650.91999999992
 20
5711027.23000000045
  0
VERTEX
  5
126
100
AcDbEntity
  8
ewns_dzialki
100
AcDbVertex
100
AcDb2dVertex
 10
7571653.78000000026
 20
5711020.19000000041
  0
VERTEX
  5
127
100
AcDbEntity
  8
ewns_dzialki
100
AcDbVertex
100
AcDb2dVertex
 10
7571654.70000000019
 20
5711020.5700000003
  0
VERTEX
  5
128
100
AcDbEntity
  8
ewns_dzialki
100
AcDbVertex
100
AcDb2dVertex
 10
7571670.75999999978
 20
5710975.66999999993
  0
VERTEX
  5
129
100
AcDbEntity
  8
ewns_dzialki
100
AcDbVertex
100
AcDb2dVertex
 10
7571678.95999999996
 20
5710955.03000000026
  0
VERTEX
  5
12A
100
AcDbEntity
  8
ewns_dzialki
100
AcDbVertex
100
AcDb2dVertex
 10
7571664.19000000041
 20
5710943.95999999996
  0
VERTEX
  5
12B
100
AcDbEntity
  8
ewns_dzialki
100
AcDbVertex
100
AcDb2dVertex
 10
7571663.13999999966
 20
5710943.03000000026
  0
VERTEX
  5
12C
100
AcDbEntity
  8
ewns_dzialki
100
AcDbVertex
100
AcDb2dVertex
 10
7571631.58000000007
 20
5711030.40000000037
  0
VERTEX
  5
12D
100
AcDbEntity
  8
ewns_dzialki
100
AcDbVertex
100
AcDb2dVertex
 10
7571612.79000000004
 20
5711082.44000000041
  0
VERTEX
  5
12E
100
AcDbEntity
  8
ewns_dzialki
100
AcDbVertex
100
AcDb2dVertex
 10
7571543.4299999997
 20
5711274.29000000004
  0
VERTEX
  5
12F
100
AcDbEntity
  8
ewns_dzialki
100
AcDbVertex
100
AcDb2dVertex
 10
7571472.94000000041
 20
5711471.33999999985
  0
VERTEX
  5
130
100
AcDbEntity
  8
ewns_dzialki
100
AcDbVertex
100
AcDb2dVertex
 10
7571414.90000000037
 20
5711635.75
  0
VERTEX
  5
131
100
AcDbEntity
  8
ewns_dzialki
100
AcDbVertex
100
AcDb2dVertex
 10
7571426.23000000045
 20
5711642.50999999978
  0
VERTEX
  5
132
100
AcDbEntity
  8
ewns_dzialki
100
AcDbVertex
100
AcDb2dVertex
 10
7571484.15000000037
 20
5711476.12999999989
  0
VERTEX
  5
133
100
AcDbEntity
  8
ewns_dzialki
100
AcDbVertex
100
AcDb2dVertex
 10
7571553.62999999989
 20
5711278.12000000011
  0
VERTEX
  5
134
100
AcDbEntity
  8
ewns_dzialki
100
AcDbVertex
100
AcDb2dVertex
 10
7571622.16000000015
 20
5711084.90000000037
  0
VERTEX
  5
135
100
AcDbEntity
  8
ewns_dzialki
100
AcDbVertex
100
AcDb2dVertex
 10
7571633.79999999981
 20
5711051.15000000037
  0
SEQEND
  5
136
100
AcDbEntity
  8
ewns_dzialki
  0
POLYLINE
  5
137
100
AcDbEntity
  8
ewns_dzialki
  6
CONTINUOUS
370
18
100
AcDb2dPolyline
 66
1
 70
129
  0
VERTEX
  5
138
100
AcDbEntity
  8
ewns_dzialki
100
AcDbVertex
100
AcDb2dVertex
 10
7571631.58000000007
 20
5711030.40000000037
  0
VERTEX
  5
139
100
AcDbEntity
  8
ewns_dzialki
100
AcDbVertex
100
AcDb2dVertex
 10
7571628.95000000019
 20
5711029.44000000041
  0
VERTEX
  5
13A
100
AcDbEntity
  8
ewns_dzialki
100
AcDbVertex
100
AcDb2dVertex
 10
7571610.1799999997
 20
5711081.75999999978
  0
VERTEX
  5
13B
100
AcDbEntity
  8
ewns_dzialki
100
AcDbVertex
100
AcDb2dVertex
 10
7571540.80999999959
 20
5711273.29999999981
  0
VERTEX
  5
13C
100
AcDbEntity
  8
ewns_dzialki
100
AcDbVertex
100
AcDb2dVertex
 10
7571470.36000000034
 20
5711470.24000000022
  0
VERTEX
  5
13D
100
AcDbEntity
  8
ewns_dzialki
100
AcDbVertex
100
AcDb2dVertex
 10
7571412.41000000015
 20
5711634.25999999978
  0
VERTEX
  5
13E
100
AcDbEntity
  8
ewns_dzialki
100
AcDbVertex
100
AcDb2dVertex
 10
7571414.90000000037
 20
5711635.75
  0
VERTEX
  5
13F
100
AcDbEntity
  8
ewns_dzialki
100
AcDbVertex
100
AcDb2dVertex
 10
7571472.94000000041
 20
5711471.33999999985
  0
VERTEX
  5
140
100
AcDbEntity
  8
ewns_dzialki
100
AcDbVertex
100
AcDb2dVertex
 10
7571543.4299999997
 20
5711274.29000000004
  0
VERTEX
  5
141
100
AcDbEntity
  8
ewns_dzialki
100
AcDbVertex
100
AcDb2dVertex
 10
7571612.79000000004
 20
5711082.44000000041
  0
SEQEND
  5
142
100
AcDbEntity
  8
ewns_dzialki
  0
POLYLINE
  5
143
100
AcDbEntity
  8
ewns_dzialki
  6
CONTINUOUS
370
18
100
AcDb2dPolyline
 66
1
 70
129
  0
VERTEX
  5
144
100
AcDbEntity
  8
ewns_dzialki
100
AcDbVertex
100
AcDb2dVertex
 10
7571622.37000000011
 20
5711027.04000000004
  0
VERTEX
  5
145
100
AcDbEntity
  8
ewns_dzialki
100
AcDbVertex
100
AcDb2dVertex
 10
7571608.45999999996
 20
5711065.5
  0
VERTEX
  5
146
100
AcDbEntity
  8
ewns_dzialki
100
AcDbVertex
100
AcDb2dVertex
 10
7571608.26999999955
 20
5711065.4299999997
  0
VERTEX
  5
147
100
AcDbEntity
  8
ewns_dzialki
100
AcDbVertex
100
AcDb2dVertex
 10
7571604.79999999981
 20
5711074.79999999981
  0
VERTEX
  5
148
100
AcDbEntity
  8
ewns_dzialki
100
AcDbVertex
100
AcDb2dVertex
 10
7571532.48000000045
 20
5711270.16999999993
  0
VERTEX
  5
149
100
AcDbEntity
  8
ewns_dzialki
100
AcDbVertex
100
AcDb2dVertex
 10
7571462.0
 20
5711466.66000000015
  0
VERTEX
  5
14A
100
AcDbEntity
  8
ewns_dzialki
100
AcDbVertex
100
AcDb2dVertex
 10
7571404.1799999997
 20
5711629.33999999985
  0
VERTEX
  5
14B
100
AcDbEntity
  8
ewns_dzialki
100
AcDbVertex
100
AcDb2dVertex
 10
7571412.41000000015
 20
5711634.25999999978
  0
VERTEX
  5
14C
100
AcDbEntity
  8
ewns_dzialki
100
AcDbVertex
100
AcDb2dVertex
 10
7571470.36000000034
 20
5711470.24000000022
  0
VERTEX
  5
14D
100
AcDbEntity
  8
ewns_dzialki
100
AcDbVertex
100
AcDb2dVertex
 10
7571540.80999999959
 20
5711273.29999999981
  0
VERTEX
  5
14E
100
AcDbEntity
  8
ewns_dzialki
100
AcDbVertex
100
AcDb2dVertex
 10
7571610.1799999997
 20
5711081.75999999978
  0
VERTEX
  5
14F
100
AcDbEntity
  8
ewns_dzialki
100
AcDbVertex
100
AcDb2dVertex
 10
7571628.95000000019
 20
5711029.44000000041
  0
SEQEND
  5
150
100
AcDbEntity
  8
ewns_dzialki
  0
POLYLINE
  5
151
100
AcDbEntity
  8
ewns_dzialki
  6
CONTINUOUS
370
18
100
AcDb2dPolyline
 66
1
 70
129
  0
VERTEX
  5
152
100
AcDbEntity
  8
ewns_dzialki
100
AcDbVertex
100
AcDb2dVertex
 10
7571647.45999999996
 20
5710929.12999999989
  0
VERTEX
  5
153
100
AcDbEntity
  8
ewns_dzialki
100
AcDbVertex
100
AcDb2dVertex
 10
7571601.88999999966
 20
5711056.20999999996
  0
VERTEX
  5
154
100
AcDbEntity
  8
ewns_dzialki
100
AcDbVertex
100
AcDb2dVertex
 10
7571598.25
 20
5711066.34999999963
  0
VERTEX
  5
155
100
AcDbEntity
  8
ewns_dzialki
100
AcDbVertex
100
AcDb2dVertex
 10
7571523.87000000011
 20
5711266.94000000041
  0
VERTEX
  5
156
100
AcDbEntity
  8
ewns_dzialki
100
AcDbVertex
100
AcDb2dVertex
 10
7571452.0700000003
 20
5711462.41999999993
  0
VERTEX
  5
157
100
AcDbEntity
  8
ewns_dzialki
100
AcDbVertex
100
AcDb2dVertex
 10
7571393.11000000034
 20
5711622.73000000045
  0
VERTEX
  5
158
100
AcDbEntity
  8
ewns_dzialki
100
AcDbVertex
100
AcDb2dVertex
 10
7571404.1799999997
 20
5711629.33999999985
  0
VERTEX
  5
159
100
AcDbEntity
  8
ewns_dzialki
100
AcDbVertex
100
AcDb2dVertex
 10
7571462.0
 20
5711466.66000000015
  0
VERTEX
  5
15A
100
AcDbEntity
  8
ewns_dzialki
100
AcDbVertex
100
AcDb2dVertex
 10
7571532.48000000045
 20
5711270.16999999993
  0
VERTEX
  5
15B
100
AcDbEntity
  8
ewns_dzialki
100
AcDbVertex
100
AcDb2dVertex
 10
7571604.79999999981
 20
5711074.79999999981
  0
VERTEX
  5
15C
100
AcDbEntity
  8
ewns_dzialki
100
AcDbVertex
100
AcDb2dVertex
 10
7571608.26999999955
 20
5711065.4299999997
  0
VERTEX
  5
15D
100
AcDbEntity
  8
ewns_dzialki
100
AcDbVertex
100
AcDb2dVertex
 10
7571608.45999999996
 20
5711065.5
  0
VERTEX
  5
15E
100
AcDbEntity
  8
ewns_dzialki
100
AcDbVertex
100
AcDb2dVertex
 10
7571622.37000000011
 20
5711027.04000000004
  0
VERTEX
  5
15F
100
AcDbEntity
  8
ewns_dzialki
100
AcDbVertex
100
AcDb2dVertex
 10
7571655.45000000019
 20
5710936.20999999996
  0
SEQEND
  5
160
100
AcDbEntity
  8
ewns_dzialki
  0
POLYLINE
  5
161
100
AcDbEntity
  8
ewns_dzialki
  6
CONTINUOUS
370
18
100
AcDb2dPolyline
 66
1
 70
129
  0
VERTEX
  5
162
100
AcDbEntity
  8
ewns_dzialki
100
AcDbVertex
100
AcDb2dVertex
 10
7571590.94000000041
 20
5711050.5
  0
VERTEX
  5
163
100
AcDbEntity
  8
ewns_dzialki
100
AcDbVertex
100
AcDb2dVertex
 10
7571589.3200000003
 20
5711054.80999999959
  0
VERTEX
  5
164
100
AcDbEntity
  8
ewns_dzialki
100
AcDbVertex
100
AcDb2dVertex
 10
7571512.54999999981
 20
5711262.69000000041
  0
VERTEX
  5
165
100
AcDbEntity
  8
ewns_dzialki
100
AcDbVertex
100
AcDb2dVertex
 10
7571440.94000000041
 20
5711457.66000000015
  0
VERTEX
  5
166
100
AcDbEntity
  8
ewns_dzialki
100
AcDbVertex
100
AcDb2dVertex
 10
7571382.29999999981
 20
5711615.5
  0
VERTEX
  5
167
100
AcDbEntity
  8
ewns_dzialki
100
AcDbVertex
100
AcDb2dVertex
 10
7571393.11000000034
 20
5711622.73000000045
  0
VERTEX
  5
168
100
AcDbEntity
  8
ewns_dzialki
100
AcDbVertex
100
AcDb2dVertex
 10
7571452.0700000003
 20
5711462.41999999993
  0
VERTEX
  5
169
100
AcDbEntity
  8
ewns_dzialki
100
AcDbVertex
100
AcDb2dVertex
 10
7571523.87000000011
 20
5711266.94000000041
  0
VERTEX
  5
16A
100
AcDbEntity
  8
ewns_dzialki
100
AcDbVertex
100
AcDb2dVertex
 10
7571598.25
 20
5711066.34999999963
  0
VERTEX
  5
16B
100
AcDbEntity
  8
ewns_dzialki
100
AcDbVertex
100
AcDb2dVertex
 10
7571601.88999999966
 20
5711056.20999999996
  0
SEQEND
  5
16C
100
AcDbEntity
  8
ewns_dzialki
  0
POLYLINE
  5
16D
100
AcDbEntity
  8
ewns_dzialki
  6
CONTINUOUS
370
18
100
AcDb2dPolyline
 66
1
 70
129
  0
VERTEX
  5
16E
100
AcDbEntity
  8
ewns_dzialki
100
AcDbVertex
100
AcDb2dVertex
 10
7571605.04999999981
 20
5711013.0700000003
  0
VERTEX
  5
16F
100
AcDbEntity
  8
ewns_dzialki
100
AcDbVertex
100
AcDb2dVertex
 10
7571596.21999999974
 20
5711008.38999999966
  0
VERTEX
  5
170
100
AcDbEntity
  8
ewns_dzialki
100
AcDbVertex
100
AcDb2dVertex
 10
7571582.29000000004
 20
5711045.71999999974
  0
VERTEX
  5
171
100
AcDbEntity
  8
ewns_dzialki
100
AcDbVertex
100
AcDb2dVertex
 10
7571502.34999999963
 20
5711258.86000000034
  0
VERTEX
  5
172
100
AcDbEntity
  8
ewns_dzialki
100
AcDbVertex
100
AcDb2dVertex
 10
7571431.37999999989
 20
5711453.5700000003
  0
VERTEX
  5
173
100
AcDbEntity
  8
ewns_dzialki
100
AcDbVertex
100
AcDb2dVertex
 10
7571373.99000000022
 20
5711609.94000000041
  0
VERTEX
  5
174
100
AcDbEntity
  8
ewns_dzialki
100
AcDbVertex
100
AcDb2dVertex
 10
7571382.29999999981
 20
5711615.5
  0
VERTEX
  5
175
100
AcDbEntity
  8
ewns_dzialki
100
AcDbVertex
100
AcDb2dVertex
 10
7571440.94000000041
 20
5711457.66000000015
  0
VERTEX
  5
176
100
AcDbEntity
  8
ewns_dzialki
100
AcDbVertex
100
AcDb2dVertex
 10
7571512.54999999981
 20
5711262.69000000041
  0
VERTEX
  5
177
100
AcDbEntity
  8
ewns_dzialki
100
AcDbVertex
100
AcDb2dVertex
 10
7571589.3200000003
 20
5711054.80999999959
  0
VERTEX
  5
178
100
AcDbEntity
  8
ewns_dzialki
100
AcDbVertex
100
AcDb2dVertex
 10
7571590.94000000041
 20
5711050.5
  0
SEQEND
  5
179
100
AcDbEntity
  8
ewns_dzialki
  0
POLYLINE
  5
17A
100
AcDbEntity
  8
ewns_dzialki
  6
CONTINUOUS
370
18
100
AcDb2dPolyline
 66
1
 70
129
  0
VERTEX
  5
17B
100
AcDbEntity
  8
ewns_dzialki
100
AcDbVertex
100
AcDb2dVertex
 10
7572398.08000000007
 20
5711465.00999999978
  0
VERTEX
  5
17C
100
AcDbEntity
  8
ewns_dzialki
100
AcDbVertex
100
AcDb2dVertex
 10
7572404.48000000045
 20
5711449.87999999989
  0
VERTEX
  5
17D
100
AcDbEntity
  8
ewns_dzialki
100
AcDbVertex
100
AcDb2dVertex
 10
7572462.25
 20
5711336.79000000004
  0
VERTEX
  5
17E
100
AcDbEntity
  8
ewns_dzialki
100
AcDbVertex
100
AcDb2dVertex
 10
7572425.12000000011
 20
5711262.13999999966
  0
VERTEX
  5
17F
100
AcDbEntity
  8
ewns_dzialki
100
AcDbVertex
100
AcDb2dVertex
 10
7572478.13999999966
 20
5711152.62000000011
  0
VERTEX
  5
180
100
AcDbEntity
  8
ewns_dzialki
100
AcDbVertex
100
AcDb2dVertex
 10
7572565.03000000026
 20
5711134.26999999955
  0
VERTEX
  5
181
100
AcDbEntity
  8
ewns_dzialki
100
AcDbVertex
100
AcDb2dVertex
 10
7572609.26999999955
 20
5711045.38999999966
  0
VERTEX
  5
182
100
AcDbEntity
  8
ewns_dzialki
100
AcDbVertex
100
AcDb2dVertex
 10
7572595.15000000037
 20
5711018.69000000041
  0
VERTEX
  5
183
100
AcDbEntity
  8
ewns_dzialki
100
AcDbVertex
100
AcDb2dVertex
 10
7572520.28000000026
 20
5711043.51999999955
  0
VERTEX
  5
184
100
AcDbEntity
  8
ewns_dzialki
100
AcDbVertex
100
AcDb2dVertex
 10
7572456.6799999997
 20
5711062.16999999993
  0
VERTEX
  5
185
100
AcDbEntity
  8
ewns_dzialki
100
AcDbVertex
100
AcDb2dVertex
 10
7572430.21999999974
 20
5711062.66000000015
  0
VERTEX
  5
186
100
AcDbEntity
  8
ewns_dzialki
100
AcDbVertex
100
AcDb2dVertex
 10
7572429.28000000026
 20
5711059.50999999978
  0
VERTEX
  5
187
100
AcDbEntity
  8
ewns_dzialki
100
AcDbVertex
100
AcDb2dVertex
 10
7572405.58999999985
 20
5711066.13999999966
  0
VERTEX
  5
188
100
AcDbEntity
  8
ewns_dzialki
100
AcDbVertex
100
AcDb2dVertex
 10
7572405.16999999993
 20
5711067.15000000037
  0
VERTEX
  5
189
100
AcDbEntity
  8
ewns_dzialki
100
AcDbVertex
100
AcDb2dVertex
 10
7572401.55999999959
 20
5711075.9299999997
  0
VERTEX
  5
18A
100
AcDbEntity
  8
ewns_dzialki
100
AcDbVertex
100
AcDb2dVertex
 10
7572397.8200000003
 20
5711084.98000000045
  0
VERTEX
  5
18B
100
AcDbEntity
  8
ewns_dzialki
100
AcDbVertex
100
AcDb2dVertex
 10
7572393.70999999996
 20
5711094.95000000019
  0
VERTEX
  5
18C
100
AcDbEntity
  8
ewns_dzialki
100
AcDbVertex
100
AcDb2dVertex
 10
7572390.08999999985
 20
5711103.71999999974
  0
VERTEX
  5
18D
100
AcDbEntity
  8
ewns_dzialki
100
AcDbVertex
100
AcDb2dVertex
 10
7572386.48000000045
 20
5711112.5
  0
VERTEX
  5
18E
100
AcDbEntity
  8
ewns_dzialki
100
AcDbVertex
100
AcDb2dVertex
 10
7572383.3200000003
 20
5711120.16000000015
  0
VERTEX
  5
18F
100
AcDbEntity
  8
ewns_dzialki
100
AcDbVertex
100
AcDb2dVertex
 10
7572380.26999999955
 20
5711127.54999999981
  0
VERTEX
  5
190
100
AcDbEntity
  8
ewns_dzialki
100
AcDbVertex
100
AcDb2dVertex
 10
7572378.41000000015
 20
5711132.08000000007
  0
VERTEX
  5
191
100
AcDbEntity
  8
ewns_dzialki
100
AcDbVertex
100
AcDb2dVertex
 10
7572376.48000000045
 20
5711136.79999999981
  0
VERTEX
  5
192
100
AcDbEntity
  8
ewns_dzialki
100
AcDbVertex
100
AcDb2dVertex
 10
7572374.62000000011
 20
5711141.33999999985
  0
VERTEX
  5
193
100
AcDbEntity
  8
ewns_dzialki
100
AcDbVertex
100
AcDb2dVertex
 10
7572372.0
 20
5711147.71999999974
  0
VERTEX
  5
194
100
AcDbEntity
  8
ewns_dzialki
100
AcDbVertex
100
AcDb2dVertex
 10
7572369.26999999955
 20
5711154.37999999989
  0
VERTEX
  5
195
100
AcDbEntity
  8
ewns_dzialki
100
AcDbVertex
100
AcDb2dVertex
 10
7572367.13999999966
 20
5711159.55999999959
  0
VERTEX
  5
196
100
AcDbEntity
  8
ewns_dzialki
100
AcDbVertex
100
AcDb2dVertex
 10
7572366.00999999978
 20
5711162.33999999985
  0
VERTEX
  5
197
100
AcDbEntity
  8
ewns_dzialki
100
AcDbVertex
100
AcDb2dVertex
 10
7572365.08000000007
 20
5711164.59999999963
  0
VERTEX
  5
198
100
AcDbEntity
  8
ewns_dzialki
100
AcDbVertex
100
AcDb2dVertex
 10
7572364.0700000003
 20
5711167.05999999959
  0
VERTEX
  5
199
100
AcDbEntity
  8
ewns_dzialki
100
AcDbVertex
100
AcDb2dVertex
 10
7572362.78000000026
 20
5711170.20000000019
  0
VERTEX
  5
19A
100
AcDbEntity
  8
ewns_dzialki
100
AcDbVertex
100
AcDb2dVertex
 10
7572361.49000000022
 20
5711173.34999999963
  0
VERTEX
  5
19B
100
AcDbEntity
  8
ewns_dzialki
100
AcDbVertex
100
AcDb2dVertex
 10
7572358.91000000015
 20
5711179.63999999966
  0
VERTEX
  5
19C
100
AcDbEntity
  8
ewns_dzialki
100
AcDbVertex
100
AcDb2dVertex
 10
7572357.84999999963
 20
5711182.23000000045
  0
VERTEX
  5
19D
100
AcDbEntity
  8
ewns_dzialki
100
AcDbVertex
100
AcDb2dVertex
 10
7572356.86000000034
 20
5711184.63999999966
  0
VERTEX
  5
19E
100
AcDbEntity
  8
ewns_dzialki
100
AcDbVertex
100
AcDb2dVertex
 10
7572352.58000000008
 20
5711195.08999999985
  0
VERTEX
  5
19F
100
AcDbEntity
  8
ewns_dzialki
100
AcDbVertex
100
AcDb2dVertex
 10
7572350.25999999978
 20
5711200.74000000022
  0
VERTEX
  5
1A0
100
AcDbEntity
  8
ewns_dzialki
100
AcDbVertex
100
AcDb2dVertex
 10
7572348.09999999963
 20
5711206.00999999978
  0
VERTEX
  5
1A1
100
AcDbEntity
  8
ewns_dzialki
100
AcDbVertex
100
AcDb2dVertex
 10
7572347.04000000004
 20
5711208.59999999963
  0
VERTEX
  5
1A2
100
AcDbEntity
  8
ewns_dzialki
100
AcDbVertex
100
AcDb2dVertex
 10
7572345.94000000041
 20
5711211.29000000004
  0
VERTEX
  5
1A3
100
AcDbEntity
  8
ewns_dzialki
100
AcDbVertex
100
AcDb2dVertex
 10
7572342.21999999974
 20
5711220.34999999963
  0
VERTEX
  5
1A4
100
AcDbEntity
  8
ewns_dzialki
100
AcDbVertex
100
AcDb2dVertex
 10
7572338.65000000037
 20
5711229.04999999981
  0
VERTEX
  5
1A5
100
AcDbEntity
  8
ewns_dzialki
100
AcDbVertex
100
AcDb2dVertex
 10
7572335.04999999981
 20
5711237.83999999985
  0
VERTEX
  5
1A6
100
AcDbEntity
  8
ewns_dzialki
100
AcDbVertex
100
AcDb2dVertex
 10
7572331.41000000015
 20
5711246.71999999974
  0
VERTEX
  5
1A7
100
AcDbEntity
  8
ewns_dzialki
100
AcDbVertex
100
AcDb2dVertex
 10
7572330.53000000026
 20
5711248.84999999963
  0
VERTEX
  5
1A8
100
AcDbEntity
  8
ewns_dzialki
100
AcDbVertex
100
AcDb2dVertex
 10
7572327.79999999981
 20
5711255.50999999978
  0
VERTEX
  5
1A9
100
AcDbEntity
  8
ewns_dzialki
100
AcDbVertex
100
AcDb2dVertex
 10
7572326.20999999996
 20
5711259.40000000037
  0
VERTEX
  5
1AA
100
AcDbEntity
  8
ewns_dzialki
100
AcDbVertex
100
AcDb2dVertex
 10
7572323.51999999955
 20
5711266.25999999978
  0
VERTEX
  5
1AB
100
AcDbEntity
  8
ewns_dzialki
100
AcDbVertex
100
AcDb2dVertex
 10
7572319.45000000019
 20
5711276.63999999966
  0
VERTEX
  5
1AC
100
AcDbEntity
  8
ewns_dzialki
100
AcDbVertex
100
AcDb2dVertex
 10
7572317.45000000019
 20
5711281.74000000022
  0
VERTEX
  5
1AD
100
AcDbEntity
  8
ewns_dzialki
100
AcDbVertex
100
AcDb2dVertex
 10
7572315.41000000015
 20
5711286.9299999997
  0
VERTEX
  5
1AE
100
AcDbEntity
  8
ewns_dzialki
100
AcDbVertex
100
AcDb2dVertex
 10
7572311.29999999981
 20
5711297.41000000015
  0
VERTEX
  5
1AF
100
AcDbEntity
  8
ewns_dzialki
100
AcDbVertex
100
AcDb2dVertex
 10
7572306.8200000003
 20
5711308.37000000011
  0
VERTEX
  5
1B0
100
AcDbEntity
  8
ewns_dzialki
100
AcDbVertex
100
AcDb2dVertex
 10
7572301.8200000003
 20
5711320.58999999985
  0
VERTEX
  5
1B1
100
AcDbEntity
  8
ewns_dzialki
100
AcDbVertex
100
AcDb2dVertex
 10
7572296.94000000041
 20
5711332.53000000026
  0
VERTEX
  5
1B2
100
AcDbEntity
  8
ewns_dzialki
100
AcDbVertex
100
AcDb2dVertex
 10
7572291.6799999997
 20
5711345.38999999966
  0
VERTEX
  5
1B3
100
AcDbEntity
  8
ewns_dzialki
100
AcDbVertex
100
AcDb2dVertex
 10
7572286.61000000034
 20
5711357.79999999981
  0
VERTEX
  5
1B4
100
AcDbEntity
  8
ewns_dzialki
100
AcDbVertex
100
AcDb2dVertex
 10
7572281.71999999974
 20
5711369.74000000022
  0
VERTEX
  5
1B5
100
AcDbEntity
  8
ewns_dzialki
100
AcDbVertex
100
AcDb2dVertex
 10
7572276.45999999996
 20
5711382.59999999963
  0
VERTEX
  5
1B6
100
AcDbEntity
  8
ewns_dzialki
100
AcDbVertex
100
AcDb2dVertex
 10
7572271.73000000045
 20
5711394.16999999993
  0
VERTEX
  5
1B7
100
AcDbEntity
  8
ewns_dzialki
100
AcDbVertex
100
AcDb2dVertex
 10
7572266.70000000019
 20
5711406.48000000045
  0
VERTEX
  5
1B8
100
AcDbEntity
  8
ewns_dzialki
100
AcDbVertex
100
AcDb2dVertex
 10
7572261.78000000026
 20
5711418.51999999955
  0
VERTEX
  5
1B9
100
AcDbEntity
  8
ewns_dzialki
100
AcDbVertex
100
AcDb2dVertex
 10
7572256.44000000041
 20
5711431.5700000003
  0
VERTEX
  5
1BA
100
AcDbEntity
  8
ewns_dzialki
100
AcDbVertex
100
AcDb2dVertex
 10
7572250.79999999981
 20
5711445.36000000034
  0
VERTEX
  5
1BB
100
AcDbEntity
  8
ewns_dzialki
100
AcDbVertex
100
AcDb2dVertex
 10
7572245.24000000022
 20
5711458.96999999974
  0
VERTEX
  5
1BC
100
AcDbEntity
  8
ewns_dzialki
100
AcDbVertex
100
AcDb2dVertex
 10
7572238.79999999981
 20
5711474.70000000019
  0
VERTEX
  5
1BD
100
AcDbEntity
  8
ewns_dzialki
100
AcDbVertex
100
AcDb2dVertex
 10
7572232.75
 20
5711489.50999999978
  0
VERTEX
  5
1BE
100
AcDbEntity
  8
ewns_dzialki
100
AcDbVertex
100
AcDb2dVertex
 10
7572226.62000000011
 20
5711504.50999999978
  0
VERTEX
  5
1BF
100
AcDbEntity
  8
ewns_dzialki
100
AcDbVertex
100
AcDb2dVertex
 10
7572223.74000000022
 20
5711511.54000000004
  0
VERTEX
  5
1C0
100
AcDbEntity
  8
ewns_dzialki
100
AcDbVertex
100
AcDb2dVertex
 10
7572263.75999999978
 20
5711502.25
  0
SEQEND
  5
1C1
100
AcDbEntity
  8
ewns_dzialki
  0
POLYLINE
  5
1C2
100
AcDbEntity
  8
ewns_dzialki
  6
CONTINUOUS
370
18
100
AcDb2dPolyline
 66
1
 70
129
  0
VERTEX
  5
1C3
100
AcDbEntity
  8
ewns_dzialki
100
AcDbVertex
100
AcDb2dVertex
 10
7571528.79999999981
 20
5711710.3200000003
  0
VERTEX
  5
1C4
100
AcDbEntity
  8
ewns_dzialki
100
AcDbVertex
100
AcDb2dVertex
 10
7571477.15000000037
 20
5711735.44000000041
  0
VERTEX
  5
1C5
100
AcDbEntity
  8
ewns_dzialki
100
AcDbVertex
100
AcDb2dVertex
 10
7571494.21999999974
 20
5711768.48000000045
  0
VERTEX
  5
1C6
100
AcDbEntity
  8
ewns_dzialki
100
AcDbVertex
100
AcDb2dVertex
 10
7571566.28000000026
 20
5711733.46999999974
  0
SEQEND
  5
1C7
100
AcDbEntity
  8
ewns_dzialki
  0
POLYLINE
  5
1C8
100
AcDbEntity
  8
ewns_dzialki
  6
CONTINUOUS
370
18
100
AcDb2dPolyline
 66
1
 70
129
  0
VERTEX
  5
1C9
100
AcDbEntity
  8
ewns_dzialki
100
AcDbVertex
100
AcDb2dVertex
 10
7571338.15000000037
 20
5711803.04999999981
  0
VERTEX
  5
1CA
100
AcDbEntity
  8
ewns_dzialki
100
AcDbVertex
100
AcDb2dVertex
 10
7571388.25999999978
 20
5711906.05999999959
  0
VERTEX
  5
1CB
100
AcDbEntity
  8
ewns_dzialki
100
AcDbVertex
100
AcDb2dVertex
 10
7571644.83000000007
 20
5711782.0
  0
VERTEX
  5
1CC
100
AcDbEntity
  8
ewns_dzialki
100
AcDbVertex
100
AcDb2dVertex
 10
7571566.28000000026
 20
5711733.46999999974
  0
VERTEX
  5
1CD
100
AcDbEntity
  8
ewns_dzialki
100
AcDbVertex
100
AcDb2dVertex
 10
7571494.21999999974
 20
5711768.48000000045
  0
VERTEX
  5
1CE
100
AcDbEntity
  8
ewns_dzialki
100
AcDbVertex
100
AcDb2dVertex
 10
7571477.15000000037
 20
5711735.44000000041
  0
SEQEND
  5
1CF
100
AcDbEntity
  8
ewns_dzialki
  0
POLYLINE
  5
1D0
100
AcDbEntity
  8
ewns_dzialki
  6
CONTINUOUS
370
18
100
AcDb2dPolyline
 66
1
 70
129
  0
VERTEX
  5
1D1
100
AcDbEntity
  8
ewns_dzialki
100
AcDbVertex
100
AcDb2dVertex
 10
7570945.80999999959
 20
5711996.25999999978
  0
VERTEX
  5
1D2
100
AcDbEntity
  8
ewns_dzialki
100
AcDbVertex
100
AcDb2dVertex
 10
7571299.09999999963
 20
5711822.04000000004
  0
VERTEX
  5
1D3
100
AcDbEntity
  8
ewns_dzialki
100
AcDbVertex
100
AcDb2dVertex
 10
7571338.15000000037
 20
5711803.04999999981
  0
VERTEX
  5
1D4
100
AcDbEntity
  8
ewns_dzialki
100
AcDbVertex
100
AcDb2dVertex
 10
7571477.15000000037
 20
5711735.44000000041
  0
VERTEX
  5
1D5
100
AcDbEntity
  8
ewns_dzialki
100
AcDbVertex
100
AcDb2dVertex
 10
7571528.79999999981
 20
5711710.3200000003
  0
VERTEX
  5
1D6
100
AcDbEntity
  8
ewns_dzialki
100
AcDbVertex
100
AcDb2dVertex
 10
7571477.13999999966
 20
5711678.0700000003
  0
VERTEX
  5
1D7
100
AcDbEntity
  8
ewns_dzialki
100
AcDbVertex
100
AcDb2dVertex
 10
7570921.48000000045
 20
5711950.16000000015
  0
SEQEND
  5
1D8
100
AcDbEntity
  8
ewns_dzialki
  0
POLYLINE
  5
1D9
100
AcDbEntity
  8
ewns_dzialki
  6
CONTINUOUS
370
18
100
AcDb2dPolyline
 66
1
 70
129
  0
VERTEX
  5
1DA
100
AcDbEntity
  8
ewns_dzialki
100
AcDbVertex
100
AcDb2dVertex
 10
7571615.6799999997
 20
5711755.80999999959
  0
VERTEX
  5
1DB
100
AcDbEntity
  8
ewns_dzialki
100
AcDbVertex
100
AcDb2dVertex
 10
7571651.23000000045
 20
5711778.66999999993
  0
VERTEX
  5
1DC
100
AcDbEntity
  8
ewns_dzialki
100
AcDbVertex
100
AcDb2dVertex
 10
7571806.65000000037
 20
5711364.30999999959
  0
VERTEX
  5
1DD
100
AcDbEntity
  8
ewns_dzialki
100
AcDbVertex
100
AcDb2dVertex
 10
7571761.70999999996
 20
5711358.8200000003
  0
SEQEND
  5
1DE
100
AcDbEntity
  8
ewns_dzialki
  0
POLYLINE
  5
1DF
100
AcDbEntity
  8
ewns_dzialki
  6
CONTINUOUS
370
18
100
AcDb2dPolyline
 66
1
 70
129
  0
VERTEX
  5
1E0
100
AcDbEntity
  8
ewns_dzialki
100
AcDbVertex
100
AcDb2dVertex
 10
7571731.33999999985
 20
5711671.36000000034
  0
VERTEX
  5
1E1
100
AcDbEntity
  8
ewns_dzialki
100
AcDbVertex
100
AcDb2dVertex
 10
7571723.69000000041
 20
5711681.95000000019
  0
VERTEX
  5
1E2
100
AcDbEntity
  8
ewns_dzialki
100
AcDbVertex
100
AcDb2dVertex
 10
7571658.15000000037
 20
5711783.12000000011
  0
VERTEX
  5
1E3
100
AcDbEntity
  8
ewns_dzialki
100
AcDbVertex
100
AcDb2dVertex
 10
7571660.08000000007
 20
5711784.36000000034
  0
VERTEX
  5
1E4
100
AcDbEntity
  8
ewns_dzialki
100
AcDbVertex
100
AcDb2dVertex
 10
7571683.38999999966
 20
5711801.19000000041
  0
SEQEND
  5
1E5
100
AcDbEntity
  8
ewns_dzialki
  0
POLYLINE
  5
1E6
100
AcDbEntity
  8
ewns_dzialki
  6
CONTINUOUS
370
18
100
AcDb2dPolyline
 66
1
 70
129
  0
VERTEX
  5
1E7
100
AcDbEntity
  8
ewns_dzialki
100
AcDbVertex
100
AcDb2dVertex
 10
7571806.65000000037
 20
5711364.30999999959
  0
VERTEX
  5
1E8
100
AcDbEntity
  8
ewns_dzialki
100
AcDbVertex
100
AcDb2dVertex
 10
7571651.23000000045
 20
5711778.66999999993
  0
VERTEX
  5
1E9
100
AcDbEntity
  8
ewns_dzialki
100
AcDbVertex
100
AcDb2dVertex
 10
7571654.79000000004
 20
5711780.95999999996
  0
VERTEX
  5
1EA
100
AcDbEntity
  8
ewns_dzialki
100
AcDbVertex
100
AcDb2dVertex
 10
7571720.38999999966
 20
5711679.69000000041
  0
VERTEX
  5
1EB
100
AcDbEntity
  8
ewns_dzialki
100
AcDbVertex
100
AcDb2dVertex
 10
7571736.50999999978
 20
5711657.36000000034
  0
VERTEX
  5
1EC
100
AcDbEntity
  8
ewns_dzialki
100
AcDbVertex
100
AcDb2dVertex
 10
7571843.09999999963
 20
5711368.75999999978
  0
SEQEND
  5
1ED
100
AcDbEntity
  8
ewns_dzialki
  0
POLYLINE
  5
1EE
100
AcDbEntity
  8
ewns_dzialki
  6
CONTINUOUS
370
18
100
AcDb2dPolyline
 66
1
 70
129
  0
VERTEX
  5
1EF
100
AcDbEntity
  8
ewns_dzialki
100
AcDbVertex
100
AcDb2dVertex
 10
7571843.09999999963
 20
5711368.75999999978
  0
VERTEX
  5
1F0
100
AcDbEntity
  8
ewns_dzialki
100
AcDbVertex
100
AcDb2dVertex
 10
7571736.50999999978
 20
5711657.36000000034
  0
VERTEX
  5
1F1
100
AcDbEntity
  8
ewns_dzialki
100
AcDbVertex
100
AcDb2dVertex
 10
7571822.84999999963
 20
5711537.79999999981
  0
VERTEX
  5
1F2
100
AcDbEntity
  8
ewns_dzialki
100
AcDbVertex
100
AcDb2dVertex
 10
7571830.24000000022
 20
5711529.79999999981
  0
VERTEX
  5
1F3
100
AcDbEntity
  8
ewns_dzialki
100
AcDbVertex
100
AcDb2dVertex
 10
7571890.0
 20
5711374.49000000022
  0
SEQEND
  5
1F4
100
AcDbEntity
  8
ewns_dzialki
  0
POLYLINE
  5
1F5
100
AcDbEntity
  8
ewns_dzialki
  6
CONTINUOUS
370
18
100
AcDb2dPolyline
 66
1
 70
129
  0
VERTEX
  5
1F6
100
AcDbEntity
  8
ewns_dzialki
100
AcDbVertex
100
AcDb2dVertex
 10
7571731.33999999985
 20
5711671.36000000034
  0
VERTEX
  5
1F7
100
AcDbEntity
  8
ewns_dzialki
100
AcDbVertex
100
AcDb2dVertex
 10
7571683.38999999966
 20
5711801.19000000041
  0
VERTEX
  5
1F8
100
AcDbEntity
  8
ewns_dzialki
100
AcDbVertex
100
AcDb2dVertex
 10
7571716.58000000007
 20
5711825.16000000015
  0
VERTEX
  5
1F9
100
AcDbEntity
  8
ewns_dzialki
100
AcDbVertex
100
AcDb2dVertex
 10
7571826.33999999985
 20
5711539.91000000015
  0
VERTEX
  5
1FA
100
AcDbEntity
  8
ewns_dzialki
100
AcDbVertex
100
AcDb2dVertex
 10
7571825.95000000019
 20
5711540.33999999985
  0
SEQEND
  5
1FB
100
AcDbEntity
  8
ewns_dzialki
  0
POLYLINE
  5
1FC
100
AcDbEntity
  8
ewns_dzialki
  6
CONTINUOUS
420
255
370
18
100
AcDb2dPolyline
 66
1
 70
129
  0
VERTEX
  5
1FD
100
AcDbEntity
  8
ewns_dzialki
100
AcDbVertex
100
AcDb2dVertex
 10
7571890.0
 20
5711374.49000000022
  0
VERTEX
  5
1FE
100
AcDbEntity
  8
ewns_dzialki
100
AcDbVertex
100
AcDb2dVertex
 10
7571830.24000000022
 20
5711529.79999999981
  0
VERTEX
  5
1FF
100
AcDbEntity
  8
ewns_dzialki
100
AcDbVertex
100
AcDb2dVertex
 10
7571905.54999999981
 20
5711448.19000000041
  0
VERTEX
  5
200
100
AcDbEntity
  8
ewns_dzialki
100
AcDbVertex
100
AcDb2dVertex
 10
7571932.45999999996
 20
5711379.6799999997
  0
SEQEND
  5
201
100
AcDbEntity
  8
ewns_dzialki
  0
POLYLINE
  5
202
100
AcDbEntity
  8
ewns_dzialki
  6
CONTINUOUS
420
255
370
18
100
AcDb2dPolyline
 66
1
 70
129
  0
VERTEX
  5
203
100
AcDbEntity
  8
ewns_dzialki
100
AcDbVertex
100
AcDb2dVertex
 10
7571826.33999999985
 20
5711539.91000000015
  0
VERTEX
  5
204
100
AcDbEntity
  8
ewns_dzialki
100
AcDbVertex
100
AcDb2dVertex
 10
7571716.58000000007
 20
5711825.16000000015
  0
VERTEX
  5
205
100
AcDbEntity
  8
ewns_dzialki
100
AcDbVertex
100
AcDb2dVertex
 10
7571748.45999999996
 20
5711848.1799999997
  0
VERTEX
  5
206
100
AcDbEntity
  8
ewns_dzialki
100
AcDbVertex
100
AcDb2dVertex
 10
7571901.51999999955
 20
5711458.45999999996
  0
SEQEND
  5
207
100
AcDbEntity
  8
ewns_dzialki
  0
POLYLINE
  5
208
100
AcDbEntity
  8
ewns_dzialki
  6
CONTINUOUS
370
18
100
AcDb2dPolyline
 66
1
 70
129
  0
VERTEX
  5
209
100
AcDbEntity
  8
ewns_dzialki
100
AcDbVertex
100
AcDb2dVertex
 10
7571932.45999999996
 20
5711379.6799999997
  0
VERTEX
  5
20A
100
AcDbEntity
  8
ewns_dzialki
100
AcDbVertex
100
AcDb2dVertex
 10
7571905.54999999981
 20
5711448.19000000041
  0
VERTEX
  5
20B
100
AcDbEntity
  8
ewns_dzialki
100
AcDbVertex
100
AcDb2dVertex
 10
7571947.45000000019
 20
5711402.79999999981
  0
VERTEX
  5
20C
100
AcDbEntity
  8
ewns_dzialki
100
AcDbVertex
100
AcDb2dVertex
 10
7571934.87999999989
 20
5711379.96999999974
  0
SEQEND
  5
20D
100
AcDbEntity
  8
ewns_dzialki
  0
POLYLINE
  5
20E
100
AcDbEntity
  8
ewns_dzialki
  6
CONTINUOUS
370
18
100
AcDb2dPolyline
 66
1
 70
129
  0
VERTEX
  5
20F
100
AcDbEntity
  8
ewns_dzialki
100
AcDbVertex
100
AcDb2dVertex
 10
7571901.51999999955
 20
5711458.45999999996
  0
VERTEX
  5
210
100
AcDbEntity
  8
ewns_dzialki
100
AcDbVertex
100
AcDb2dVertex
 10
7571748.45999999996
 20
5711848.1799999997
  0
VERTEX
  5
211
100
AcDbEntity
  8
ewns_dzialki
100
AcDbVertex
100
AcDb2dVertex
 10
7571784.24000000022
 20
5711874.00999999978
  0
VERTEX
  5
212
100
AcDbEntity
  8
ewns_dzialki
100
AcDbVertex
100
AcDb2dVertex
 10
7571961.38999999966
 20
5711428.13999999966
  0
VERTEX
  5
213
100
AcDbEntity
  8
ewns_dzialki
100
AcDbVertex
100
AcDb2dVertex
 10
7571949.48000000045
 20
5711406.5
  0
SEQEND
  5
214
100
AcDbEntity
  8
ewns_dzialki
  0
POLYLINE
  5
215
100
AcDbEntity
  8
ewns_dzialki
  6
CONTINUOUS
370
18
100
AcDb2dPolyline
 66
1
 70
129
  0
VERTEX
  5
216
100
AcDbEntity
  8
ewns_dzialki
100
AcDbVertex
100
AcDb2dVertex
 10
7571961.38999999966
 20
5711428.13999999966
  0
VERTEX
  5
217
100
AcDbEntity
  8
ewns_dzialki
100
AcDbVertex
100
AcDb2dVertex
 10
7571784.24000000022
 20
5711874.00999999978
  0
VERTEX
  5
218
100
AcDbEntity
  8
ewns_dzialki
100
AcDbVertex
100
AcDb2dVertex
 10
7571820.00999999978
 20
5711899.83999999985
  0
VERTEX
  5
219
100
AcDbEntity
  8
ewns_dzialki
100
AcDbVertex
100
AcDb2dVertex
 10
7572007.01999999955
 20
5711443.0700000003
  0
VERTEX
  5
21A
100
AcDbEntity
  8
ewns_dzialki
100
AcDbVertex
100
AcDb2dVertex
 10
7571965.46999999974
 20
5711435.54999999981
  0
SEQEND
  5
21B
100
AcDbEntity
  8
ewns_dzialki
  0
POLYLINE
  5
21C
100
AcDbEntity
  8
ewns_dzialki
  6
CONTINUOUS
370
18
100
AcDb2dPolyline
 66
1
 70
129
  0
VERTEX
  5
21D
100
AcDbEntity
  8
ewns_dzialki
100
AcDbVertex
100
AcDb2dVertex
 10
7572010.50999999978
 20
5711475.96999999974
  0
VERTEX
  5
21E
100
AcDbEntity
  8
ewns_dzialki
100
AcDbVertex
100
AcDb2dVertex
 10
7572024.44000000041
 20
5711515.16000000015
  0
VERTEX
  5
21F
100
AcDbEntity
  8
ewns_dzialki
100
AcDbVertex
100
AcDb2dVertex
 10
7572049.87000000011
 20
5711452.91000000015
  0
VERTEX
  5
220
100
AcDbEntity
  8
ewns_dzialki
100
AcDbVertex
100
AcDb2dVertex
 10
7572020.03000000026
 20
5711442.84999999963
  0
VERTEX
  5
221
100
AcDbEntity
  8
ewns_dzialki
100
AcDbVertex
100
AcDb2dVertex
 10
7572018.33000000007
 20
5711445.12000000011
  0
VERTEX
  5
222
100
AcDbEntity
  8
ewns_dzialki
100
AcDbVertex
100
AcDb2dVertex
 10
7572012.95999999996
 20
5711444.15000000037
  0
SEQEND
  5
223
100
AcDbEntity
  8
ewns_dzialki
  0
POLYLINE
  5
224
100
AcDbEntity
  8
ewns_dzialki
  6
CONTINUOUS
370
18
100
AcDb2dPolyline
 66
1
 70
129
  0
VERTEX
  5
225
100
AcDbEntity
  8
ewns_dzialki
100
AcDbVertex
100
AcDb2dVertex
 10
7572007.01999999955
 20
5711443.0700000003
  0
VERTEX
  5
226
100
AcDbEntity
  8
ewns_dzialki
100
AcDbVertex
100
AcDb2dVertex
 10
7571820.00999999978
 20
5711899.83999999985
  0
VERTEX
  5
227
100
AcDbEntity
  8
ewns_dzialki
100
AcDbVertex
100
AcDb2dVertex
 10
7571821.38999999966
 20
5711900.83999999985
  0
VERTEX
  5
228
100
AcDbEntity
  8
ewns_dzialki
100
AcDbVertex
100
AcDb2dVertex
 10
7571854.88999999966
 20
5711930.13999999966
  0
VERTEX
  5
229
100
AcDbEntity
  8
ewns_dzialki
100
AcDbVertex
100
AcDb2dVertex
 10
7572021.03000000026
 20
5711523.5
  0
VERTEX
  5
22A
100
AcDbEntity
  8
ewns_dzialki
100
AcDbVertex
100
AcDb2dVertex
 10
7572004.4299999997
 20
5711476.78000000026
  0
SEQEND
  5
22B
100
AcDbEntity
  8
ewns_dzialki
  0
POLYLINE
  5
22C
100
AcDbEntity
  8
ewns_dzialki
  6
CONTINUOUS
370
18
100
AcDb2dPolyline
 66
1
 70
129
  0
VERTEX
  5
22D
100
AcDbEntity
  8
ewns_dzialki
100
AcDbVertex
100
AcDb2dVertex
 10
7572049.87000000011
 20
5711452.91000000015
  0
VERTEX
  5
22E
100
AcDbEntity
  8
ewns_dzialki
100
AcDbVertex
100
AcDb2dVertex
 10
7572024.44000000041
 20
5711515.16000000015
  0
VERTEX
  5
22F
100
AcDbEntity
  8
ewns_dzialki
100
AcDbVertex
100
AcDb2dVertex
 10
7572043.44000000041
 20
5711568.65000000037
  0
VERTEX
  5
230
100
AcDbEntity
  8
ewns_dzialki
100
AcDbVertex
100
AcDb2dVertex
 10
7572086.25999999978
 20
5711465.1799999997
  0
SEQEND
  5
231
100
AcDbEntity
  8
ewns_dzialki
  0
POLYLINE
  5
232
100
AcDbEntity
  8
ewns_dzialki
  6
CONTINUOUS
370
18
100
AcDb2dPolyline
 66
1
 70
129
  0
VERTEX
  5
233
100
AcDbEntity
  8
ewns_dzialki
100
AcDbVertex
100
AcDb2dVertex
 10
7572021.03000000026
 20
5711523.5
  0
VERTEX
  5
234
100
AcDbEntity
  8
ewns_dzialki
100
AcDbVertex
100
AcDb2dVertex
 10
7571854.88999999966
 20
5711930.13999999966
  0
VERTEX
  5
235
100
AcDbEntity
  8
ewns_dzialki
100
AcDbVertex
100
AcDb2dVertex
 10
7571884.33999999985
 20
5711953.11000000034
  0
VERTEX
  5
236
100
AcDbEntity
  8
ewns_dzialki
100
AcDbVertex
100
AcDb2dVertex
 10
7572040.00999999978
 20
5711576.9299999997
  0
SEQEND
  5
237
100
AcDbEntity
  8
ewns_dzialki
  0
POLYLINE
  5
238
100
AcDbEntity
  8
ewns_dzialki
  6
CONTINUOUS
370
18
100
AcDb2dPolyline
 66
1
 70
129
  0
VERTEX
  5
239
100
AcDbEntity
  8
ewns_dzialki
100
AcDbVertex
100
AcDb2dVertex
 10
7572086.25999999978
 20
5711465.1799999997
  0
VERTEX
  5
23A
100
AcDbEntity
  8
ewns_dzialki
100
AcDbVertex
100
AcDb2dVertex
 10
7572043.44000000041
 20
5711568.65000000037
  0
VERTEX
  5
23B
100
AcDbEntity
  8
ewns_dzialki
100
AcDbVertex
100
AcDb2dVertex
 10
7572051.84999999963
 20
5711592.30999999959
  0
VERTEX
  5
23C
100
AcDbEntity
  8
ewns_dzialki
100
AcDbVertex
100
AcDb2dVertex
 10
7572056.41000000015
 20
5711630.30999999959
  0
VERTEX
  5
23D
100
AcDbEntity
  8
ewns_dzialki
100
AcDbVertex
100
AcDb2dVertex
 10
7572121.79000000004
 20
5711477.16000000015
  0
SEQEND
  5
23E
100
AcDbEntity
  8
ewns_dzialki
  0
POLYLINE
  5
23F
100
AcDbEntity
  8
ewns_dzialki
  6
CONTINUOUS
370
18
100
AcDb2dPolyline
 66
1
 70
129
  0
VERTEX
  5
240
100
AcDbEntity
  8
ewns_dzialki
100
AcDbVertex
100
AcDb2dVertex
 10
7572040.00999999978
 20
5711576.9299999997
  0
VERTEX
  5
241
100
AcDbEntity
  8
ewns_dzialki
100
AcDbVertex
100
AcDb2dVertex
 10
7571884.33999999985
 20
5711953.11000000034
  0
VERTEX
  5
242
100
AcDbEntity
  8
ewns_dzialki
100
AcDbVertex
100
AcDb2dVertex
 10
7571910.04000000004
 20
5711973.15000000037
  0
VERTEX
  5
243
100
AcDbEntity
  8
ewns_dzialki
100
AcDbVertex
100
AcDb2dVertex
 10
7572051.69000000041
 20
5711641.34999999963
  0
VERTEX
  5
244
100
AcDbEntity
  8
ewns_dzialki
100
AcDbVertex
100
AcDb2dVertex
 10
7572045.96999999974
 20
5711593.69000000041
  0
SEQEND
  5
245
100
AcDbEntity
  8
ewns_dzialki
  0
POLYLINE
  5
246
100
AcDbEntity
  8
ewns_dzialki
  6
CONTINUOUS
370
18
100
AcDb2dPolyline
 66
1
 70
129
  0
VERTEX
  5
247
100
AcDbEntity
  8
ewns_dzialki
100
AcDbVertex
100
AcDb2dVertex
 10
7572121.79000000004
 20
5711477.16000000015
  0
VERTEX
  5
248
100
AcDbEntity
  8
ewns_dzialki
100
AcDbVertex
100
AcDb2dVertex
 10
7572056.41000000015
 20
5711630.30999999959
  0
VERTEX
  5
249
100
AcDbEntity
  8
ewns_dzialki
100
AcDbVertex
100
AcDb2dVertex
 10
7572062.6799999997
 20
5711682.54000000004
  0
VERTEX
  5
24A
100
AcDbEntity
  8
ewns_dzialki
100
AcDbVertex
100
AcDb2dVertex
 10
7572063.71999999974
 20
5711714.6799999997
  0
VERTEX
  5
24B
100
AcDbEntity
  8
ewns_dzialki
100
AcDbVertex
100
AcDb2dVertex
 10
7572154.08000000007
 20
5711505.66999999993
  0
VERTEX
  5
24C
100
AcDbEntity
  8
ewns_dzialki
100
AcDbVertex
100
AcDb2dVertex
 10
7572141.16999999993
 20
5711495.59999999963
  0
SEQEND
  5
24D
100
AcDbEntity
  8
ewns_dzialki
  0
POLYLINE
  5
24E
100
AcDbEntity
  8
ewns_dzialki
  6
CONTINUOUS
370
18
100
AcDb2dPolyline
 66
1
 70
129
  0
VERTEX
  5
24F
100
AcDbEntity
  8
ewns_dzialki
100
AcDbVertex
100
AcDb2dVertex
 10
7572051.69000000041
 20
5711641.34999999963
  0
VERTEX
  5
250
100
AcDbEntity
  8
ewns_dzialki
100
AcDbVertex
100
AcDb2dVertex
 10
7571910.04000000004
 20
5711973.15000000037
  0
VERTEX
  5
251
100
AcDbEntity
  8
ewns_dzialki
100
AcDbVertex
100
AcDb2dVertex
 10
7571927.95999999996
 20
5711987.13999999966
  0
VERTEX
  5
252
100
AcDbEntity
  8
ewns_dzialki
100
AcDbVertex
100
AcDb2dVertex
 10
7571941.25999999978
 20
5711997.94000000041
  0
VERTEX
  5
253
100
AcDbEntity
  8
ewns_dzialki
100
AcDbVertex
100
AcDb2dVertex
 10
7572058.12999999989
 20
5711727.59999999963
  0
VERTEX
  5
254
100
AcDbEntity
  8
ewns_dzialki
100
AcDbVertex
100
AcDb2dVertex
 10
7572056.69000000041
 20
5711683.0
  0
SEQEND
  5
255
100
AcDbEntity
  8
ewns_dzialki
  0
POLYLINE
  5
256
100
AcDbEntity
  8
ewns_dzialki
  6
CONTINUOUS
370
18
100
AcDb2dPolyline
 66
1
 70
129
  0
VERTEX
  5
257
100
AcDbEntity
  8
ewns_dzialki
100
AcDbVertex
100
AcDb2dVertex
 10
7572154.08000000007
 20
5711505.66999999993
  0
VERTEX
  5
258
100
AcDbEntity
  8
ewns_dzialki
100
AcDbVertex
100
AcDb2dVertex
 10
7572063.71999999974
 20
5711714.6799999997
  0
VERTEX
  5
259
100
AcDbEntity
  8
ewns_dzialki
100
AcDbVertex
100
AcDb2dVertex
 10
7572066.54000000004
 20
5711801.66999999993
  0
VERTEX
  5
25A
100
AcDbEntity
  8
ewns_dzialki
100
AcDbVertex
100
AcDb2dVertex
 10
7572191.88999999966
 20
5711522.91000000015
  0
VERTEX
  5
25B
100
AcDbEntity
  8
ewns_dzialki
100
AcDbVertex
100
AcDb2dVertex
 10
7572179.75999999978
 20
5711525.70999999996
  0
SEQEND
  5
25C
100
AcDbEntity
  8
ewns_dzialki
  0
POLYLINE
  5
25D
100
AcDbEntity
  8
ewns_dzialki
  6
CONTINUOUS
370
18
100
AcDb2dPolyline
 66
1
 70
129
  0
VERTEX
  5
25E
100
AcDbEntity
  8
ewns_dzialki
100
AcDbVertex
100
AcDb2dVertex
 10
7572058.12999999989
 20
5711727.59999999963
  0
VERTEX
  5
25F
100
AcDbEntity
  8
ewns_dzialki
100
AcDbVertex
100
AcDb2dVertex
 10
7571941.25999999978
 20
5711997.94000000041
  0
VERTEX
  5
260
100
AcDbEntity
  8
ewns_dzialki
100
AcDbVertex
100
AcDb2dVertex
 10
7571967.98000000045
 20
5712020.84999999963
  0
VERTEX
  5
261
100
AcDbEntity
  8
ewns_dzialki
100
AcDbVertex
100
AcDb2dVertex
 10
7572060.94000000041
 20
5711814.12999999989
  0
SEQEND
  5
262
100
AcDbEntity
  8
ewns_dzialki
  0
POLYLINE
  5
263
100
AcDbEntity
  8
ewns_dzialki
  6
CONTINUOUS
370
18
100
AcDb2dPolyline
 66
1
 70
129
  0
VERTEX
  5
264
100
AcDbEntity
  8
ewns_dzialki
100
AcDbVertex
100
AcDb2dVertex
 10
7572191.88999999966
 20
5711522.91000000015
  0
VERTEX
  5
265
100
AcDbEntity
  8
ewns_dzialki
100
AcDbVertex
100
AcDb2dVertex
 10
7572066.54000000004
 20
5711801.66999999993
  0
VERTEX
  5
266
100
AcDbEntity
  8
ewns_dzialki
100
AcDbVertex
100
AcDb2dVertex
 10
7572066.91999999993
 20
5711813.38999999966
  0
VERTEX
  5
267
100
AcDbEntity
  8
ewns_dzialki
100
AcDbVertex
100
AcDb2dVertex
 10
7572077.91000000015
 20
5711864.00999999978
  0
VERTEX
  5
268
100
AcDbEntity
  8
ewns_dzialki
100
AcDbVertex
100
AcDb2dVertex
 10
7572237.34999999963
 20
5711512.44000000041
  0
SEQEND
  5
269
100
AcDbEntity
  8
ewns_dzialki
  0
POLYLINE
  5
26A
100
AcDbEntity
  8
ewns_dzialki
  6
CONTINUOUS
370
18
100
AcDb2dPolyline
 66
1
 70
129
  0
VERTEX
  5
26B
100
AcDbEntity
  8
ewns_dzialki
100
AcDbVertex
100
AcDb2dVertex
 10
7572237.34999999963
 20
5711512.44000000041
  0
VERTEX
  5
26C
100
AcDbEntity
  8
ewns_dzialki
100
AcDbVertex
100
AcDb2dVertex
 10
7572077.91000000015
 20
5711864.00999999978
  0
VERTEX
  5
26D
100
AcDbEntity
  8
ewns_dzialki
100
AcDbVertex
100
AcDb2dVertex
 10
7572080.44000000041
 20
5711875.63999999966
  0
VERTEX
  5
26E
100
AcDbEntity
  8
ewns_dzialki
100
AcDbVertex
100
AcDb2dVertex
 10
7572075.40000000037
 20
5711930.16000000015
  0
VERTEX
  5
26F
100
AcDbEntity
  8
ewns_dzialki
100
AcDbVertex
100
AcDb2dVertex
 10
7572081.96999999974
 20
5711954.0
  0
VERTEX
  5
270
100
AcDbEntity
  8
ewns_dzialki
100
AcDbVertex
100
AcDb2dVertex
 10
7572276.74000000022
 20
5711549.54999999981
  0
VERTEX
  5
271
100
AcDbEntity
  8
ewns_dzialki
100
AcDbVertex
100
AcDb2dVertex
 10
7572264.8200000003
 20
5711506.11000000034
  0
SEQEND
  5
272
100
AcDbEntity
  8
ewns_dzialki
  0
POLYLINE
  5
273
100
AcDbEntity
  8
ewns_dzialki
  6
CONTINUOUS
370
18
100
AcDb2dPolyline
 66
1
 70
129
  0
VERTEX
  5
274
100
AcDbEntity
  8
ewns_dzialki
100
AcDbVertex
100
AcDb2dVertex
 10
7572276.74000000022
 20
5711549.54999999981
  0
VERTEX
  5
275
100
AcDbEntity
  8
ewns_dzialki
100
AcDbVertex
100
AcDb2dVertex
 10
7572081.96999999974
 20
5711954.0
  0
VERTEX
  5
276
100
AcDbEntity
  8
ewns_dzialki
100
AcDbVertex
100
AcDb2dVertex
 10
7572082.1799999997
 20
5711955.05999999959
  0
VERTEX
  5
277
100
AcDbEntity
  8
ewns_dzialki
100
AcDbVertex
100
AcDb2dVertex
 10
7572087.36000000034
 20
5711973.45000000019
  0
VERTEX
  5
278
100
AcDbEntity
  8
ewns_dzialki
100
AcDbVertex
100
AcDb2dVertex
 10
7572088.40000000037
 20
5711976.25
  0
VERTEX
  5
279
100
AcDbEntity
  8
ewns_dzialki
100
AcDbVertex
100
AcDb2dVertex
 10
7572092.94000000041
 20
5711974.96999999974
  0
VERTEX
  5
27A
100
AcDbEntity
  8
ewns_dzialki
100
AcDbVertex
100
AcDb2dVertex
 10
7572096.62999999989
 20
5711988.08000000007
  0
VERTEX
  5
27B
100
AcDbEntity
  8
ewns_dzialki
100
AcDbVertex
100
AcDb2dVertex
 10
7572287.80999999959
 20
5711589.91000000015
  0
SEQEND
  5
27C
100
AcDbEntity
  8
ewns_dzialki
  0
POLYLINE
  5
27D
100
AcDbEntity
  8
ewns_dzialki
  6
CONTINUOUS
370
18
100
AcDb2dPolyline
 66
1
 70
129
  0
VERTEX
  5
27E
100
AcDbEntity
  8
ewns_dzialki
100
AcDbVertex
100
AcDb2dVertex
 10
7572302.04000000004
 20
5711641.80999999959
  0
VERTEX
  5
27F
100
AcDbEntity
  8
ewns_dzialki
100
AcDbVertex
100
AcDb2dVertex
 10
7572295.76999999955
 20
5711618.94000000041
  0
VERTEX
  5
280
100
AcDbEntity
  8
ewns_dzialki
100
AcDbVertex
100
AcDb2dVertex
 10
7572248.54999999981
 20
5711715.51999999955
  0
VERTEX
  5
281
100
AcDbEntity
  8
ewns_dzialki
100
AcDbVertex
100
AcDb2dVertex
 10
7572256.05999999959
 20
5711737.40000000037
  0
SEQEND
  5
282
100
AcDbEntity
  8
ewns_dzialki
  0
POLYLINE
  5
283
100
AcDbEntity
  8
ewns_dzialki
  6
CONTINUOUS
370
18
100
AcDb2dPolyline
 66
1
 70
129
  0
VERTEX
  5
284
100
AcDbEntity
  8
ewns_dzialki
100
AcDbVertex
100
AcDb2dVertex
 10
7572096.62999999989
 20
5711988.08000000007
  0
VERTEX
  5
285
100
AcDbEntity
  8
ewns_dzialki
100
AcDbVertex
100
AcDb2dVertex
 10
7572103.90000000037
 20
5712003.54999999981
  0
VERTEX
  5
286
100
AcDbEntity
  8
ewns_dzialki
100
AcDbVertex
100
AcDb2dVertex
 10
7572111.6799999997
 20
5712007.04999999981
  0
VERTEX
  5
287
100
AcDbEntity
  8
ewns_dzialki
100
AcDbVertex
100
AcDb2dVertex
 10
7572231.90000000037
 20
5711787.62000000011
  0
VERTEX
  5
288
100
AcDbEntity
  8
ewns_dzialki
100
AcDbVertex
100
AcDb2dVertex
 10
7572256.05999999959
 20
5711737.40000000037
  0
VERTEX
  5
289
100
AcDbEntity
  8
ewns_dzialki
100
AcDbVertex
100
AcDb2dVertex
 10
7572248.54999999981
 20
5711715.51999999955
  0
VERTEX
  5
28A
100
AcDbEntity
  8
ewns_dzialki
100
AcDbVertex
100
AcDb2dVertex
 10
7572295.76999999955
 20
5711618.94000000041
  0
VERTEX
  5
28B
100
AcDbEntity
  8
ewns_dzialki
100
AcDbVertex
100
AcDb2dVertex
 10
7572287.80999999959
 20
5711589.91000000015
  0
SEQEND
  5
28C
100
AcDbEntity
  8
ewns_dzialki
  0
POLYLINE
  5
28D
100
AcDbEntity
  8
ewns_dzialki
  6
CONTINUOUS
370
18
100
AcDb2dPolyline
 66
1
 70
129
  0
VERTEX
  5
28E
100
AcDbEntity
  8
ewns_dzialki
100
AcDbVertex
100
AcDb2dVertex
 10
7572231.90000000037
 20
5711787.62000000011
  0
VERTEX
  5
28F
100
AcDbEntity
  8
ewns_dzialki
100
AcDbVertex
100
AcDb2dVertex
 10
7572108.08000000007
 20
5712045.00999999978
  0
VERTEX
  5
290
100
AcDbEntity
  8
ewns_dzialki
100
AcDbVertex
100
AcDb2dVertex
 10
7572113.70999999996
 20
5712071.88999999966
  0
VERTEX
  5
291
100
AcDbEntity
  8
ewns_dzialki
100
AcDbVertex
100
AcDb2dVertex
 10
7572118.20000000019
 20
5712089.08000000007
  0
VERTEX
  5
292
100
AcDbEntity
  8
ewns_dzialki
100
AcDbVertex
100
AcDb2dVertex
 10
7572312.20000000019
 20
5711678.80999999959
  0
VERTEX
  5
293
100
AcDbEntity
  8
ewns_dzialki
100
AcDbVertex
100
AcDb2dVertex
 10
7572302.04000000004
 20
5711641.80999999959
  0
VERTEX
  5
294
100
AcDbEntity
  8
ewns_dzialki
100
AcDbVertex
100
AcDb2dVertex
 10
7572256.05999999959
 20
5711737.40000000037
  0
SEQEND
  5
295
100
AcDbEntity
  8
ewns_dzialki
  0
POLYLINE
  5
296
100
AcDbEntity
  8
ewns_dzialki
  6
CONTINUOUS
370
18
100
AcDb2dPolyline
 66
1
 70
129
  0
VERTEX
  5
297
100
AcDbEntity
  8
ewns_dzialki
100
AcDbVertex
100
AcDb2dVertex
 10
7572020.03000000026
 20
5711442.84999999963
  0
VERTEX
  5
298
100
AcDbEntity
  8
ewns_dzialki
100
AcDbVertex
100
AcDb2dVertex
 10
7572049.87000000011
 20
5711452.91000000015
  0
VERTEX
  5
299
100
AcDbEntity
  8
ewns_dzialki
100
AcDbVertex
100
AcDb2dVertex
 10
7572086.25999999978
 20
5711465.1799999997
  0
VERTEX
  5
29A
100
AcDbEntity
  8
ewns_dzialki
100
AcDbVertex
100
AcDb2dVertex
 10
7572121.79000000004
 20
5711477.16000000015
  0
VERTEX
  5
29B
100
AcDbEntity
  8
ewns_dzialki
100
AcDbVertex
100
AcDb2dVertex
 10
7572109.73000000045
 20
5711465.25999999978
  0
VERTEX
  5
29C
100
AcDbEntity
  8
ewns_dzialki
100
AcDbVertex
100
AcDb2dVertex
 10
7572024.66000000015
 20
5711436.69000000041
  0
SEQEND
  5
29D
100
AcDbEntity
  8
ewns_dzialki
  0
POLYLINE
  5
29E
100
AcDbEntity
  8
ewns_dzialki
  6
CONTINUOUS
370
18
100
AcDb2dPolyline
 66
1
 70
129
  0
VERTEX
  5
29F
100
AcDbEntity
  8
ewns_dzialki
100
AcDbVertex
100
AcDb2dVertex
 10
7572223.74000000022
 20
5711511.54000000004
  0
VERTEX
  5
2A0
100
AcDbEntity
  8
ewns_dzialki
100
AcDbVertex
100
AcDb2dVertex
 10
7572226.62000000011
 20
5711504.50999999978
  0
VERTEX
  5
2A1
100
AcDbEntity
  8
ewns_dzialki
100
AcDbVertex
100
AcDb2dVertex
 10
7572118.36000000034
 20
5711468.15000000037
  0
VERTEX
  5
2A2
100
AcDbEntity
  8
ewns_dzialki
100
AcDbVertex
100
AcDb2dVertex
 10
7572124.5700000003
 20
5711474.29000000004
  0
VERTEX
  5
2A3
100
AcDbEntity
  8
ewns_dzialki
100
AcDbVertex
100
AcDb2dVertex
 10
7572143.79000000004
 20
5711492.5700000003
  0
VERTEX
  5
2A4
100
AcDbEntity
  8
ewns_dzialki
100
AcDbVertex
100
AcDb2dVertex
 10
7572180.71999999974
 20
5711521.37999999989
  0
SEQEND
  5
2A5
100
AcDbEntity
  8
ewns_dzialki
  0
POLYLINE
  5
2A6
100
AcDbEntity
  8
ewns_dzialki
  6
CONTINUOUS
370
18
100
AcDb2dPolyline
 66
1
 70
129
  0
VERTEX
  5
2A7
100
AcDbEntity
  8
ewns_dzialki
100
AcDbVertex
100
AcDb2dVertex
 10
7572024.66000000015
 20
5711436.69000000041
  0
VERTEX
  5
2A8
100
AcDbEntity
  8
ewns_dzialki
100
AcDbVertex
100
AcDb2dVertex
 10
7572109.73000000045
 20
5711465.25999999978
  0
VERTEX
  5
2A9
100
AcDbEntity
  8
ewns_dzialki
100
AcDbVertex
100
AcDb2dVertex
 10
7572085.36000000034
 20
5711441.21999999974
  0
VERTEX
  5
2AA
100
AcDbEntity
  8
ewns_dzialki
100
AcDbVertex
100
AcDb2dVertex
 10
7572033.91999999993
 20
5711424.36000000034
  0
SEQEND
  5
2AB
100
AcDbEntity
  8
ewns_dzialki
  0
POLYLINE
  5
2AC
100
AcDbEntity
  8
ewns_dzialki
  6
CONTINUOUS
370
18
100
AcDb2dPolyline
 66
1
 70
129
  0
VERTEX
  5
2AD
100
AcDbEntity
  8
ewns_dzialki
100
AcDbVertex
100
AcDb2dVertex
 10
7572226.62000000011
 20
5711504.50999999978
  0
VERTEX
  5
2AE
100
AcDbEntity
  8
ewns_dzialki
100
AcDbVertex
100
AcDb2dVertex
 10
7572232.75
 20
5711489.50999999978
  0
VERTEX
  5
2AF
100
AcDbEntity
  8
ewns_dzialki
100
AcDbVertex
100
AcDb2dVertex
 10
7572093.88999999966
 20
5711444.00999999978
  0
VERTEX
  5
2B0
100
AcDbEntity
  8
ewns_dzialki
100
AcDbVertex
100
AcDb2dVertex
 10
7572118.36000000034
 20
5711468.15000000037
  0
SEQEND
  5
2B1
100
AcDbEntity
  8
ewns_dzialki
  0
POLYLINE
  5
2B2
100
AcDbEntity
  8
ewns_dzialki
  6
CONTINUOUS
370
18
100
AcDb2dPolyline
 66
1
 70
129
  0
VERTEX
  5
2B3
100
AcDbEntity
  8
ewns_dzialki
100
AcDbVertex
100
AcDb2dVertex
 10
7572033.91999999993
 20
5711424.36000000034
  0
VERTEX
  5
2B4
100
AcDbEntity
  8
ewns_dzialki
100
AcDbVertex
100
AcDb2dVertex
 10
7572085.36000000034
 20
5711441.21999999974
  0
VERTEX
  5
2B5
100
AcDbEntity
  8
ewns_dzialki
100
AcDbVertex
100
AcDb2dVertex
 10
7572068.71999999974
 20
5711419.03000000026
  0
VERTEX
  5
2B6
100
AcDbEntity
  8
ewns_dzialki
100
AcDbVertex
100
AcDb2dVertex
 10
7572044.00999999978
 20
5711410.94000000041
  0
SEQEND
  5
2B7
100
AcDbEntity
  8
ewns_dzialki
  0
POLYLINE
  5
2B8
100
AcDbEntity
  8
ewns_dzialki
  6
CONTINUOUS
370
18
100
AcDb2dPolyline
 66
1
 70
129
  0
VERTEX
  5
2B9
100
AcDbEntity
  8
ewns_dzialki
100
AcDbVertex
100
AcDb2dVertex
 10
7572232.75
 20
5711489.50999999978
  0
VERTEX
  5
2BA
100
AcDbEntity
  8
ewns_dzialki
100
AcDbVertex
100
AcDb2dVertex
 10
7572238.79999999981
 20
5711474.70000000019
  0
VERTEX
  5
2BB
100
AcDbEntity
  8
ewns_dzialki
100
AcDbVertex
100
AcDb2dVertex
 10
7572075.34999999963
 20
5711421.20000000019
  0
VERTEX
  5
2BC
100
AcDbEntity
  8
ewns_dzialki
100
AcDbVertex
100
AcDb2dVertex
 10
7572088.37999999989
 20
5711438.58000000007
  0
VERTEX
  5
2BD
100
AcDbEntity
  8
ewns_dzialki
100
AcDbVertex
100
AcDb2dVertex
 10
7572093.88999999966
 20
5711444.00999999978
  0
SEQEND
  5
2BE
100
AcDbEntity
  8
ewns_dzialki
  0
POLYLINE
  5
2BF
100
AcDbEntity
  8
ewns_dzialki
  6
CONTINUOUS
370
18
100
AcDb2dPolyline
 66
1
 70
129
  0
VERTEX
  5
2C0
100
AcDbEntity
  8
ewns_dzialki
100
AcDbVertex
100
AcDb2dVertex
 10
7572068.71999999974
 20
5711419.03000000026
  0
VERTEX
  5
2C1
100
AcDbEntity
  8
ewns_dzialki
100
AcDbVertex
100
AcDb2dVertex
 10
7572053.33999999985
 20
5711398.51999999955
  0
VERTEX
  5
2C2
100
AcDbEntity
  8
ewns_dzialki
100
AcDbVertex
100
AcDb2dVertex
 10
7572044.00999999978
 20
5711410.94000000041
  0
SEQEND
  5
2C3
100
AcDbEntity
  8
ewns_dzialki
  0
POLYLINE
  5
2C4
100
AcDbEntity
  8
ewns_dzialki
  6
CONTINUOUS
370
18
100
AcDb2dPolyline
 66
1
 70
129
  0
VERTEX
  5
2C5
100
AcDbEntity
  8
ewns_dzialki
100
AcDbVertex
100
AcDb2dVertex
 10
7572238.79999999981
 20
5711474.70000000019
  0
VERTEX
  5
2C6
100
AcDbEntity
  8
ewns_dzialki
100
AcDbVertex
100
AcDb2dVertex
 10
7572245.24000000022
 20
5711458.96999999974
  0
VERTEX
  5
2C7
100
AcDbEntity
  8
ewns_dzialki
100
AcDbVertex
100
AcDb2dVertex
 10
7572059.88999999966
 20
5711400.58000000007
  0
VERTEX
  5
2C8
100
AcDbEntity
  8
ewns_dzialki
100
AcDbVertex
100
AcDb2dVertex
 10
7572075.34999999963
 20
5711421.20000000019
  0
SEQEND
  5
2C9
100
AcDbEntity
  8
ewns_dzialki
  0
POLYLINE
  5
2CA
100
AcDbEntity
  8
ewns_dzialki
  6
CONTINUOUS
370
18
100
AcDb2dPolyline
 66
1
 70
129
  0
VERTEX
  5
2CB
100
AcDbEntity
  8
ewns_dzialki
100
AcDbVertex
100
AcDb2dVertex
 10
7572245.24000000022
 20
5711458.96999999974
  0
VERTEX
  5
2CC
100
AcDbEntity
  8
ewns_dzialki
100
AcDbVertex
100
AcDb2dVertex
 10
7572250.79999999981
 20
5711445.36000000034
  0
VERTEX
  5
2CD
100
AcDbEntity
  8
ewns_dzialki
100
AcDbVertex
100
AcDb2dVertex
 10
7572054.29000000004
 20
5711384.04999999981
  0
VERTEX
  5
2CE
100
AcDbEntity
  8
ewns_dzialki
100
AcDbVertex
100
AcDb2dVertex
 10
7572059.20999999996
 20
5711390.70000000019
  0
VERTEX
  5
2CF
100
AcDbEntity
  8
ewns_dzialki
100
AcDbVertex
100
AcDb2dVertex
 10
7572055.83999999985
 20
5711395.19000000041
  0
VERTEX
  5
2D0
100
AcDbEntity
  8
ewns_dzialki
100
AcDbVertex
100
AcDb2dVertex
 10
7572059.88999999966
 20
5711400.58000000007
  0
SEQEND
  5
2D1
100
AcDbEntity
  8
ewns_dzialki
  0
POLYLINE
  5
2D2
100
AcDbEntity
  8
ewns_dzialki
  6
CONTINUOUS
370
18
100
AcDb2dPolyline
 66
1
 70
129
  0
VERTEX
  5
2D3
100
AcDbEntity
  8
ewns_dzialki
100
AcDbVertex
100
AcDb2dVertex
 10
7572250.79999999981
 20
5711445.36000000034
  0
VERTEX
  5
2D4
100
AcDbEntity
  8
ewns_dzialki
100
AcDbVertex
100
AcDb2dVertex
 10
7572256.44000000041
 20
5711431.5700000003
  0
VERTEX
  5
2D5
100
AcDbEntity
  8
ewns_dzialki
100
AcDbVertex
100
AcDb2dVertex
 10
7572040.58000000007
 20
5711365.53000000026
  0
VERTEX
  5
2D6
100
AcDbEntity
  8
ewns_dzialki
100
AcDbVertex
100
AcDb2dVertex
 10
7572054.29000000004
 20
5711384.04999999981
  0
SEQEND
  5
2D7
100
AcDbEntity
  8
ewns_dzialki
  0
POLYLINE
  5
2D8
100
AcDbEntity
  8
ewns_dzialki
  6
CONTINUOUS
370
18
100
AcDb2dPolyline
 66
1
 70
129
  0
VERTEX
  5
2D9
100
AcDbEntity
  8
ewns_dzialki
100
AcDbVertex
100
AcDb2dVertex
 10
7572256.44000000041
 20
5711431.5700000003
  0
VERTEX
  5
2DA
100
AcDbEntity
  8
ewns_dzialki
100
AcDbVertex
100
AcDb2dVertex
 10
7572261.78000000026
 20
5711418.51999999955
  0
VERTEX
  5
2DB
100
AcDbEntity
  8
ewns_dzialki
100
AcDbVertex
100
AcDb2dVertex
 10
7572027.70999999996
 20
5711348.12999999989
  0
VERTEX
  5
2DC
100
AcDbEntity
  8
ewns_dzialki
100
AcDbVertex
100
AcDb2dVertex
 10
7572040.58000000007
 20
5711365.53000000026
  0
SEQEND
  5
2DD
100
AcDbEntity
  8
ewns_dzialki
  0
POLYLINE
  5
2DE
100
AcDbEntity
  8
ewns_dzialki
  6
CONTINUOUS
370
18
100
AcDb2dPolyline
 66
1
 70
129
  0
VERTEX
  5
2DF
100
AcDbEntity
  8
ewns_dzialki
100
AcDbVertex
100
AcDb2dVertex
 10
7572261.78000000026
 20
5711418.51999999955
  0
VERTEX
  5
2E0
100
AcDbEntity
  8
ewns_dzialki
100
AcDbVertex
100
AcDb2dVertex
 10
7572266.70000000019
 20
5711406.48000000045
  0
VERTEX
  5
2E1
100
AcDbEntity
  8
ewns_dzialki
100
AcDbVertex
100
AcDb2dVertex
 10
7572016.13999999966
 20
5711332.5
  0
VERTEX
  5
2E2
100
AcDbEntity
  8
ewns_dzialki
100
AcDbVertex
100
AcDb2dVertex
 10
7572027.70999999996
 20
5711348.12999999989
  0
SEQEND
  5
2E3
100
AcDbEntity
  8
ewns_dzialki
  0
POLYLINE
  5
2E4
100
AcDbEntity
  8
ewns_dzialki
  6
CONTINUOUS
370
18
100
AcDb2dPolyline
 66
1
 70
129
  0
VERTEX
  5
2E5
100
AcDbEntity
  8
ewns_dzialki
100
AcDbVertex
100
AcDb2dVertex
 10
7572266.70000000019
 20
5711406.48000000045
  0
VERTEX
  5
2E6
100
AcDbEntity
  8
ewns_dzialki
100
AcDbVertex
100
AcDb2dVertex
 10
7572271.73000000045
 20
5711394.16999999993
  0
VERTEX
  5
2E7
100
AcDbEntity
  8
ewns_dzialki
100
AcDbVertex
100
AcDb2dVertex
 10
7572011.09999999963
 20
5711316.90000000037
  0
VERTEX
  5
2E8
100
AcDbEntity
  8
ewns_dzialki
100
AcDbVertex
100
AcDb2dVertex
 10
7572008.6799999997
 20
5711322.41999999993
  0
VERTEX
  5
2E9
100
AcDbEntity
  8
ewns_dzialki
100
AcDbVertex
100
AcDb2dVertex
 10
7572016.13999999966
 20
5711332.5
  0
SEQEND
  5
2EA
100
AcDbEntity
  8
ewns_dzialki
  0
POLYLINE
  5
2EB
100
AcDbEntity
  8
ewns_dzialki
  6
CONTINUOUS
370
18
100
AcDb2dPolyline
 66
1
 70
129
  0
VERTEX
  5
2EC
100
AcDbEntity
  8
ewns_dzialki
100
AcDbVertex
100
AcDb2dVertex
 10
7572271.73000000045
 20
5711394.16999999993
  0
VERTEX
  5
2ED
100
AcDbEntity
  8
ewns_dzialki
100
AcDbVertex
100
AcDb2dVertex
 10
7572276.45999999996
 20
5711382.59999999963
  0
VERTEX
  5
2EE
100
AcDbEntity
  8
ewns_dzialki
100
AcDbVertex
100
AcDb2dVertex
 10
7572016.01999999955
 20
5711305.62000000011
  0
VERTEX
  5
2EF
100
AcDbEntity
  8
ewns_dzialki
100
AcDbVertex
100
AcDb2dVertex
 10
7572011.09999999963
 20
5711316.90000000037
  0
SEQEND
  5
2F0
100
AcDbEntity
  8
ewns_dzialki
  0
POLYLINE
  5
2F1
100
AcDbEntity
  8
ewns_dzialki
  6
CONTINUOUS
370
18
100
AcDb2dPolyline
 66
1
 70
129
  0
VERTEX
  5
2F2
100
AcDbEntity
  8
ewns_dzialki
100
AcDbVertex
100
AcDb2dVertex
 10
7572276.45999999996
 20
5711382.59999999963
  0
VERTEX
  5
2F3
100
AcDbEntity
  8
ewns_dzialki
100
AcDbVertex
100
AcDb2dVertex
 10
7572281.71999999974
 20
5711369.74000000022
  0
VERTEX
  5
2F4
100
AcDbEntity
  8
ewns_dzialki
100
AcDbVertex
100
AcDb2dVertex
 10
7572021.54999999981
 20
5711292.98000000045
  0
VERTEX
  5
2F5
100
AcDbEntity
  8
ewns_dzialki
100
AcDbVertex
100
AcDb2dVertex
 10
7572016.01999999955
 20
5711305.62000000011
  0
SEQEND
  5
2F6
100
AcDbEntity
  8
ewns_dzialki
  0
POLYLINE
  5
2F7
100
AcDbEntity
  8
ewns_dzialki
  6
CONTINUOUS
370
18
100
AcDb2dPolyline
 66
1
 70
129
  0
VERTEX
  5
2F8
100
AcDbEntity
  8
ewns_dzialki
100
AcDbVertex
100
AcDb2dVertex
 10
7572281.71999999974
 20
5711369.74000000022
  0
VERTEX
  5
2F9
100
AcDbEntity
  8
ewns_dzialki
100
AcDbVertex
100
AcDb2dVertex
 10
7572286.61000000034
 20
5711357.79999999981
  0
VERTEX
  5
2FA
100
AcDbEntity
  8
ewns_dzialki
100
AcDbVertex
100
AcDb2dVertex
 10
7572026.58999999985
 20
5711281.4299999997
  0
VERTEX
  5
2FB
100
AcDbEntity
  8
ewns_dzialki
100
AcDbVertex
100
AcDb2dVertex
 10
7572021.54999999981
 20
5711292.98000000045
  0
SEQEND
  5
2FC
100
AcDbEntity
  8
ewns_dzialki
  0
POLYLINE
  5
2FD
100
AcDbEntity
  8
ewns_dzialki
  6
CONTINUOUS
370
18
100
AcDb2dPolyline
 66
1
 70
129
  0
VERTEX
  5
2FE
100
AcDbEntity
  8
ewns_dzialki
100
AcDbVertex
100
AcDb2dVertex
 10
7572286.61000000034
 20
5711357.79999999981
  0
VERTEX
  5
2FF
100
AcDbEntity
  8
ewns_dzialki
100
AcDbVertex
100
AcDb2dVertex
 10
7572291.6799999997
 20
5711345.38999999966
  0
VERTEX
  5
300
100
AcDbEntity
  8
ewns_dzialki
100
AcDbVertex
100
AcDb2dVertex
 10
7572031.87999999989
 20
5711269.33000000007
  0
VERTEX
  5
301
100
AcDbEntity
  8
ewns_dzialki
100
AcDbVertex
100
AcDb2dVertex
 10
7572026.58999999985
 20
5711281.4299999997
  0
SEQEND
  5
302
100
AcDbEntity
  8
ewns_dzialki
  0
POLYLINE
  5
303
100
AcDbEntity
  8
ewns_dzialki
  6
CONTINUOUS
370
18
100
AcDb2dPolyline
 66
1
 70
129
  0
VERTEX
  5
304
100
AcDbEntity
  8
ewns_dzialki
100
AcDbVertex
100
AcDb2dVertex
 10
7572291.6799999997
 20
5711345.38999999966
  0
VERTEX
  5
305
100
AcDbEntity
  8
ewns_dzialki
100
AcDbVertex
100
AcDb2dVertex
 10
7572296.94000000041
 20
5711332.53000000026
  0
VERTEX
  5
306
100
AcDbEntity
  8
ewns_dzialki
100
AcDbVertex
100
AcDb2dVertex
 10
7572037.36000000034
 20
5711256.76999999955
  0
VERTEX
  5
307
100
AcDbEntity
  8
ewns_dzialki
100
AcDbVertex
100
AcDb2dVertex
 10
7572031.87999999989
 20
5711269.33000000007
  0
SEQEND
  5
308
100
AcDbEntity
  8
ewns_dzialki
  0
POLYLINE
  5
309
100
AcDbEntity
  8
ewns_dzialki
  6
CONTINUOUS
370
18
100
AcDb2dPolyline
 66
1
 70
129
  0
VERTEX
  5
30A
100
AcDbEntity
  8
ewns_dzialki
100
AcDbVertex
100
AcDb2dVertex
 10
7572263.75999999978
 20
5711502.25
  0
VERTEX
  5
30B
100
AcDbEntity
  8
ewns_dzialki
100
AcDbVertex
100
AcDb2dVertex
 10
7572223.74000000022
 20
5711511.54000000004
  0
VERTEX
  5
30C
100
AcDbEntity
  8
ewns_dzialki
100
AcDbVertex
100
AcDb2dVertex
 10
7572180.71999999974
 20
5711521.37999999989
  0
VERTEX
  5
30D
100
AcDbEntity
  8
ewns_dzialki
100
AcDbVertex
100
AcDb2dVertex
 10
7572143.79000000004
 20
5711492.5700000003
  0
VERTEX
  5
30E
100
AcDbEntity
  8
ewns_dzialki
100
AcDbVertex
100
AcDb2dVertex
 10
7572124.5700000003
 20
5711474.29000000004
  0
VERTEX
  5
30F
100
AcDbEntity
  8
ewns_dzialki
100
AcDbVertex
100
AcDb2dVertex
 10
7572118.36000000034
 20
5711468.15000000037
  0
VERTEX
  5
310
100
AcDbEntity
  8
ewns_dzialki
100
AcDbVertex
100
AcDb2dVertex
 10
7572093.88999999966
 20
5711444.00999999978
  0
VERTEX
  5
311
100
AcDbEntity
  8
ewns_dzialki
100
AcDbVertex
100
AcDb2dVertex
 10
7572088.37999999989
 20
5711438.58000000007
  0
VERTEX
  5
312
100
AcDbEntity
  8
ewns_dzialki
100
AcDbVertex
100
AcDb2dVertex
 10
7572075.34999999963
 20
5711421.20000000019
  0
VERTEX
  5
313
100
AcDbEntity
  8
ewns_dzialki
100
AcDbVertex
100
AcDb2dVertex
 10
7572059.88999999966
 20
5711400.58000000007
  0
VERTEX
  5
314
100
AcDbEntity
  8
ewns_dzialki
100
AcDbVertex
100
AcDb2dVertex
 10
7572055.83999999985
 20
5711395.19000000041
  0
VERTEX
  5
315
100
AcDbEntity
  8
ewns_dzialki
100
AcDbVertex
100
AcDb2dVertex
 10
7572053.33999999985
 20
5711398.51999999955
  0
VERTEX
  5
316
100
AcDbEntity
  8
ewns_dzialki
100
AcDbVertex
100
AcDb2dVertex
 10
7572068.71999999974
 20
5711419.03000000026
  0
VERTEX
  5
317
100
AcDbEntity
  8
ewns_dzialki
100
AcDbVertex
100
AcDb2dVertex
 10
7572085.36000000034
 20
5711441.21999999974
  0
VERTEX
  5
318
100
AcDbEntity
  8
ewns_dzialki
100
AcDbVertex
100
AcDb2dVertex
 10
7572109.73000000045
 20
5711465.25999999978
  0
VERTEX
  5
319
100
AcDbEntity
  8
ewns_dzialki
100
AcDbVertex
100
AcDb2dVertex
 10
7572121.79000000004
 20
5711477.16000000015
  0
VERTEX
  5
31A
100
AcDbEntity
  8
ewns_dzialki
100
AcDbVertex
100
AcDb2dVertex
 10
7572141.16999999993
 20
5711495.59999999963
  0
VERTEX
  5
31B
100
AcDbEntity
  8
ewns_dzialki
100
AcDbVertex
100
AcDb2dVertex
 10
7572154.08000000007
 20
5711505.66999999993
  0
VERTEX
  5
31C
100
AcDbEntity
  8
ewns_dzialki
100
AcDbVertex
100
AcDb2dVertex
 10
7572179.75999999978
 20
5711525.70999999996
  0
VERTEX
  5
31D
100
AcDbEntity
  8
ewns_dzialki
100
AcDbVertex
100
AcDb2dVertex
 10
7572191.88999999966
 20
5711522.91000000015
  0
VERTEX
  5
31E
100
AcDbEntity
  8
ewns_dzialki
100
AcDbVertex
100
AcDb2dVertex
 10
7572237.34999999963
 20
5711512.44000000041
  0
VERTEX
  5
31F
100
AcDbEntity
  8
ewns_dzialki
100
AcDbVertex
100
AcDb2dVertex
 10
7572264.8200000003
 20
5711506.11000000034
  0
SEQEND
  5
320
100
AcDbEntity
  8
ewns_dzialki
  0
POLYLINE
  5
321
100
AcDbEntity
  8
ewns_dzialki
  6
CONTINUOUS
370
18
100
AcDb2dPolyline
 66
1
 70
129
  0
VERTEX
  5
322
100
AcDbEntity
  8
ewns_dzialki
100
AcDbVertex
100
AcDb2dVertex
 10
7571671.46999999974
 20
5711596.63999999966
  0
VERTEX
  5
323
100
AcDbEntity
  8
ewns_dzialki
100
AcDbVertex
100
AcDb2dVertex
 10
7571613.1799999997
 20
5711754.20000000019
  0
VERTEX
  5
324
100
AcDbEntity
  8
ewns_dzialki
100
AcDbVertex
100
AcDb2dVertex
 10
7571615.6799999997
 20
5711755.80999999959
  0
VERTEX
  5
325
100
AcDbEntity
  8
ewns_dzialki
100
AcDbVertex
100
AcDb2dVertex
 10
7571761.70999999996
 20
5711358.8200000003
  0
VERTEX
  5
326
100
AcDbEntity
  8
ewns_dzialki
100
AcDbVertex
100
AcDb2dVertex
 10
7571806.65000000037
 20
5711364.30999999959
  0
VERTEX
  5
327
100
AcDbEntity
  8
ewns_dzialki
100
AcDbVertex
100
AcDb2dVertex
 10
7571843.09999999963
 20
5711368.75999999978
  0
VERTEX
  5
328
100
AcDbEntity
  8
ewns_dzialki
100
AcDbVertex
100
AcDb2dVertex
 10
7571890.0
 20
5711374.49000000022
  0
VERTEX
  5
329
100
AcDbEntity
  8
ewns_dzialki
100
AcDbVertex
100
AcDb2dVertex
 10
7571932.45999999996
 20
5711379.6799999997
  0
VERTEX
  5
32A
100
AcDbEntity
  8
ewns_dzialki
100
AcDbVertex
100
AcDb2dVertex
 10
7571934.87999999989
 20
5711379.96999999974
  0
VERTEX
  5
32B
100
AcDbEntity
  8
ewns_dzialki
100
AcDbVertex
100
AcDb2dVertex
 10
7571947.45000000019
 20
5711402.79999999981
  0
VERTEX
  5
32C
100
AcDbEntity
  8
ewns_dzialki
100
AcDbVertex
100
AcDb2dVertex
 10
7571949.58999999985
 20
5711400.46999999974
  0
VERTEX
  5
32D
100
AcDbEntity
  8
ewns_dzialki
100
AcDbVertex
100
AcDb2dVertex
 10
7571936.76999999955
 20
5711377.1799999997
  0
VERTEX
  5
32E
100
AcDbEntity
  8
ewns_dzialki
100
AcDbVertex
100
AcDb2dVertex
 10
7571764.83999999985
 20
5711356.1799999997
  0
VERTEX
  5
32F
100
AcDbEntity
  8
ewns_dzialki
100
AcDbVertex
100
AcDb2dVertex
 10
7571759.79999999981
 20
5711355.55999999959
  0
VERTEX
  5
330
100
AcDbEntity
  8
ewns_dzialki
100
AcDbVertex
100
AcDb2dVertex
 10
7571684.48000000045
 20
5711561.5
  0
SEQEND
  5
331
100
AcDbEntity
  8
ewns_dzialki
  0
POLYLINE
  5
332
100
AcDbEntity
  8
ewns_dzialki
  6
CONTINUOUS
370
18
100
AcDb2dPolyline
 66
1
 70
129
  0
VERTEX
  5
333
100
AcDbEntity
  8
ewns_dzialki
100
AcDbVertex
100
AcDb2dVertex
 10
7572010.50999999978
 20
5711475.96999999974
  0
VERTEX
  5
334
100
AcDbEntity
  8
ewns_dzialki
100
AcDbVertex
100
AcDb2dVertex
 10
7572012.95999999996
 20
5711444.15000000037
  0
VERTEX
  5
335
100
AcDbEntity
  8
ewns_dzialki
100
AcDbVertex
100
AcDb2dVertex
 10
7572007.01999999955
 20
5711443.0700000003
  0
VERTEX
  5
336
100
AcDbEntity
  8
ewns_dzialki
100
AcDbVertex
100
AcDb2dVertex
 10
7572004.4299999997
 20
5711476.78000000026
  0
VERTEX
  5
337
100
AcDbEntity
  8
ewns_dzialki
100
AcDbVertex
100
AcDb2dVertex
 10
7572021.03000000026
 20
5711523.5
  0
VERTEX
  5
338
100
AcDbEntity
  8
ewns_dzialki
100
AcDbVertex
100
AcDb2dVertex
 10
7572040.00999999978
 20
5711576.9299999997
  0
VERTEX
  5
339
100
AcDbEntity
  8
ewns_dzialki
100
AcDbVertex
100
AcDb2dVertex
 10
7572045.96999999974
 20
5711593.69000000041
  0
VERTEX
  5
33A
100
AcDbEntity
  8
ewns_dzialki
100
AcDbVertex
100
AcDb2dVertex
 10
7572051.69000000041
 20
5711641.34999999963
  0
VERTEX
  5
33B
100
AcDbEntity
  8
ewns_dzialki
100
AcDbVertex
100
AcDb2dVertex
 10
7572056.69000000041
 20
5711683.0
  0
VERTEX
  5
33C
100
AcDbEntity
  8
ewns_dzialki
100
AcDbVertex
100
AcDb2dVertex
 10
7572058.12999999989
 20
5711727.59999999963
  0
VERTEX
  5
33D
100
AcDbEntity
  8
ewns_dzialki
100
AcDbVertex
100
AcDb2dVertex
 10
7572060.94000000041
 20
5711814.12999999989
  0
VERTEX
  5
33E
100
AcDbEntity
  8
ewns_dzialki
100
AcDbVertex
100
AcDb2dVertex
 10
7572073.75999999978
 20
5711873.16999999993
  0
VERTEX
  5
33F
100
AcDbEntity
  8
ewns_dzialki
100
AcDbVertex
100
AcDb2dVertex
 10
7572074.37999999989
 20
5711876.00999999978
  0
VERTEX
  5
340
100
AcDbEntity
  8
ewns_dzialki
100
AcDbVertex
100
AcDb2dVertex
 10
7572069.33000000007
 20
5711930.69000000041
  0
VERTEX
  5
341
100
AcDbEntity
  8
ewns_dzialki
100
AcDbVertex
100
AcDb2dVertex
 10
7572077.98000000045
 20
5711962.29000000004
  0
VERTEX
  5
342
100
AcDbEntity
  8
ewns_dzialki
100
AcDbVertex
100
AcDb2dVertex
 10
7572081.63999999966
 20
5711975.29999999981
  0
VERTEX
  5
343
100
AcDbEntity
  8
ewns_dzialki
100
AcDbVertex
100
AcDb2dVertex
 10
7572082.59999999963
 20
5711977.87999999989
  0
VERTEX
  5
344
100
AcDbEntity
  8
ewns_dzialki
100
AcDbVertex
100
AcDb2dVertex
 10
7572088.40000000037
 20
5711976.25
  0
VERTEX
  5
345
100
AcDbEntity
  8
ewns_dzialki
100
AcDbVertex
100
AcDb2dVertex
 10
7572087.36000000034
 20
5711973.45000000019
  0
VERTEX
  5
346
100
AcDbEntity
  8
ewns_dzialki
100
AcDbVertex
100
AcDb2dVertex
 10
7572082.1799999997
 20
5711955.05999999959
  0
VERTEX
  5
347
100
AcDbEntity
  8
ewns_dzialki
100
AcDbVertex
100
AcDb2dVertex
 10
7572081.96999999974
 20
5711954.0
  0
VERTEX
  5
348
100
AcDbEntity
  8
ewns_dzialki
100
AcDbVertex
100
AcDb2dVertex
 10
7572075.40000000037
 20
5711930.16000000015
  0
VERTEX
  5
349
100
AcDbEntity
  8
ewns_dzialki
100
AcDbVertex
100
AcDb2dVertex
 10
7572080.44000000041
 20
5711875.63999999966
  0
VERTEX
  5
34A
100
AcDbEntity
  8
ewns_dzialki
100
AcDbVertex
100
AcDb2dVertex
 10
7572077.91000000015
 20
5711864.00999999978
  0
VERTEX
  5
34B
100
AcDbEntity
  8
ewns_dzialki
100
AcDbVertex
100
AcDb2dVertex
 10
7572066.91999999993
 20
5711813.38999999966
  0
VERTEX
  5
34C
100
AcDbEntity
  8
ewns_dzialki
100
AcDbVertex
100
AcDb2dVertex
 10
7572066.54000000004
 20
5711801.66999999993
  0
VERTEX
  5
34D
100
AcDbEntity
  8
ewns_dzialki
100
AcDbVertex
100
AcDb2dVertex
 10
7572063.71999999974
 20
5711714.6799999997
  0
VERTEX
  5
34E
100
AcDbEntity
  8
ewns_dzialki
100
AcDbVertex
100
AcDb2dVertex
 10
7572062.6799999997
 20
5711682.54000000004
  0
VERTEX
  5
34F
100
AcDbEntity
  8
ewns_dzialki
100
AcDbVertex
100
AcDb2dVertex
 10
7572056.41000000015
 20
5711630.30999999959
  0
VERTEX
  5
350
100
AcDbEntity
  8
ewns_dzialki
100
AcDbVertex
100
AcDb2dVertex
 10
7572051.84999999963
 20
5711592.30999999959
  0
VERTEX
  5
351
100
AcDbEntity
  8
ewns_dzialki
100
AcDbVertex
100
AcDb2dVertex
 10
7572043.44000000041
 20
5711568.65000000037
  0
VERTEX
  5
352
100
AcDbEntity
  8
ewns_dzialki
100
AcDbVertex
100
AcDb2dVertex
 10
7572024.44000000041
 20
5711515.16000000015
  0
SEQEND
  5
353
100
AcDbEntity
  8
ewns_dzialki
  0
POLYLINE
  5
354
100
AcDbEntity
  8
ewns_dzialki
  6
CONTINUOUS
370
18
100
AcDb2dPolyline
 66
1
 70
129
  0
VERTEX
  5
355
100
AcDbEntity
  8
ewns_dzialki
100
AcDbVertex
100
AcDb2dVertex
 10
7571723.69000000041
 20
5711681.95000000019
  0
VERTEX
  5
356
100
AcDbEntity
  8
ewns_dzialki
100
AcDbVertex
100
AcDb2dVertex
 10
7571731.33999999985
 20
5711671.36000000034
  0
VERTEX
  5
357
100
AcDbEntity
  8
ewns_dzialki
100
AcDbVertex
100
AcDb2dVertex
 10
7571825.95000000019
 20
5711540.33999999985
  0
VERTEX
  5
358
100
AcDbEntity
  8
ewns_dzialki
100
AcDbVertex
100
AcDb2dVertex
 10
7571826.33999999985
 20
5711539.91000000015
  0
VERTEX
  5
359
100
AcDbEntity
  8
ewns_dzialki
100
AcDbVertex
100
AcDb2dVertex
 10
7571901.51999999955
 20
5711458.45999999996
  0
VERTEX
  5
35A
100
AcDbEntity
  8
ewns_dzialki
100
AcDbVertex
100
AcDb2dVertex
 10
7571949.48000000045
 20
5711406.5
  0
VERTEX
  5
35B
100
AcDbEntity
  8
ewns_dzialki
100
AcDbVertex
100
AcDb2dVertex
 10
7571951.62999999989
 20
5711404.16999999993
  0
VERTEX
  5
35C
100
AcDbEntity
  8
ewns_dzialki
100
AcDbVertex
100
AcDb2dVertex
 10
7571949.58999999985
 20
5711400.46999999974
  0
VERTEX
  5
35D
100
AcDbEntity
  8
ewns_dzialki
100
AcDbVertex
100
AcDb2dVertex
 10
7571947.45000000019
 20
5711402.79999999981
  0
VERTEX
  5
35E
100
AcDbEntity
  8
ewns_dzialki
100
AcDbVertex
100
AcDb2dVertex
 10
7571905.54999999981
 20
5711448.19000000041
  0
VERTEX
  5
35F
100
AcDbEntity
  8
ewns_dzialki
100
AcDbVertex
100
AcDb2dVertex
 10
7571830.24000000022
 20
5711529.79999999981
  0
VERTEX
  5
360
100
AcDbEntity
  8
ewns_dzialki
100
AcDbVertex
100
AcDb2dVertex
 10
7571822.84999999963
 20
5711537.79999999981
  0
VERTEX
  5
361
100
AcDbEntity
  8
ewns_dzialki
100
AcDbVertex
100
AcDb2dVertex
 10
7571736.50999999978
 20
5711657.36000000034
  0
VERTEX
  5
362
100
AcDbEntity
  8
ewns_dzialki
100
AcDbVertex
100
AcDb2dVertex
 10
7571720.38999999966
 20
5711679.69000000041
  0
VERTEX
  5
363
100
AcDbEntity
  8
ewns_dzialki
100
AcDbVertex
100
AcDb2dVertex
 10
7571654.79000000004
 20
5711780.95999999996
  0
VERTEX
  5
364
100
AcDbEntity
  8
ewns_dzialki
100
AcDbVertex
100
AcDb2dVertex
 10
7571658.15000000037
 20
5711783.12000000011
  0
SEQEND
  5
365
100
AcDbEntity
  8
ewns_dzialki
  0
POLYLINE
  5
366
100
AcDbEntity
  8
ewns_dzialki
  6
CONTINUOUS
370
18
100
AcDb2dPolyline
 66
1
 70
129
  0
VERTEX
  5
367
100
AcDbEntity
  8
ewns_dzialki
100
AcDbVertex
100
AcDb2dVertex
 10
7571472.65000000037
 20
5711670.1799999997
  0
VERTEX
  5
368
100
AcDbEntity
  8
ewns_dzialki
100
AcDbVertex
100
AcDb2dVertex
 10
7571458.16000000015
 20
5711661.5
  0
VERTEX
  5
369
100
AcDbEntity
  8
ewns_dzialki
100
AcDbVertex
100
AcDb2dVertex
 10
7571448.91999999993
 20
5711656.11000000034
  0
VERTEX
  5
36A
100
AcDbEntity
  8
ewns_dzialki
100
AcDbVertex
100
AcDb2dVertex
 10
7571437.16999999993
 20
5711649.08999999985
  0
VERTEX
  5
36B
100
AcDbEntity
  8
ewns_dzialki
100
AcDbVertex
100
AcDb2dVertex
 10
7571426.23000000045
 20
5711642.50999999978
  0
VERTEX
  5
36C
100
AcDbEntity
  8
ewns_dzialki
100
AcDbVertex
100
AcDb2dVertex
 10
7571414.90000000037
 20
5711635.75
  0
VERTEX
  5
36D
100
AcDbEntity
  8
ewns_dzialki
100
AcDbVertex
100
AcDb2dVertex
 10
7571412.41000000015
 20
5711634.25999999978
  0
VERTEX
  5
36E
100
AcDbEntity
  8
ewns_dzialki
100
AcDbVertex
100
AcDb2dVertex
 10
7571404.1799999997
 20
5711629.33999999985
  0
VERTEX
  5
36F
100
AcDbEntity
  8
ewns_dzialki
100
AcDbVertex
100
AcDb2dVertex
 10
7571393.11000000034
 20
5711622.73000000045
  0
VERTEX
  5
370
100
AcDbEntity
  8
ewns_dzialki
100
AcDbVertex
100
AcDb2dVertex
 10
7571382.29999999981
 20
5711615.5
  0
VERTEX
  5
371
100
AcDbEntity
  8
ewns_dzialki
100
AcDbVertex
100
AcDb2dVertex
 10
7571373.99000000022
 20
5711609.94000000041
  0
VERTEX
  5
372
100
AcDbEntity
  8
ewns_dzialki
100
AcDbVertex
100
AcDb2dVertex
 10
7571364.00999999978
 20
5711603.25999999978
  0
VERTEX
  5
373
100
AcDbEntity
  8
ewns_dzialki
100
AcDbVertex
100
AcDb2dVertex
 10
7571354.11000000034
 20
5711596.65000000037
  0
VERTEX
  5
374
100
AcDbEntity
  8
ewns_dzialki
100
AcDbVertex
100
AcDb2dVertex
 10
7571343.96999999974
 20
5711589.86000000034
  0
VERTEX
  5
375
100
AcDbEntity
  8
ewns_dzialki
100
AcDbVertex
100
AcDb2dVertex
 10
7571334.33000000007
 20
5711583.41000000015
  0
VERTEX
  5
376
100
AcDbEntity
  8
ewns_dzialki
100
AcDbVertex
100
AcDb2dVertex
 10
7571324.6799999997
 20
5711576.95999999996
  0
VERTEX
  5
377
100
AcDbEntity
  8
ewns_dzialki
100
AcDbVertex
100
AcDb2dVertex
 10
7571315.20000000019
 20
5711570.62000000011
  0
VERTEX
  5
378
100
AcDbEntity
  8
ewns_dzialki
100
AcDbVertex
100
AcDb2dVertex
 10
7571305.88999999966
 20
5711564.38999999966
  0
VERTEX
  5
379
100
AcDbEntity
  8
ewns_dzialki
100
AcDbVertex
100
AcDb2dVertex
 10
7571287.9299999997
 20
5711552.37000000011
  0
VERTEX
  5
37A
100
AcDbEntity
  8
ewns_dzialki
100
AcDbVertex
100
AcDb2dVertex
 10
7571280.61000000034
 20
5711547.48000000045
  0
VERTEX
  5
37B
100
AcDbEntity
  8
ewns_dzialki
100
AcDbVertex
100
AcDb2dVertex
 10
7571276.04000000004
 20
5711544.41999999993
  0
VERTEX
  5
37C
100
AcDbEntity
  8
ewns_dzialki
100
AcDbVertex
100
AcDb2dVertex
 10
7571269.96999999974
 20
5711540.36000000034
  0
VERTEX
  5
37D
100
AcDbEntity
  8
ewns_dzialki
100
AcDbVertex
100
AcDb2dVertex
 10
7571263.0700000003
 20
5711535.74000000022
  0
VERTEX
  5
37E
100
AcDbEntity
  8
ewns_dzialki
100
AcDbVertex
100
AcDb2dVertex
 10
7571256.58999999985
 20
5711531.40000000037
  0
VERTEX
  5
37F
100
AcDbEntity
  8
ewns_dzialki
100
AcDbVertex
100
AcDb2dVertex
 10
7571247.36000000034
 20
5711525.23000000045
  0
VERTEX
  5
380
100
AcDbEntity
  8
ewns_dzialki
100
AcDbVertex
100
AcDb2dVertex
 10
7571243.03000000026
 20
5711522.33999999985
  0
VERTEX
  5
381
100
AcDbEntity
  8
ewns_dzialki
100
AcDbVertex
100
AcDb2dVertex
 10
7571238.45999999996
 20
5711519.28000000026
  0
VERTEX
  5
382
100
AcDbEntity
  8
ewns_dzialki
100
AcDbVertex
100
AcDb2dVertex
 10
7571229.91000000015
 20
5711514.29999999981
  0
VERTEX
  5
383
100
AcDbEntity
  8
ewns_dzialki
100
AcDbVertex
100
AcDb2dVertex
 10
7571225.0700000003
 20
5711511.48000000045
  0
VERTEX
  5
384
100
AcDbEntity
  8
ewns_dzialki
100
AcDbVertex
100
AcDb2dVertex
 10
7571218.5
 20
5711507.66000000015
  0
VERTEX
  5
385
100
AcDbEntity
  8
ewns_dzialki
100
AcDbVertex
100
AcDb2dVertex
 10
7571213.41000000015
 20
5711504.69000000041
  0
VERTEX
  5
386
100
AcDbEntity
  8
ewns_dzialki
100
AcDbVertex
100
AcDb2dVertex
 10
7571208.83000000007
 20
5711502.01999999955
  0
VERTEX
  5
387
100
AcDbEntity
  8
ewns_dzialki
100
AcDbVertex
100
AcDb2dVertex
 10
7571198.29000000004
 20
5711495.87999999989
  0
VERTEX
  5
388
100
AcDbEntity
  8
ewns_dzialki
100
AcDbVertex
100
AcDb2dVertex
 10
7571188.78000000026
 20
5711490.34999999963
  0
VERTEX
  5
389
100
AcDbEntity
  8
ewns_dzialki
100
AcDbVertex
100
AcDb2dVertex
 10
7571179.28000000026
 20
5711484.80999999959
  0
VERTEX
  5
38A
100
AcDbEntity
  8
ewns_dzialki
100
AcDbVertex
100
AcDb2dVertex
 10
7571174.44000000041
 20
5711481.99000000022
  0
VERTEX
  5
38B
100
AcDbEntity
  8
ewns_dzialki
100
AcDbVertex
100
AcDb2dVertex
 10
7571169.0
 20
5711478.8200000003
  0
VERTEX
  5
38C
100
AcDbEntity
  8
ewns_dzialki
100
AcDbVertex
100
AcDb2dVertex
 10
7571164.25
 20
5711476.05999999959
  0
VERTEX
  5
38D
100
AcDbEntity
  8
ewns_dzialki
100
AcDbVertex
100
AcDb2dVertex
 10
7571159.41000000015
 20
5711473.24000000022
  0
VERTEX
  5
38E
100
AcDbEntity
  8
ewns_dzialki
100
AcDbVertex
100
AcDb2dVertex
 10
7571149.12999999989
 20
5711467.25
  0
VERTEX
  5
38F
100
AcDbEntity
  8
ewns_dzialki
100
AcDbVertex
100
AcDb2dVertex
 10
7571138.58999999985
 20
5711461.11000000034
  0
VERTEX
  5
390
100
AcDbEntity
  8
ewns_dzialki
100
AcDbVertex
100
AcDb2dVertex
 10
7571132.19000000041
 20
5711457.38999999966
  0
VERTEX
  5
391
100
AcDbEntity
  8
ewns_dzialki
100
AcDbVertex
100
AcDb2dVertex
 10
7571120.00999999978
 20
5711450.29000000004
  0
VERTEX
  5
392
100
AcDbEntity
  8
ewns_dzialki
100
AcDbVertex
100
AcDb2dVertex
 10
7571110.50999999978
 20
5711444.75999999978
  0
VERTEX
  5
393
100
AcDbEntity
  8
ewns_dzialki
100
AcDbVertex
100
AcDb2dVertex
 10
7571106.00999999978
 20
5711442.13999999966
  0
VERTEX
  5
394
100
AcDbEntity
  8
ewns_dzialki
100
AcDbVertex
100
AcDb2dVertex
 10
7571101.25999999978
 20
5711439.37000000011
  0
VERTEX
  5
395
100
AcDbEntity
  8
ewns_dzialki
100
AcDbVertex
100
AcDb2dVertex
 10
7571092.96999999974
 20
5711434.54000000004
  0
VERTEX
  5
396
100
AcDbEntity
  8
ewns_dzialki
100
AcDbVertex
100
AcDb2dVertex
 10
7571088.38999999966
 20
5711431.87999999989
  0
VERTEX
  5
397
100
AcDbEntity
  8
ewns_dzialki
100
AcDbVertex
100
AcDb2dVertex
 10
7571082.08000000007
 20
5711428.20000000019
  0
VERTEX
  5
398
100
AcDbEntity
  8
ewns_dzialki
100
AcDbVertex
100
AcDb2dVertex
 10
7571077.24000000022
 20
5711425.37999999989
  0
VERTEX
  5
399
100
AcDbEntity
  8
ewns_dzialki
100
AcDbVertex
100
AcDb2dVertex
 10
7571073.00999999978
 20
5711422.91999999993
  0
VERTEX
  5
39A
100
AcDbEntity
  8
ewns_dzialki
100
AcDbVertex
100
AcDb2dVertex
 10
7571063.58999999985
 20
5711417.4299999997
  0
VERTEX
  5
39B
100
AcDbEntity
  8
ewns_dzialki
100
AcDbVertex
100
AcDb2dVertex
 10
7571056.86000000034
 20
5711413.50999999978
  0
VERTEX
  5
39C
100
AcDbEntity
  8
ewns_dzialki
100
AcDbVertex
100
AcDb2dVertex
 10
7571054.11000000034
 20
5711415.38999999966
  0
VERTEX
  5
39D
100
AcDbEntity
  8
ewns_dzialki
100
AcDbVertex
100
AcDb2dVertex
 10
7571092.16999999993
 20
5711437.58999999985
  0
VERTEX
  5
39E
100
AcDbEntity
  8
ewns_dzialki
100
AcDbVertex
100
AcDb2dVertex
 10
7571109.20000000019
 20
5711447.53000000026
  0
VERTEX
  5
39F
100
AcDbEntity
  8
ewns_dzialki
100
AcDbVertex
100
AcDb2dVertex
 10
7571138.46999999974
 20
5711464.37000000011
  0
VERTEX
  5
3A0
100
AcDbEntity
  8
ewns_dzialki
100
AcDbVertex
100
AcDb2dVertex
 10
7571232.49000000022
 20
5711520.98000000045
  0
VERTEX
  5
3A1
100
AcDbEntity
  8
ewns_dzialki
100
AcDbVertex
100
AcDb2dVertex
 10
7571270.74000000022
 20
5711546.48000000045
  0
VERTEX
  5
3A2
100
AcDbEntity
  8
ewns_dzialki
100
AcDbVertex
100
AcDb2dVertex
 10
7571317.21999999974
 20
5711579.53000000026
  0
VERTEX
  5
3A3
100
AcDbEntity
  8
ewns_dzialki
100
AcDbVertex
100
AcDb2dVertex
 10
7571365.0700000003
 20
5711610.50999999978
  0
VERTEX
  5
3A4
100
AcDbEntity
  8
ewns_dzialki
100
AcDbVertex
100
AcDb2dVertex
 10
7571422.78000000026
 20
5711647.66000000015
  0
VERTEX
  5
3A5
100
AcDbEntity
  8
ewns_dzialki
100
AcDbVertex
100
AcDb2dVertex
 10
7571474.0700000003
 20
5711676.23000000045
  0
VERTEX
  5
3A6
100
AcDbEntity
  8
ewns_dzialki
100
AcDbVertex
100
AcDb2dVertex
 10
7571477.13999999966
 20
5711678.0700000003
  0
VERTEX
  5
3A7
100
AcDbEntity
  8
ewns_dzialki
100
AcDbVertex
100
AcDb2dVertex
 10
7571528.79999999981
 20
5711710.3200000003
  0
VERTEX
  5
3A8
100
AcDbEntity
  8
ewns_dzialki
100
AcDbVertex
100
AcDb2dVertex
 10
7571566.28000000026
 20
5711733.46999999974
  0
VERTEX
  5
3A9
100
AcDbEntity
  8
ewns_dzialki
100
AcDbVertex
100
AcDb2dVertex
 10
7571644.83000000007
 20
5711782.0
  0
VERTEX
  5
3AA
100
AcDbEntity
  8
ewns_dzialki
100
AcDbVertex
100
AcDb2dVertex
 10
7571653.37999999989
 20
5711787.63999999966
  0
VERTEX
  5
3AB
100
AcDbEntity
  8
ewns_dzialki
100
AcDbVertex
100
AcDb2dVertex
 10
7571684.33999999985
 20
5711808.04000000004
  0
VERTEX
  5
3AC
100
AcDbEntity
  8
ewns_dzialki
100
AcDbVertex
100
AcDb2dVertex
 10
7571718.45999999996
 20
5711832.6799999997
  0
VERTEX
  5
3AD
100
AcDbEntity
  8
ewns_dzialki
100
AcDbVertex
100
AcDb2dVertex
 10
7571723.04999999981
 20
5711836.0
  0
VERTEX
  5
3AE
100
AcDbEntity
  8
ewns_dzialki
100
AcDbVertex
100
AcDb2dVertex
 10
7571762.95999999996
 20
5711864.8200000003
  0
VERTEX
  5
3AF
100
AcDbEntity
  8
ewns_dzialki
100
AcDbVertex
100
AcDb2dVertex
 10
7571762.37000000011
 20
5711865.11000000034
  0
VERTEX
  5
3B0
100
AcDbEntity
  8
ewns_dzialki
100
AcDbVertex
100
AcDb2dVertex
 10
7571804.48000000045
 20
5711895.55999999959
  0
VERTEX
  5
3B1
100
AcDbEntity
  8
ewns_dzialki
100
AcDbVertex
100
AcDb2dVertex
 10
7571807.96999999974
 20
5711898.28000000026
  0
VERTEX
  5
3B2
100
AcDbEntity
  8
ewns_dzialki
100
AcDbVertex
100
AcDb2dVertex
 10
7571817.33999999985
 20
5711905.58000000007
  0
VERTEX
  5
3B3
100
AcDbEntity
  8
ewns_dzialki
100
AcDbVertex
100
AcDb2dVertex
 10
7571849.95000000019
 20
5711932.91000000015
  0
VERTEX
  5
3B4
100
AcDbEntity
  8
ewns_dzialki
100
AcDbVertex
100
AcDb2dVertex
 10
7571887.1799999997
 20
5711961.71999999974
  0
VERTEX
  5
3B5
100
AcDbEntity
  8
ewns_dzialki
100
AcDbVertex
100
AcDb2dVertex
 10
7571923.16000000015
 20
5711989.58999999985
  0
VERTEX
  5
3B6
100
AcDbEntity
  8
ewns_dzialki
100
AcDbVertex
100
AcDb2dVertex
 10
7571956.75999999978
 20
5712017.0700000003
  0
VERTEX
  5
3B7
100
AcDbEntity
  8
ewns_dzialki
100
AcDbVertex
100
AcDb2dVertex
 10
7571977.5
 20
5712036.74000000022
  0
VERTEX
  5
3B8
100
AcDbEntity
  8
ewns_dzialki
100
AcDbVertex
100
AcDb2dVertex
 10
7572006.45000000019
 20
5712054.58999999985
  0
VERTEX
  5
3B9
100
AcDbEntity
  8
ewns_dzialki
100
AcDbVertex
100
AcDb2dVertex
 10
7572026.5700000003
 20
5712062.41000000015
  0
VERTEX
  5
3BA
100
AcDbEntity
  8
ewns_dzialki
100
AcDbVertex
100
AcDb2dVertex
 10
7572050.65000000037
 20
5712073.50999999978
  0
VERTEX
  5
3BB
100
AcDbEntity
  8
ewns_dzialki
100
AcDbVertex
100
AcDb2dVertex
 10
7572054.49000000022
 20
5712075.84999999963
  0
VERTEX
  5
3BC
100
AcDbEntity
  8
ewns_dzialki
100
AcDbVertex
100
AcDb2dVertex
 10
7572056.66000000015
 20
5712071.3200000003
  0
VERTEX
  5
3BD
100
AcDbEntity
  8
ewns_dzialki
100
AcDbVertex
100
AcDb2dVertex
 10
7572053.0
 20
5712069.08999999985
  0
VERTEX
  5
3BE
100
AcDbEntity
  8
ewns_dzialki
100
AcDbVertex
100
AcDb2dVertex
 10
7572031.36000000034
 20
5712059.11000000034
  0
VERTEX
  5
3BF
100
AcDbEntity
  8
ewns_dzialki
100
AcDbVertex
100
AcDb2dVertex
 10
7572008.6799999997
 20
5712050.09999999963
  0
VERTEX
  5
3C0
100
AcDbEntity
  8
ewns_dzialki
100
AcDbVertex
100
AcDb2dVertex
 10
7571996.83999999985
 20
5712042.79000000004
  0
VERTEX
  5
3C1
100
AcDbEntity
  8
ewns_dzialki
100
AcDbVertex
100
AcDb2dVertex
 10
7571980.46999999974
 20
5712032.70000000019
  0
VERTEX
  5
3C2
100
AcDbEntity
  8
ewns_dzialki
100
AcDbVertex
100
AcDb2dVertex
 10
7571967.98000000045
 20
5712020.84999999963
  0
VERTEX
  5
3C3
100
AcDbEntity
  8
ewns_dzialki
100
AcDbVertex
100
AcDb2dVertex
 10
7571941.25999999978
 20
5711997.94000000041
  0
VERTEX
  5
3C4
100
AcDbEntity
  8
ewns_dzialki
100
AcDbVertex
100
AcDb2dVertex
 10
7571927.95999999996
 20
5711987.13999999966
  0
VERTEX
  5
3C5
100
AcDbEntity
  8
ewns_dzialki
100
AcDbVertex
100
AcDb2dVertex
 10
7571910.04000000004
 20
5711973.15000000037
  0
VERTEX
  5
3C6
100
AcDbEntity
  8
ewns_dzialki
100
AcDbVertex
100
AcDb2dVertex
 10
7571884.33999999985
 20
5711953.11000000034
  0
VERTEX
  5
3C7
100
AcDbEntity
  8
ewns_dzialki
100
AcDbVertex
100
AcDb2dVertex
 10
7571854.88999999966
 20
5711930.13999999966
  0
VERTEX
  5
3C8
100
AcDbEntity
  8
ewns_dzialki
100
AcDbVertex
100
AcDb2dVertex
 10
7571821.38999999966
 20
5711900.83999999985
  0
VERTEX
  5
3C9
100
AcDbEntity
  8
ewns_dzialki
100
AcDbVertex
100
AcDb2dVertex
 10
7571820.00999999978
 20
5711899.83999999985
  0
VERTEX
  5
3CA
100
AcDbEntity
  8
ewns_dzialki
100
AcDbVertex
100
AcDb2dVertex
 10
7571784.24000000022
 20
5711874.00999999978
  0
VERTEX
  5
3CB
100
AcDbEntity
  8
ewns_dzialki
100
AcDbVertex
100
AcDb2dVertex
 10
7571748.45999999996
 20
5711848.1799999997
  0
VERTEX
  5
3CC
100
AcDbEntity
  8
ewns_dzialki
100
AcDbVertex
100
AcDb2dVertex
 10
7571716.58000000007
 20
5711825.16000000015
  0
VERTEX
  5
3CD
100
AcDbEntity
  8
ewns_dzialki
100
AcDbVertex
100
AcDb2dVertex
 10
7571683.38999999966
 20
5711801.19000000041
  0
VERTEX
  5
3CE
100
AcDbEntity
  8
ewns_dzialki
100
AcDbVertex
100
AcDb2dVertex
 10
7571660.08000000007
 20
5711784.36000000034
  0
VERTEX
  5
3CF
100
AcDbEntity
  8
ewns_dzialki
100
AcDbVertex
100
AcDb2dVertex
 10
7571658.15000000037
 20
5711783.12000000011
  0
VERTEX
  5
3D0
100
AcDbEntity
  8
ewns_dzialki
100
AcDbVertex
100
AcDb2dVertex
 10
7571654.79000000004
 20
5711780.95999999996
  0
VERTEX
  5
3D1
100
AcDbEntity
  8
ewns_dzialki
100
AcDbVertex
100
AcDb2dVertex
 10
7571651.23000000045
 20
5711778.66999999993
  0
VERTEX
  5
3D2
100
AcDbEntity
  8
ewns_dzialki
100
AcDbVertex
100
AcDb2dVertex
 10
7571615.6799999997
 20
5711755.80999999959
  0
VERTEX
  5
3D3
100
AcDbEntity
  8
ewns_dzialki
100
AcDbVertex
100
AcDb2dVertex
 10
7571613.1799999997
 20
5711754.20000000019
  0
VERTEX
  5
3D4
100
AcDbEntity
  8
ewns_dzialki
100
AcDbVertex
100
AcDb2dVertex
 10
7571598.16999999993
 20
5711745.23000000045
  0
VERTEX
  5
3D5
100
AcDbEntity
  8
ewns_dzialki
100
AcDbVertex
100
AcDb2dVertex
 10
7571582.80999999959
 20
5711736.05999999959
  0
VERTEX
  5
3D6
100
AcDbEntity
  8
ewns_dzialki
100
AcDbVertex
100
AcDb2dVertex
 10
7571572.94000000041
 20
5711730.16000000015
  0
VERTEX
  5
3D7
100
AcDbEntity
  8
ewns_dzialki
100
AcDbVertex
100
AcDb2dVertex
 10
7571562.04000000004
 20
5711723.65000000037
  0
VERTEX
  5
3D8
100
AcDbEntity
  8
ewns_dzialki
100
AcDbVertex
100
AcDb2dVertex
 10
7571556.54999999981
 20
5711720.37000000011
  0
VERTEX
  5
3D9
100
AcDbEntity
  8
ewns_dzialki
100
AcDbVertex
100
AcDb2dVertex
 10
7571547.96999999974
 20
5711715.25
  0
VERTEX
  5
3DA
100
AcDbEntity
  8
ewns_dzialki
100
AcDbVertex
100
AcDb2dVertex
 10
7571539.38999999966
 20
5711710.12000000011
  0
VERTEX
  5
3DB
100
AcDbEntity
  8
ewns_dzialki
100
AcDbVertex
100
AcDb2dVertex
 10
7571527.54999999981
 20
5711703.04999999981
  0
VERTEX
  5
3DC
100
AcDbEntity
  8
ewns_dzialki
100
AcDbVertex
100
AcDb2dVertex
 10
7571515.45999999996
 20
5711695.8200000003
  0
VERTEX
  5
3DD
100
AcDbEntity
  8
ewns_dzialki
100
AcDbVertex
100
AcDb2dVertex
 10
7571503.53000000026
 20
5711688.70000000019
  0
VERTEX
  5
3DE
100
AcDbEntity
  8
ewns_dzialki
100
AcDbVertex
100
AcDb2dVertex
 10
7571488.0
 20
5711679.41999999993
  0
VERTEX
  5
3DF
100
AcDbEntity
  8
ewns_dzialki
100
AcDbVertex
100
AcDb2dVertex
 10
7571480.70999999996
 20
5711675.05999999959
  0
SEQEND
  5
3E0
100
AcDbEntity
  8
ewns_dzialki
  0
POLYLINE
  5
3E1
100
AcDbEntity
  8
ewns_dzialki
  6
CONTINUOUS
370
18
100
AcDb2dPolyline
 66
1
 70
129
  0
VERTEX
  5
3E2
100
AcDbEntity
  8
ewns_dzialki
100
AcDbVertex
100
AcDb2dVertex
 10
7572005.24000000022
 20
5711322.80999999959
  0
VERTEX
  5
3E3
100
AcDbEntity
  8
ewns_dzialki
100
AcDbVertex
100
AcDb2dVertex
 10
7571932.33999999985
 20
5711225.0700000003
  0
VERTEX
  5
3E4
100
AcDbEntity
  8
ewns_dzialki
100
AcDbVertex
100
AcDb2dVertex
 10
7571922.96999999974
 20
5711215.84999999963
  0
VERTEX
  5
3E5
100
AcDbEntity
  8
ewns_dzialki
100
AcDbVertex
100
AcDb2dVertex
 10
7571921.16999999993
 20
5711210.08999999985
  0
VERTEX
  5
3E6
100
AcDbEntity
  8
ewns_dzialki
100
AcDbVertex
100
AcDb2dVertex
 10
7571917.44000000041
 20
5711190.04999999981
  0
VERTEX
  5
3E7
100
AcDbEntity
  8
ewns_dzialki
100
AcDbVertex
100
AcDb2dVertex
 10
7571887.75999999978
 20
5711153.58999999985
  0
VERTEX
  5
3E8
100
AcDbEntity
  8
ewns_dzialki
100
AcDbVertex
100
AcDb2dVertex
 10
7571880.00999999978
 20
5711144.54000000004
  0
VERTEX
  5
3E9
100
AcDbEntity
  8
ewns_dzialki
100
AcDbVertex
100
AcDb2dVertex
 10
7571879.6799999997
 20
5711107.99000000022
  0
VERTEX
  5
3EA
100
AcDbEntity
  8
ewns_dzialki
100
AcDbVertex
100
AcDb2dVertex
 10
7571894.12999999989
 20
5711069.62000000011
  0
VERTEX
  5
3EB
100
AcDbEntity
  8
ewns_dzialki
100
AcDbVertex
100
AcDb2dVertex
 10
7571898.5
 20
5711068.78000000026
  0
VERTEX
  5
3EC
100
AcDbEntity
  8
ewns_dzialki
100
AcDbVertex
100
AcDb2dVertex
 10
7571887.0700000003
 20
5711068.75
  0
VERTEX
  5
3ED
100
AcDbEntity
  8
ewns_dzialki
100
AcDbVertex
100
AcDb2dVertex
 10
7571874.65000000037
 20
5711101.01999999955
  0
VERTEX
  5
3EE
100
AcDbEntity
  8
ewns_dzialki
100
AcDbVertex
100
AcDb2dVertex
 10
7571869.11000000034
 20
5711136.05999999959
  0
VERTEX
  5
3EF
100
AcDbEntity
  8
ewns_dzialki
100
AcDbVertex
100
AcDb2dVertex
 10
7571883.54999999981
 20
5711162.70000000019
  0
VERTEX
  5
3F0
100
AcDbEntity
  8
ewns_dzialki
100
AcDbVertex
100
AcDb2dVertex
 10
7571898.24000000022
 20
5711181.61000000034
  0
VERTEX
  5
3F1
100
AcDbEntity
  8
ewns_dzialki
100
AcDbVertex
100
AcDb2dVertex
 10
7571909.4299999997
 20
5711196.03000000026
  0
VERTEX
  5
3F2
100
AcDbEntity
  8
ewns_dzialki
100
AcDbVertex
100
AcDb2dVertex
 10
7571910.23000000045
 20
5711195.4299999997
  0
VERTEX
  5
3F3
100
AcDbEntity
  8
ewns_dzialki
100
AcDbVertex
100
AcDb2dVertex
 10
7571918.16999999993
 20
5711219.44000000041
  0
VERTEX
  5
3F4
100
AcDbEntity
  8
ewns_dzialki
100
AcDbVertex
100
AcDb2dVertex
 10
7572012.15000000037
 20
5711343.19000000041
  0
VERTEX
  5
3F5
100
AcDbEntity
  8
ewns_dzialki
100
AcDbVertex
100
AcDb2dVertex
 10
7572015.29999999981
 20
5711347.33000000007
  0
VERTEX
  5
3F6
100
AcDbEntity
  8
ewns_dzialki
100
AcDbVertex
100
AcDb2dVertex
 10
7572018.62000000011
 20
5711351.70999999996
  0
VERTEX
  5
3F7
100
AcDbEntity
  8
ewns_dzialki
100
AcDbVertex
100
AcDb2dVertex
 10
7572051.87000000011
 20
5711395.49000000022
  0
VERTEX
  5
3F8
100
AcDbEntity
  8
ewns_dzialki
100
AcDbVertex
100
AcDb2dVertex
 10
7572055.46999999974
 20
5711390.69000000041
  0
SEQEND
  5
3F9
100
AcDbEntity
  8
ewns_dzialki
  0
POLYLINE
  5
3FA
100
AcDbEntity
  8
ewns_dzialki
  6
CONTINUOUS
370
18
100
AcDb2dPolyline
 66
1
 70
129
  0
VERTEX
  5
3FB
100
AcDbEntity
  8
ewns_dzialki
100
AcDbVertex
100
AcDb2dVertex
 10
7572049.66999999993
 20
5711221.09999999963
  0
VERTEX
  5
3FC
100
AcDbEntity
  8
ewns_dzialki
100
AcDbVertex
100
AcDb2dVertex
 10
7572005.24000000022
 20
5711322.80999999959
  0
VERTEX
  5
3FD
100
AcDbEntity
  8
ewns_dzialki
100
AcDbVertex
100
AcDb2dVertex
 10
7572055.46999999974
 20
5711390.69000000041
  0
VERTEX
  5
3FE
100
AcDbEntity
  8
ewns_dzialki
100
AcDbVertex
100
AcDb2dVertex
 10
7572051.87000000011
 20
5711395.49000000022
  0
VERTEX
  5
3FF
100
AcDbEntity
  8
ewns_dzialki
100
AcDbVertex
100
AcDb2dVertex
 10
7572024.25
 20
5711432.25
  0
VERTEX
  5
400
100
AcDbEntity
  8
ewns_dzialki
100
AcDbVertex
100
AcDb2dVertex
 10
7572021.83999999985
 20
5711435.45000000019
  0
VERTEX
  5
401
100
AcDbEntity
  8
ewns_dzialki
100
AcDbVertex
100
AcDb2dVertex
 10
7572017.04000000004
 20
5711441.83999999985
  0
VERTEX
  5
402
100
AcDbEntity
  8
ewns_dzialki
100
AcDbVertex
100
AcDb2dVertex
 10
7571967.41000000015
 20
5711432.84999999963
  0
VERTEX
  5
403
100
AcDbEntity
  8
ewns_dzialki
100
AcDbVertex
100
AcDb2dVertex
 10
7571958.03000000026
 20
5711415.80999999959
  0
VERTEX
  5
404
100
AcDbEntity
  8
ewns_dzialki
100
AcDbVertex
100
AcDb2dVertex
 10
7571951.62999999989
 20
5711404.16999999993
  0
VERTEX
  5
405
100
AcDbEntity
  8
ewns_dzialki
100
AcDbVertex
100
AcDb2dVertex
 10
7571949.48000000045
 20
5711406.5
  0
VERTEX
  5
406
100
AcDbEntity
  8
ewns_dzialki
100
AcDbVertex
100
AcDb2dVertex
 10
7571961.38999999966
 20
5711428.13999999966
  0
VERTEX
  5
407
100
AcDbEntity
  8
ewns_dzialki
100
AcDbVertex
100
AcDb2dVertex
 10
7571965.46999999974
 20
5711435.54999999981
  0
VERTEX
  5
408
100
AcDbEntity
  8
ewns_dzialki
100
AcDbVertex
100
AcDb2dVertex
 10
7572007.01999999955
 20
5711443.0700000003
  0
VERTEX
  5
409
100
AcDbEntity
  8
ewns_dzialki
100
AcDbVertex
100
AcDb2dVertex
 10
7572012.95999999996
 20
5711444.15000000037
  0
VERTEX
  5
40A
100
AcDbEntity
  8
ewns_dzialki
100
AcDbVertex
100
AcDb2dVertex
 10
7572018.33000000007
 20
5711445.12000000011
  0
VERTEX
  5
40B
100
AcDbEntity
  8
ewns_dzialki
100
AcDbVertex
100
AcDb2dVertex
 10
7572020.03000000026
 20
5711442.84999999963
  0
VERTEX
  5
40C
100
AcDbEntity
  8
ewns_dzialki
100
AcDbVertex
100
AcDb2dVertex
 10
7572024.66000000015
 20
5711436.69000000041
  0
VERTEX
  5
40D
100
AcDbEntity
  8
ewns_dzialki
100
AcDbVertex
100
AcDb2dVertex
 10
7572033.91999999993
 20
5711424.36000000034
  0
VERTEX
  5
40E
100
AcDbEntity
  8
ewns_dzialki
100
AcDbVertex
100
AcDb2dVertex
 10
7572044.00999999978
 20
5711410.94000000041
  0
VERTEX
  5
40F
100
AcDbEntity
  8
ewns_dzialki
100
AcDbVertex
100
AcDb2dVertex
 10
7572053.33999999985
 20
5711398.51999999955
  0
VERTEX
  5
410
100
AcDbEntity
  8
ewns_dzialki
100
AcDbVertex
100
AcDb2dVertex
 10
7572055.83999999985
 20
5711395.19000000041
  0
VERTEX
  5
411
100
AcDbEntity
  8
ewns_dzialki
100
AcDbVertex
100
AcDb2dVertex
 10
7572059.20999999996
 20
5711390.70000000019
  0
VERTEX
  5
412
100
AcDbEntity
  8
ewns_dzialki
100
AcDbVertex
100
AcDb2dVertex
 10
7572054.29000000004
 20
5711384.04999999981
  0
VERTEX
  5
413
100
AcDbEntity
  8
ewns_dzialki
100
AcDbVertex
100
AcDb2dVertex
 10
7572040.58000000007
 20
5711365.53000000026
  0
VERTEX
  5
414
100
AcDbEntity
  8
ewns_dzialki
100
AcDbVertex
100
AcDb2dVertex
 10
7572027.70999999996
 20
5711348.12999999989
  0
VERTEX
  5
415
100
AcDbEntity
  8
ewns_dzialki
100
AcDbVertex
100
AcDb2dVertex
 10
7572016.13999999966
 20
5711332.5
  0
VERTEX
  5
416
100
AcDbEntity
  8
ewns_dzialki
100
AcDbVertex
100
AcDb2dVertex
 10
7572008.6799999997
 20
5711322.41999999993
  0
VERTEX
  5
417
100
AcDbEntity
  8
ewns_dzialki
100
AcDbVertex
100
AcDb2dVertex
 10
7572011.09999999963
 20
5711316.90000000037
  0
VERTEX
  5
418
100
AcDbEntity
  8
ewns_dzialki
100
AcDbVertex
100
AcDb2dVertex
 10
7572016.01999999955
 20
5711305.62000000011
  0
VERTEX
  5
419
100
AcDbEntity
  8
ewns_dzialki
100
AcDbVertex
100
AcDb2dVertex
 10
7572021.54999999981
 20
5711292.98000000045
  0
VERTEX
  5
41A
100
AcDbEntity
  8
ewns_dzialki
100
AcDbVertex
100
AcDb2dVertex
 10
7572026.58999999985
 20
5711281.4299999997
  0
VERTEX
  5
41B
100
AcDbEntity
  8
ewns_dzialki
100
AcDbVertex
100
AcDb2dVertex
 10
7572031.87999999989
 20
5711269.33000000007
  0
VERTEX
  5
41C
100
AcDbEntity
  8
ewns_dzialki
100
AcDbVertex
100
AcDb2dVertex
 10
7572037.36000000034
 20
5711256.76999999955
  0
VERTEX
  5
41D
100
AcDbEntity
  8
ewns_dzialki
100
AcDbVertex
100
AcDb2dVertex
 10
7572042.45000000019
 20
5711245.12999999989
  0
VERTEX
  5
41E
100
AcDbEntity
  8
ewns_dzialki
100
AcDbVertex
100
AcDb2dVertex
 10
7572047.54999999981
 20
5711233.44000000041
  0
VERTEX
  5
41F
100
AcDbEntity
  8
ewns_dzialki
100
AcDbVertex
100
AcDb2dVertex
 10
7572052.54999999981
 20
5711221.94000000041
  0
SEQEND
  5
420
100
AcDbEntity
  8
ewns_dzialki
  0
POLYLINE
  5
421
100
AcDbEntity
  8
ewns_dzialki
  6
CONTINUOUS
370
18
100
AcDb2dPolyline
 66
1
 70
129
  0
VERTEX
  5
422
100
AcDbEntity
  8
ewns_dzialki
100
AcDbVertex
100
AcDb2dVertex
 10
7571898.24000000022
 20
5711181.61000000034
  0
VERTEX
  5
423
100
AcDbEntity
  8
ewns_dzialki
100
AcDbVertex
100
AcDb2dVertex
 10
7571890.78000000026
 20
5711195.59999999963
  0
VERTEX
  5
424
100
AcDbEntity
  8
ewns_dzialki
100
AcDbVertex
100
AcDb2dVertex
 10
7571843.58999999985
 20
5711173.55999999959
  0
VERTEX
  5
425
100
AcDbEntity
  8
ewns_dzialki
100
AcDbVertex
100
AcDb2dVertex
 10
7571857.59999999963
 20
5711146.95000000019
  0
VERTEX
  5
426
100
AcDbEntity
  8
ewns_dzialki
100
AcDbVertex
100
AcDb2dVertex
 10
7571820.55999999959
 20
5711186.9299999997
  0
VERTEX
  5
427
100
AcDbEntity
  8
ewns_dzialki
100
AcDbVertex
100
AcDb2dVertex
 10
7571810.55999999959
 20
5711211.12000000011
  0
VERTEX
  5
428
100
AcDbEntity
  8
ewns_dzialki
100
AcDbVertex
100
AcDb2dVertex
 10
7571800.13999999966
 20
5711238.71999999974
  0
VERTEX
  5
429
100
AcDbEntity
  8
ewns_dzialki
100
AcDbVertex
100
AcDb2dVertex
 10
7571764.83999999985
 20
5711356.1799999997
  0
VERTEX
  5
42A
100
AcDbEntity
  8
ewns_dzialki
100
AcDbVertex
100
AcDb2dVertex
 10
7571936.76999999955
 20
5711377.1799999997
  0
VERTEX
  5
42B
100
AcDbEntity
  8
ewns_dzialki
100
AcDbVertex
100
AcDb2dVertex
 10
7571949.58999999985
 20
5711400.46999999974
  0
VERTEX
  5
42C
100
AcDbEntity
  8
ewns_dzialki
100
AcDbVertex
100
AcDb2dVertex
 10
7571958.25999999978
 20
5711399.05999999959
  0
VERTEX
  5
42D
100
AcDbEntity
  8
ewns_dzialki
100
AcDbVertex
100
AcDb2dVertex
 10
7571985.19000000041
 20
5711363.87999999989
  0
VERTEX
  5
42E
100
AcDbEntity
  8
ewns_dzialki
100
AcDbVertex
100
AcDb2dVertex
 10
7571990.78000000026
 20
5711356.00999999978
  0
VERTEX
  5
42F
100
AcDbEntity
  8
ewns_dzialki
100
AcDbVertex
100
AcDb2dVertex
 10
7571994.79999999981
 20
5711350.34999999963
  0
VERTEX
  5
430
100
AcDbEntity
  8
ewns_dzialki
100
AcDbVertex
100
AcDb2dVertex
 10
7571996.66999999993
 20
5711346.55999999959
  0
VERTEX
  5
431
100
AcDbEntity
  8
ewns_dzialki
100
AcDbVertex
100
AcDb2dVertex
 10
7571997.83000000007
 20
5711343.13999999966
  0
VERTEX
  5
432
100
AcDbEntity
  8
ewns_dzialki
100
AcDbVertex
100
AcDb2dVertex
 10
7571997.19000000041
 20
5711336.38999999966
  0
VERTEX
  5
433
100
AcDbEntity
  8
ewns_dzialki
100
AcDbVertex
100
AcDb2dVertex
 10
7571993.75999999978
 20
5711327.75
  0
VERTEX
  5
434
100
AcDbEntity
  8
ewns_dzialki
100
AcDbVertex
100
AcDb2dVertex
 10
7571985.99000000022
 20
5711316.16999999993
  0
VERTEX
  5
435
100
AcDbEntity
  8
ewns_dzialki
100
AcDbVertex
100
AcDb2dVertex
 10
7571954.58999999985
 20
5711271.70000000019
  0
VERTEX
  5
436
100
AcDbEntity
  8
ewns_dzialki
100
AcDbVertex
100
AcDb2dVertex
 10
7571918.16999999993
 20
5711219.44000000041
  0
VERTEX
  5
437
100
AcDbEntity
  8
ewns_dzialki
100
AcDbVertex
100
AcDb2dVertex
 10
7571910.23000000045
 20
5711195.4299999997
  0
VERTEX
  5
438
100
AcDbEntity
  8
ewns_dzialki
100
AcDbVertex
100
AcDb2dVertex
 10
7571909.4299999997
 20
5711196.03000000026
  0
SEQEND
  5
439
100
AcDbEntity
  8
ewns_dzialki
  0
POLYLINE
  5
43A
100
AcDbEntity
  8
ewns_dzialki
  6
CONTINUOUS
370
18
100
AcDb2dPolyline
 66
1
 70
129
  0
VERTEX
  5
43B
100
AcDbEntity
  8
ewns_dzialki
100
AcDbVertex
100
AcDb2dVertex
 10
7571951.62999999989
 20
5711404.16999999993
  0
VERTEX
  5
43C
100
AcDbEntity
  8
ewns_dzialki
100
AcDbVertex
100
AcDb2dVertex
 10
7571958.03000000026
 20
5711415.80999999959
  0
VERTEX
  5
43D
100
AcDbEntity
  8
ewns_dzialki
100
AcDbVertex
100
AcDb2dVertex
 10
7571993.24000000022
 20
5711369.8200000003
  0
VERTEX
  5
43E
100
AcDbEntity
  8
ewns_dzialki
100
AcDbVertex
100
AcDb2dVertex
 10
7571998.9299999997
 20
5711361.79999999981
  0
VERTEX
  5
43F
100
AcDbEntity
  8
ewns_dzialki
100
AcDbVertex
100
AcDb2dVertex
 10
7572003.41000000015
 20
5711355.5
  0
VERTEX
  5
440
100
AcDbEntity
  8
ewns_dzialki
100
AcDbVertex
100
AcDb2dVertex
 10
7572012.15000000037
 20
5711343.19000000041
  0
VERTEX
  5
441
100
AcDbEntity
  8
ewns_dzialki
100
AcDbVertex
100
AcDb2dVertex
 10
7571918.16999999993
 20
5711219.44000000041
  0
VERTEX
  5
442
100
AcDbEntity
  8
ewns_dzialki
100
AcDbVertex
100
AcDb2dVertex
 10
7571954.58999999985
 20
5711271.70000000019
  0
VERTEX
  5
443
100
AcDbEntity
  8
ewns_dzialki
100
AcDbVertex
100
AcDb2dVertex
 10
7571985.99000000022
 20
5711316.16999999993
  0
VERTEX
  5
444
100
AcDbEntity
  8
ewns_dzialki
100
AcDbVertex
100
AcDb2dVertex
 10
7571993.75999999978
 20
5711327.75
  0
VERTEX
  5
445
100
AcDbEntity
  8
ewns_dzialki
100
AcDbVertex
100
AcDb2dVertex
 10
7571997.19000000041
 20
5711336.38999999966
  0
VERTEX
  5
446
100
AcDbEntity
  8
ewns_dzialki
100
AcDbVertex
100
AcDb2dVertex
 10
7571997.83000000007
 20
5711343.13999999966
  0
VERTEX
  5
447
100
AcDbEntity
  8
ewns_dzialki
100
AcDbVertex
100
AcDb2dVertex
 10
7571996.66999999993
 20
5711346.55999999959
  0
VERTEX
  5
448
100
AcDbEntity
  8
ewns_dzialki
100
AcDbVertex
100
AcDb2dVertex
 10
7571994.79999999981
 20
5711350.34999999963
  0
VERTEX
  5
449
100
AcDbEntity
  8
ewns_dzialki
100
AcDbVertex
100
AcDb2dVertex
 10
7571990.78000000026
 20
5711356.00999999978
  0
VERTEX
  5
44A
100
AcDbEntity
  8
ewns_dzialki
100
AcDbVertex
100
AcDb2dVertex
 10
7571985.19000000041
 20
5711363.87999999989
  0
VERTEX
  5
44B
100
AcDbEntity
  8
ewns_dzialki
100
AcDbVertex
100
AcDb2dVertex
 10
7571958.25999999978
 20
5711399.05999999959
  0
VERTEX
  5
44C
100
AcDbEntity
  8
ewns_dzialki
100
AcDbVertex
100
AcDb2dVertex
 10
7571949.58999999985
 20
5711400.46999999974
  0
SEQEND
  5
44D
100
AcDbEntity
  8
ewns_dzialki
  0
POLYLINE
  5
44E
100
AcDbEntity
  8
ewns_dzialki
  6
CONTINUOUS
370
18
100
AcDb2dPolyline
 66
1
 70
129
  0
VERTEX
  5
44F
100
AcDbEntity
  8
ewns_dzialki
100
AcDbVertex
100
AcDb2dVertex
 10
7572015.29999999981
 20
5711347.33000000007
  0
VERTEX
  5
450
100
AcDbEntity
  8
ewns_dzialki
100
AcDbVertex
100
AcDb2dVertex
 10
7572012.15000000037
 20
5711343.19000000041
  0
VERTEX
  5
451
100
AcDbEntity
  8
ewns_dzialki
100
AcDbVertex
100
AcDb2dVertex
 10
7572003.41000000015
 20
5711355.5
  0
VERTEX
  5
452
100
AcDbEntity
  8
ewns_dzialki
100
AcDbVertex
100
AcDb2dVertex
 10
7571998.9299999997
 20
5711361.79999999981
  0
VERTEX
  5
453
100
AcDbEntity
  8
ewns_dzialki
100
AcDbVertex
100
AcDb2dVertex
 10
7571993.24000000022
 20
5711369.8200000003
  0
VERTEX
  5
454
100
AcDbEntity
  8
ewns_dzialki
100
AcDbVertex
100
AcDb2dVertex
 10
7571958.03000000026
 20
5711415.80999999959
  0
VERTEX
  5
455
100
AcDbEntity
  8
ewns_dzialki
100
AcDbVertex
100
AcDb2dVertex
 10
7571967.41000000015
 20
5711432.84999999963
  0
VERTEX
  5
456
100
AcDbEntity
  8
ewns_dzialki
100
AcDbVertex
100
AcDb2dVertex
 10
7572017.04000000004
 20
5711441.83999999985
  0
VERTEX
  5
457
100
AcDbEntity
  8
ewns_dzialki
100
AcDbVertex
100
AcDb2dVertex
 10
7572021.83999999985
 20
5711435.45000000019
  0
SEQEND
  5
458
100
AcDbEntity
  8
ewns_dzialki
  0
POLYLINE
  5
459
100
AcDbEntity
  8
ewns_dzialki
  6
CONTINUOUS
370
18
100
AcDb2dPolyline
 66
1
 70
129
  0
VERTEX
  5
45A
100
AcDbEntity
  8
ewns_dzialki
100
AcDbVertex
100
AcDb2dVertex
 10
7571556.54999999981
 20
5711720.37000000011
  0
VERTEX
  5
45B
100
AcDbEntity
  8
ewns_dzialki
100
AcDbVertex
100
AcDb2dVertex
 10
7571621.9299999997
 20
5711534.87000000011
  0
VERTEX
  5
45C
100
AcDbEntity
  8
ewns_dzialki
100
AcDbVertex
100
AcDb2dVertex
 10
7571694.00999999978
 20
5711330.84999999963
  0
VERTEX
  5
45D
100
AcDbEntity
  8
ewns_dzialki
100
AcDbVertex
100
AcDb2dVertex
 10
7571749.58000000007
 20
5711170.99000000022
  0
VERTEX
  5
45E
100
AcDbEntity
  8
ewns_dzialki
100
AcDbVertex
100
AcDb2dVertex
 10
7571750.55999999959
 20
5711168.16000000015
  0
VERTEX
  5
45F
100
AcDbEntity
  8
ewns_dzialki
100
AcDbVertex
100
AcDb2dVertex
 10
7571745.55999999959
 20
5711160.83000000007
  0
VERTEX
  5
460
100
AcDbEntity
  8
ewns_dzialki
100
AcDbVertex
100
AcDb2dVertex
 10
7571743.08000000007
 20
5711157.19000000041
  0
VERTEX
  5
461
100
AcDbEntity
  8
ewns_dzialki
100
AcDbVertex
100
AcDb2dVertex
 10
7571741.96999999974
 20
5711159.96999999974
  0
VERTEX
  5
462
100
AcDbEntity
  8
ewns_dzialki
100
AcDbVertex
100
AcDb2dVertex
 10
7571684.55999999959
 20
5711327.29999999981
  0
VERTEX
  5
463
100
AcDbEntity
  8
ewns_dzialki
100
AcDbVertex
100
AcDb2dVertex
 10
7571613.19000000041
 20
5711531.15000000037
  0
VERTEX
  5
464
100
AcDbEntity
  8
ewns_dzialki
100
AcDbVertex
100
AcDb2dVertex
 10
7571547.96999999974
 20
5711715.25
  0
SEQEND
  5
465
100
AcDbEntity
  8
ewns_dzialki
  0
TEXT
  5
466
100
AcDbEntity
  8
ewns_dzialki
370
25
100
AcDbText
 10
7571583.8825000003
 20
5711319.09999999963
 40
1.25
  1
116
 50
0.00
 41
0.66
  7
STANDARD
 72
1
 11
7571584.8200000003
 21
5711319.72499999963
100
AcDbText
 73
2
  0
TEXT
  5
467
100
AcDbEntity
  8
ewns_dzialki
370
25
100
AcDbText
 10
7571562.35749999993
 20
5711304.9450000003
 40
1.25
  1
114
 50
0.00
 41
0.66
  7
STANDARD
 72
1
 11
7571563.29499999993
 21
5711305.5700000003
100
AcDbText
 73
2
  0
TEXT
  5
468
100
AcDbEntity
  8
ewns_dzialki
370
25
100
AcDbText
 10
7571573.0625
 20
5711311.4849999994
 40
1.25
  1
115
 50
0.00
 41
0.66
  7
STANDARD
 72
1
 11
7571574.0
 21
5711312.1099999994
100
AcDbText
 73
2
  0
TEXT
  5
469
100
AcDbEntity
  8
ewns_dzialki
370
25
100
AcDbText
 10
7571633.8825000003
 20
5711672.03500000015
 40
1.25
  1
135
 50
0.00
 41
0.66
  7
STANDARD
 72
1
 11
7571634.8200000003
 21
5711672.66000000015
100
AcDbText
 73
2
  0
TEXT
  5
46A
100
AcDbEntity
  8
ewns_dzialki
370
25
100
AcDbText
 10
7572034.30750000011
 20
5711391.35500000045
 40
1.25
  1
142
 50
0.00
 41
0.66
  7
STANDARD
 72
1
 11
7572035.24500000011
 21
5711391.98000000045
100
AcDbText
 73
2
  0
TEXT
  5
46B
100
AcDbEntity
  8
ewns_dzialki
370
25
100
AcDbText
 10
7572018.83750000037
 20
5711390.7650000006
 40
1.25
  1
143
 50
0.00
 41
0.66
  7
STANDARD
 72
1
 11
7572019.77500000037
 21
5711391.3900000006
100
AcDbText
 73
2
  0
TEXT
  5
46C
100
AcDbEntity
  8
ewns_dzialki
370
25
100
AcDbText
 10
7571755.9525000006
 20
5711323.33499999996
 40
1.25
  1
134
 50
0.00
 41
0.66
  7
STANDARD
 72
1
 11
7571756.8900000006
 21
5711323.95999999996
100
AcDbText
 73
2
  0
TEXT
  5
46D
100
AcDbEntity
  8
ewns_dzialki
370
25
100
AcDbText
 10
7571800.35465998109
 20
5711227.97499999963
 40
1.25
  1
139
 50
0.00
 41
0.66
  7
STANDARD
 72
1
 11
7571801.29215998109
 21
5711228.59999999963
100
AcDbText
 73
2
  0
TEXT
  5
46E
100
AcDbEntity
  8
ewns_dzialki
370
25
100
AcDbText
 10
7571712.81749999989
 20
5711391.91999999993
 40
1.25
  1
133
 50
0.00
 41
0.66
  7
STANDARD
 72
1
 11
7571713.75499999989
 21
5711392.54499999993
100
AcDbText
 73
2
  0
TEXT
  5
46F
100
AcDbEntity
  8
ewns_dzialki
370
25
100
AcDbText
 10
7571688.81750000082
 20
5711425.58000000007
 40
1.25
  1
132
 50
0.00
 41
0.66
  7
STANDARD
 72
1
 11
7571689.75500000082
 21
5711426.20500000007
100
AcDbText
 73
2
  0
TEXT
  5
470
100
AcDbEntity
  8
ewns_dzialki
370
25
100
AcDbText
 10
7571690.5625
 20
5711381.125
 40
1.25
  1
131
 50
0.00
 41
0.66
  7
STANDARD
 72
1
 11
7571691.5
 21
5711381.75
100
AcDbText
 73
2
  0
TEXT
  5
471
100
AcDbEntity
  8
ewns_dzialki
370
25
100
AcDbText
 10
7571654.70749999955
 20
5711445.28000000026
 40
1.25
  1
130
 50
0.00
 41
0.66
  7
STANDARD
 72
1
 11
7571655.64499999955
 21
5711445.90500000026
100
AcDbText
 73
2
  0
TEXT
  5
472
100
AcDbEntity
  8
ewns_dzialki
370
25
100
AcDbText
 10
7571640.2974999994
 20
5711431.5150000006
 40
1.25
  1
127
 50
0.00
 41
0.66
  7
STANDARD
 72
1
 11
7571641.2349999994
 21
5711432.1400000006
100
AcDbText
 73
2
  0
TEXT
  5
473
100
AcDbEntity
  8
ewns_dzialki
370
25
100
AcDbText
 10
7571638.61249999981
 20
5711402.5150000006
 40
1.25
  1
124
 50
0.00
 41
0.66
  7
STANDARD
 72
1
 11
7571639.54999999981
 21
5711403.1400000006
100
AcDbText
 73
2
  0
TEXT
  5
474
100
AcDbEntity
  8
ewns_dzialki
370
25
100
AcDbText
 10
7571627.11249999981
 20
5711393.90000000037
 40
1.25
  1
123
 50
0.00
 41
0.66
  7
STANDARD
 72
1
 11
7571628.04999999981
 21
5711394.52500000037
100
AcDbText
 73
2
  0
TEXT
  5
475
100
AcDbEntity
  8
ewns_dzialki
370
25
100
AcDbText
 10
7571615.91249999963
 20
5711387.97000000067
 40
1.25
  1
122
 50
0.00
 41
0.66
  7
STANDARD
 72
1
 11
7571616.84999999963
 21
5711388.59500000067
100
AcDbText
 73
2
  0
TEXT
  5
476
100
AcDbEntity
  8
ewns_dzialki
370
25
100
AcDbText
 10
7571616.48249999993
 20
5711337.8200000003
 40
1.25
  1
121
 50
0.00
 41
0.66
  7
STANDARD
 72
1
 11
7571617.41999999993
 21
5711338.4450000003
100
AcDbText
 73
2
  0
TEXT
  5
477
100
AcDbEntity
  8
ewns_dzialki
370
25
100
AcDbText
 10
7571554.3674999997
 20
5711443.53999999911
 40
1.25
  1
118/1
 50
0.00
 41
0.66
  7
STANDARD
 72
1
 11
7571555.9299999997
 21
5711444.16499999911
100
AcDbText
 73
2
  0
TEXT
  5
478
100
AcDbEntity
  8
ewns_dzialki
370
25
100
AcDbText
 10
7571588.30250000022
 20
5711376.75999999978
 40
1.25
  1
120
 50
0.00
 41
0.66
  7
STANDARD
 72
1
 11
7571589.24000000022
 21
5711377.38499999978
100
AcDbText
 73
2
  0
TEXT
  5
479
100
AcDbEntity
  8
ewns_dzialki
370
25
100
AcDbText
 10
7571533.56750000082
 20
5711349.49500000011
 40
1.25
  1
113
 50
0.00
 41
0.66
  7
STANDARD
 72
1
 11
7571534.50500000082
 21
5711350.12000000011
100
AcDbText
 73
2
  0
TEXT
  5
47A
100
AcDbEntity
  8
ewns_dzialki
370
25
100
AcDbText
 10
7571545.9924999997
 20
5711292.14499999955
 40
1.25
  1
112
 50
0.00
 41
0.66
  7
STANDARD
 72
1
 11
7571546.9299999997
 21
5711292.76999999955
100
AcDbText
 73
2
  0
TEXT
  5
47B
100
AcDbEntity
  8
ewns_dzialki
370
25
100
AcDbText
 10
7571521.05750000011
 20
5711331.97000000067
 40
1.25
  1
584
 50
0.00
 41
0.66
  7
STANDARD
 72
1
 11
7571521.99500000011
 21
5711332.59500000067
100
AcDbText
 73
2
  0
TEXT
  5
47C
100
AcDbEntity
  8
ewns_dzialki
370
25
100
AcDbText
 10
7571515.62749999948
 20
5711330.02500000037
 40
1.25
  1
110
 50
0.00
 41
0.66
  7
STANDARD
 72
1
 11
7571516.56499999948
 21
5711330.65000000037
100
AcDbText
 73
2
  0
TEXT
  5
47D
100
AcDbEntity
  8
ewns_dzialki
370
25
100
AcDbText
 10
7571523.34250000026
 20
5711278.6099999994
 40
1.25
  1
109
 50
0.00
 41
0.66
  7
STANDARD
 72
1
 11
7571524.28000000026
 21
5711279.2349999994
100
AcDbText
 73
2
  0
TEXT
  5
47E
100
AcDbEntity
  8
ewns_dzialki
370
25
100
AcDbText
 10
7571490.53249999974
 20
5711335.99000000022
 40
1.25
  1
108/2
 50
0.00
 41
0.66
  7
STANDARD
 72
1
 11
7571492.09499999974
 21
5711336.61500000022
100
AcDbText
 73
2
  0
TEXT
  5
47F
100
AcDbEntity
  8
ewns_dzialki
370
25
100
AcDbText
 10
7571488.58249999955
 20
5711311.3200000003
 40
1.25
  1
107
 50
0.00
 41
0.66
  7
STANDARD
 72
1
 11
7571489.51999999955
 21
5711311.9450000003
100
AcDbText
 73
2
  0
TEXT
  5
480
100
AcDbEntity
  8
ewns_dzialki
370
25
100
AcDbText
 10
7572414.94249999989
 20
5711264.49000000022
 40
1.25
  1
590/2
 50
0.00
 41
0.66
  7
STANDARD
 72
1
 11
7572416.50499999989
 21
5711265.11500000022
100
AcDbText
 73
2
  0
TEXT
  5
481
100
AcDbEntity
  8
ewns_dzialki
370
25
100
AcDbText
 10
7571520.46499999985
 20
5711738.77500000037
 40
1.25
  1
69/3
 50
0.00
 41
0.66
  7
STANDARD
 72
1
 11
7571521.71499999985
 21
5711739.40000000037
100
AcDbText
 73
2
  0
TEXT
  5
482
100
AcDbEntity
  8
ewns_dzialki
370
25
100
AcDbText
 10
7571490.24000000022
 20
5711819.13999999966
 40
1.25
  1
69/4
 50
0.00
 41
0.66
  7
STANDARD
 72
1
 11
7571491.49000000022
 21
5711819.76499999966
100
AcDbText
 73
2
  0
TEXT
  5
483
100
AcDbEntity
  8
ewns_dzialki
370
25
100
AcDbText
 10
7571224.5150000006
 20
5711836.54000000004
 40
1.25
  1
70
 50
0.00
 41
0.66
  7
STANDARD
 72
1
 11
7571225.1400000006
 21
5711837.16500000004
100
AcDbText
 73
2
  0
TEXT
  5
484
100
AcDbEntity
  8
ewns_dzialki
370
25
100
AcDbText
 10
7571710.22750000004
 20
5711568.12000000011
 40
1.25
  1
193
 50
0.00
 41
0.66
  7
STANDARD
 72
1
 11
7571711.16500000004
 21
5711568.74500000011
100
AcDbText
 73
2
  0
TEXT
  5
485
100
AcDbEntity
  8
ewns_dzialki
370
25
100
AcDbText
 10
7571693.18250000011
 20
5711735.65000000037
 40
1.25
  1
194/1
 50
0.00
 41
0.66
  7
STANDARD
 72
1
 11
7571694.74500000011
 21
5711736.27500000037
100
AcDbText
 73
2
  0
TEXT
  5
486
100
AcDbEntity
  8
ewns_dzialki
370
25
100
AcDbText
 10
7571745.60250000004
 20
5711572.00999999978
 40
1.25
  1
194/2
 50
0.00
 41
0.66
  7
STANDARD
 72
1
 11
7571747.16500000004
 21
5711572.63499999978
100
AcDbText
 73
2
  0
TEXT
  5
487
100
AcDbEntity
  8
ewns_dzialki
370
25
100
AcDbText
 10
7571811.69249999989
 20
5711512.43500000052
 40
1.25
  1
195/1
 50
0.00
 41
0.66
  7
STANDARD
 72
1
 11
7571813.25499999989
 21
5711513.06000000052
100
AcDbText
 73
2
  0
TEXT
  5
488
100
AcDbEntity
  8
ewns_dzialki
370
25
100
AcDbText
 10
7571753.30250000022
 20
5711681.91000000015
 40
1.25
  1
195/2
 50
0.00
 41
0.66
  7
STANDARD
 72
1
 11
7571754.86500000022
 21
5711682.53500000015
100
AcDbText
 73
2
  0
TEXT
  5
489
100
AcDbEntity
  8
ewns_dzialki
370
25
100
AcDbText
 10
7571879.78749999963
 20
5711451.51999999955
 40
1.25
  1
196/1
 50
0.00
 41
0.66
  7
STANDARD
 72
1
 11
7571881.34999999963
 21
5711452.14499999955
100
AcDbText
 73
2
  0
TEXT
  5
48A
100
AcDbEntity
  8
ewns_dzialki
370
25
100
AcDbText
 10
7571807.48749999981
 20
5711652.6950000003
 40
1.25
  1
196/2
 50
0.00
 41
0.66
  7
STANDARD
 72
1
 11
7571809.04999999981
 21
5711653.3200000003
100
AcDbText
 73
2
  0
TEXT
  5
48B
100
AcDbEntity
  8
ewns_dzialki
370
25
100
AcDbText
 10
7571924.9375
 20
5711413.31000000052
 40
1.25
  1
197/1
 50
0.00
 41
0.66
  7
STANDARD
 72
1
 11
7571926.5
 21
5711413.93500000052
100
AcDbText
 73
2
  0
TEXT
  5
48C
100
AcDbEntity
  8
ewns_dzialki
370
25
100
AcDbText
 10
7571853.36249999981
 20
5711639.62999999989
 40
1.25
  1
197/2
 50
0.00
 41
0.66
  7
STANDARD
 72
1
 11
7571854.92499999981
 21
5711640.25499999989
100
AcDbText
 73
2
  0
TEXT
  5
48D
100
AcDbEntity
  8
ewns_dzialki
370
25
100
AcDbText
 10
7571894.69249999989
 20
5711663.36500000022
 40
1.25
  1
198
 50
0.00
 41
0.66
  7
STANDARD
 72
1
 11
7571895.62999999989
 21
5711663.99000000022
100
AcDbText
 73
2
  0
TEXT
  5
48E
100
AcDbEntity
  8
ewns_dzialki
370
25
100
AcDbText
 10
7572028.62749999948
 20
5711478.37999999989
 40
1.25
  1
199/1
 50
0.00
 41
0.66
  7
STANDARD
 72
1
 11
7572030.18999999948
 21
5711479.00499999989
100
AcDbText
 73
2
  0
TEXT
  5
48F
100
AcDbEntity
  8
ewns_dzialki
370
25
100
AcDbText
 10
7571918.95749999955
 20
5711685.98000000045
 40
1.25
  1
199/2
 50
0.00
 41
0.66
  7
STANDARD
 72
1
 11
7571920.51999999955
 21
5711686.60500000045
100
AcDbText
 73
2
  0
TEXT
  5
490
100
AcDbEntity
  8
ewns_dzialki
370
25
100
AcDbText
 10
7572053.78749999963
 20
5711510.15500000026
 40
1.25
  1
200/1
 50
0.00
 41
0.66
  7
STANDARD
 72
1
 11
7572055.34999999963
 21
5711510.78000000026
100
AcDbText
 73
2
  0
TEXT
  5
491
100
AcDbEntity
  8
ewns_dzialki
370
25
100
AcDbText
 10
7571945.88749999926
 20
5711737.6799999997
 40
1.25
  1
200/2
 50
0.00
 41
0.66
  7
STANDARD
 72
1
 11
7571947.44999999926
 21
5711738.3049999997
100
AcDbText
 73
2
  0
TEXT
  5
492
100
AcDbEntity
  8
ewns_dzialki
370
25
100
AcDbText
 10
7572081.05250000022
 20
5711547.11999999918
 40
1.25
  1
201/1
 50
0.00
 41
0.66
  7
STANDARD
 72
1
 11
7572082.61500000022
 21
5711547.74499999918
100
AcDbText
 73
2
  0
TEXT
  5
493
100
AcDbEntity
  8
ewns_dzialki
370
25
100
AcDbText
 10
7571966.4525000006
 20
5711774.41500000004
 40
1.25
  1
201/2
 50
0.00
 41
0.66
  7
STANDARD
 72
1
 11
7571968.0150000006
 21
5711775.04000000004
100
AcDbText
 73
2
  0
TEXT
  5
494
100
AcDbEntity
  8
ewns_dzialki
370
25
100
AcDbText
 10
7572103.68250000011
 20
5711595.29499999993
 40
1.25
  1
202/1
 50
0.00
 41
0.66
  7
STANDARD
 72
1
 11
7572105.24500000011
 21
5711595.91999999993
100
AcDbText
 73
2
  0
TEXT
  5
495
100
AcDbEntity
  8
ewns_dzialki
370
25
100
AcDbText
 10
7571982.52249999996
 20
5711819.01999999955
 40
1.25
  1
202/2
 50
0.00
 41
0.66
  7
STANDARD
 72
1
 11
7571984.08499999996
 21
5711819.64499999955
100
AcDbText
 73
2
  0
TEXT
  5
496
100
AcDbEntity
  8
ewns_dzialki
370
25
100
AcDbText
 10
7572126.2424999997
 20
5711653.04499999993
 40
1.25
  1
203/1
 50
0.00
 41
0.66
  7
STANDARD
 72
1
 11
7572127.8049999997
 21
5711653.66999999993
100
AcDbText
 73
2
  0
TEXT
  5
497
100
AcDbEntity
  8
ewns_dzialki
370
25
100
AcDbText
 10
7571999.53749999963
 20
5711873.59999999963
 40
1.25
  1
203/2
 50
0.00
 41
0.66
  7
STANDARD
 72
1
 11
7572001.09999999963
 21
5711874.22499999963
100
AcDbText
 73
2
  0
TEXT
  5
498
100
AcDbEntity
  8
ewns_dzialki
370
25
100
AcDbText
 10
7572150.3825000003
 20
5711687.59999999963
 40
1.25
  1
204/2
 50
0.00
 41
0.66
  7
STANDARD
 72
1
 11
7572151.9450000003
 21
5711688.22499999963
100
AcDbText
 73
2
  0
TEXT
  5
499
100
AcDbEntity
  8
ewns_dzialki
370
25
100
AcDbText
 10
7572174.5075000003
 20
5711729.4299999997
 40
1.25
  1
205/2
 50
0.00
 41
0.66
  7
STANDARD
 72
1
 11
7572176.0700000003
 21
5711730.0549999997
100
AcDbText
 73
2
  0
TEXT
  5
49A
100
AcDbEntity
  8
ewns_dzialki
370
25
100
AcDbText
 10
7572183.32749999966
 20
5711768.18999999948
 40
1.25
  1
206/7
 50
0.00
 41
0.66
  7
STANDARD
 72
1
 11
7572184.88999999966
 21
5711768.81499999948
100
AcDbText
 73
2
  0
TEXT
  5
49B
100
AcDbEntity
  8
ewns_dzialki
370
25
100
AcDbText
 10
7572273.73249999993
 20
5711677.54499999993
 40
1.25
  1
207/4
 50
0.00
 41
0.66
  7
STANDARD
 72
1
 11
7572275.29499999993
 21
5711678.16999999993
100
AcDbText
 73
2
  0
TEXT
  5
49C
100
AcDbEntity
  8
ewns_dzialki
370
25
100
AcDbText
 10
7572194.63749999926
 20
5711797.85500000045
 40
1.25
  1
207/5
 50
0.00
 41
0.66
  7
STANDARD
 72
1
 11
7572196.19999999926
 21
5711798.48000000045
100
AcDbText
 73
2
  0
TEXT
  5
49D
100
AcDbEntity
  8
ewns_dzialki
370
25
100
AcDbText
 10
7572208.5775000006
 20
5711864.8200000003
 40
1.25
  1
208/2
 50
0.00
 41
0.66
  7
STANDARD
 72
1
 11
7572210.1400000006
 21
5711865.4450000003
100
AcDbText
 73
2
  0
TEXT
  5
49E
100
AcDbEntity
  8
ewns_dzialki
370
25
100
AcDbText
 10
7572069.34750000015
 20
5711456.30000000074
 40
1.25
  1
210/1
 50
0.00
 41
0.66
  7
STANDARD
 72
1
 11
7572070.91000000015
 21
5711456.92500000074
100
AcDbText
 73
2
  0
TEXT
  5
49F
100
AcDbEntity
  8
ewns_dzialki
370
25
100
AcDbText
 10
7572170.92750000022
 20
5711494.1400000006
 40
1.25
  1
210/2
 50
0.00
 41
0.66
  7
STANDARD
 72
1
 11
7572172.49000000022
 21
5711494.7650000006
100
AcDbText
 73
2
  0
TEXT
  5
4A0
100
AcDbEntity
  8
ewns_dzialki
370
25
100
AcDbText
 10
7572065.6325000003
 20
5711444.18500000052
 40
1.25
  1
211/1
 50
0.00
 41
0.66
  7
STANDARD
 72
1
 11
7572067.1950000003
 21
5711444.81000000052
100
AcDbText
 73
2
  0
TEXT
  5
4A1
100
AcDbEntity
  8
ewns_dzialki
370
25
100
AcDbText
 10
7572161.7575000003
 20
5711473.63499999978
 40
1.25
  1
211/2
 50
0.00
 41
0.66
  7
STANDARD
 72
1
 11
7572163.3200000003
 21
5711474.25999999978
100
AcDbText
 73
2
  0
TEXT
  5
4A2
100
AcDbEntity
  8
ewns_dzialki
370
25
100
AcDbText
 10
7572058.0775000006
 20
5711425.45500000007
 40
1.25
  1
212/1
 50
0.00
 41
0.66
  7
STANDARD
 72
1
 11
7572059.6400000006
 21
5711426.08000000007
100
AcDbText
 73
2
  0
TEXT
  5
4A3
100
AcDbEntity
  8
ewns_dzialki
370
25
100
AcDbText
 10
7572155.51249999926
 20
5711454.73000000045
 40
1.25
  1
212/2
 50
0.00
 41
0.66
  7
STANDARD
 72
1
 11
7572157.07499999926
 21
5711455.35500000045
100
AcDbText
 73
2
  0
TEXT
  5
4A4
100
AcDbEntity
  8
ewns_dzialki
370
25
100
AcDbText
 10
7572054.80250000022
 20
5711408.15000000037
 40
1.25
  1
213/1
 50
0.00
 41
0.66
  7
STANDARD
 72
1
 11
7572056.36500000022
 21
5711408.77500000037
100
AcDbText
 73
2
  0
TEXT
  5
4A5
100
AcDbEntity
  8
ewns_dzialki
370
25
100
AcDbText
 10
7572151.00249999948
 20
5711437.0150000006
 40
1.25
  1
213/2
 50
0.00
 41
0.66
  7
STANDARD
 72
1
 11
7572152.56499999948
 21
5711437.6400000006
100
AcDbText
 73
2
  0
TEXT
  5
4A6
100
AcDbEntity
  8
ewns_dzialki
370
25
100
AcDbText
 10
7572151.60749999993
 20
5711420.88499999978
 40
1.25
  1
214
 50
0.00
 41
0.66
  7
STANDARD
 72
1
 11
7572152.54499999993
 21
5711421.50999999978
100
AcDbText
 73
2
  0
TEXT
  5
4A7
100
AcDbEntity
  8
ewns_dzialki
370
25
100
AcDbText
 10
7572147.57249999978
 20
5711404.8200000003
 40
1.25
  1
215
 50
0.00
 41
0.66
  7
STANDARD
 72
1
 11
7572148.50999999978
 21
5711405.4450000003
100
AcDbText
 73
2
  0
TEXT
  5
4A8
100
AcDbEntity
  8
ewns_dzialki
370
25
100
AcDbText
 10
7572143.80750000011
 20
5711389.22499999963
 40
1.25
  1
216
 50
0.00
 41
0.66
  7
STANDARD
 72
1
 11
7572144.74500000011
 21
5711389.84999999963
100
AcDbText
 73
2
  0
TEXT
  5
4A9
100
AcDbEntity
  8
ewns_dzialki
370
25
100
AcDbText
 10
7572140.48249999993
 20
5711374.88499999978
 40
1.25
  1
217
 50
0.00
 41
0.66
  7
STANDARD
 72
1
 11
7572141.41999999993
 21
5711375.50999999978
100
AcDbText
 73
2
  0
TEXT
  5
4AA
100
AcDbEntity
  8
ewns_dzialki
370
25
100
AcDbText
 10
7572139.26750000007
 20
5711361.06500000041
 40
1.25
  1
218
 50
0.00
 41
0.66
  7
STANDARD
 72
1
 11
7572140.20500000007
 21
5711361.69000000041
100
AcDbText
 73
2
  0
TEXT
  5
4AB
100
AcDbEntity
  8
ewns_dzialki
370
25
100
AcDbText
 10
7572142.84249999933
 20
5711349.26999999955
 40
1.25
  1
219
 50
0.00
 41
0.66
  7
STANDARD
 72
1
 11
7572143.77999999933
 21
5711349.89499999955
100
AcDbText
 73
2
  0
TEXT
  5
4AC
100
AcDbEntity
  8
ewns_dzialki
370
25
100
AcDbText
 10
7572147.93249999918
 20
5711337.16500000004
 40
1.25
  1
220
 50
0.00
 41
0.66
  7
STANDARD
 72
1
 11
7572148.86999999918
 21
5711337.79000000004
100
AcDbText
 73
2
  0
TEXT
  5
4AD
100
AcDbEntity
  8
ewns_dzialki
370
25
100
AcDbText
 10
7572153.14250000007
 20
5711324.95999999996
 40
1.25
  1
221
 50
0.00
 41
0.66
  7
STANDARD
 72
1
 11
7572154.08000000007
 21
5711325.58499999996
100
AcDbText
 73
2
  0
TEXT
  5
4AE
100
AcDbEntity
  8
ewns_dzialki
370
25
100
AcDbText
 10
7572158.19749999978
 20
5711312.93999999948
 40
1.25
  1
222
 50
0.00
 41
0.66
  7
STANDARD
 72
1
 11
7572159.13499999978
 21
5711313.56499999948
100
AcDbText
 73
2
  0
TEXT
  5
4AF
100
AcDbEntity
  8
ewns_dzialki
370
25
100
AcDbText
 10
7572163.47250000015
 20
5711300.45500000007
 40
1.25
  1
223
 50
0.00
 41
0.66
  7
STANDARD
 72
1
 11
7572164.41000000015
 21
5711301.08000000007
100
AcDbText
 73
2
  0
TEXT
  5
4B0
100
AcDbEntity
  8
ewns_dzialki
370
25
100
AcDbText
 10
7572106.76685578469
 20
5711459.82500000019
 40
1.25
  1
227
 50
0.00
 41
0.66
  7
STANDARD
 72
1
 11
7572107.70435578469
 21
5711460.45000000019
100
AcDbText
 73
2
  0
TEXT
  5
4B1
100
AcDbEntity
  8
ewns_dzialki
370
25
100
AcDbText
 10
7571687.01317411382
 20
5711555.05999999959
 40
1.25
  1
228
 50
0.00
 41
0.66
  7
STANDARD
 72
1
 11
7571687.95067411382
 21
5711555.68499999959
100
AcDbText
 73
2
  0
TEXT
  5
4B2
100
AcDbEntity
  8
ewns_dzialki
370
25
100
AcDbText
 10
7572059.01800899766
 20
5711709.84999999963
 40
1.25
  1
229/2
 50
0.00
 41
0.66
  7
STANDARD
 72
1
 11
7572060.58050899766
 21
5711710.47499999963
100
AcDbText
 73
2
  0
TEXT
  5
4B3
100
AcDbEntity
  8
ewns_dzialki
370
25
100
AcDbText
 10
7571785.38839504588
 20
5711591.16999999993
 40
1.25
  1
230
 50
0.00
 41
0.66
  7
STANDARD
 72
1
 11
7571786.32589504588
 21
5711591.79499999993
100
AcDbText
 73
2
  0
TEXT
  5
4B4
100
AcDbEntity
  8
ewns_dzialki
370
25
100
AcDbText
 10
7571589.27404450625
 20
5711744.0549999997
 40
1.25
  1
255/2
 50
0.00
 41
0.66
  7
STANDARD
 72
1
 11
7571590.83654450625
 21
5711744.6799999997
100
AcDbText
 73
2
  0
TEXT
  5
4B5
100
AcDbEntity
  8
ewns_dzialki
370
25
100
AcDbText
 10
7571931.76145738363
 20
5711231.49500000011
 40
1.25
  1
144
 50
0.00
 41
0.66
  7
STANDARD
 72
1
 11
7571932.69895738363
 21
5711232.12000000011
100
AcDbText
 73
2
  0
TEXT
  5
4B6
100
AcDbEntity
  8
ewns_dzialki
370
25
100
AcDbText
 10
7572013.16418310907
 20
5711332.4849999994
 40
1.25
  1
228/1
 50
0.00
 41
0.66
  7
STANDARD
 72
1
 11
7572014.72668310907
 21
5711333.1099999994
100
AcDbText
 73
2
  0
TEXT
  5
4B7
100
AcDbEntity
  8
ewns_dzialki
370
25
100
AcDbText
 10
7571879.77249999996
 20
5711273.08499999996
 40
1.25
  1
141/1
 50
0.00
 41
0.66
  7
STANDARD
 72
1
 11
7571881.33499999996
 21
5711273.70999999996
100
AcDbText
 73
2
  0
TEXT
  5
4B8
100
AcDbEntity
  8
ewns_dzialki
370
25
100
AcDbText
 10
7571988.28817169648
 20
5711317.0
 40
1.25
  1
141/2
 50
0.00
 41
0.66
  7
STANDARD
 72
1
 11
7571989.85067169648
 21
5711317.625
100
AcDbText
 73
2
  0
TEXT
  5
4B9
100
AcDbEntity
  8
ewns_dzialki
370
25
100
AcDbText
 10
7571988.37250000052
 20
5711391.8900000006
 40
1.25
  1
141/3
 50
0.00
 41
0.66
  7
STANDARD
 72
1
 11
7571989.93500000052
 21
5711392.5150000006
100
AcDbText
 73
2
  0
TEXT
  5
4BA
100
AcDbEntity
  8
ewns_dzialki
370
25
100
AcDbText
 10
7571648.32749999966
 20
5711438.15500000026
 40
1.25
  1
129
 50
0.00
 41
0.66
  7
STANDARD
 72
1
 11
7571649.26499999966
 21
5711438.78000000026
100
AcDbText
 73
2
  0
ENDSEC
  0
SECTION
  2
OBJECTS
  0
DICTIONARY
  5
4BB
330
0
100
AcDbDictionary
280
0
281
1
  3
ACAD_GROUP
350
4BC
  3
ACAD_LAYOUT
350
4BD
  3
ACAD_MLINESTYLE
350
4BE
  3
ACAD_PLOTSETTINGS
350
4BF
  3
ACAD_PLOTSTYLENAME
350
4C0
  0
DICTIONARY
  5
4BC
102
{ACAD_REACTORS
330
4BB
102
}
330
4BB
100
AcDbDictionary
280
0
281
1
  0
DICTIONARY
  5
4BD
102
{ACAD_REACTORS
330
4BB
102
}
330
4BB
100
AcDbDictionary
280
0
281
1
  3
Layout
350
18
  3
Model
350
16
  0
DICTIONARY
  5
4BE
102
{ACAD_REACTORS
330
4BB
102
}
330
4BB
100
AcDbDictionary
280
0
281
1
  3
Standard
350
4C1
  0
DICTIONARY
  5
4BF
102
{ACAD_REACTORS
330
4BB
102
}
330
4BB
100
AcDbDictionary
280
0
281
1
  0
ACDBDICTIONARYWDFLT
  5
4C0
102
{ACAD_REACTORS
330
4BB
102
}
330
4BB
100
AcDbDictionary
281
1
  3
Normal
350
9
100
AcDbDictionaryWithDefault
340
9
  0
LAYOUT
  5
18
100
AcDbPlotSettings
  1

  2

  4

  6

 40
0.0
 41
0.0
 42
0.0
 43
0.0
 44
0.0
 45
0.0
 46
0.0
 47
0.0
 48
0.0
 49
0.0
140
0.0
141
0.0
142
1.0
143
1.0
 70
688
 72
1
 73
0
 74
5
  7

 75
0
147
1.0
148
0.0
149
0.0
100
AcDbLayout
  1
Layout
 70
1
 71
1
 10
0.0
 20
0.0
 11
420.0
 21
297.0
 12
0.0
 22
0.0
 32
0.0
 14
100000000000000000000.0
 24
100000000000000000000.0
 34
100000000000000000000.0
 15
-100000000000000000000.0
 25
-100000000000000000000.0
 35
-100000000000000000000.0
146
0.0
 13
0.0
 23
0.0
 33
0.0
 16
1.0
 26
0.0
 36
0.0
 17
0.0
 27
1.0
 37
0.0
 76
0
330
17
  0
LAYOUT
  5
16
100
AcDbPlotSettings
  1

  2

  4

  6

 40
0.0
 41
0.0
 42
0.0
 43
0.0
 44
0.0
 45
0.0
 46
0.0
 47
0.0
 48
0.0
 49
0.0
140
0.0
141
0.0
142
1.0
143
1.0
 70
1712
 72
1
 73
0
 74
0
  7

 75
0
147
1.0
148
0.0
149
0.0
100
AcDbLayout
  1
Model
 70
1
 71
0
 10
0.0
 20
0.0
 11
12.0
 21
9.0
 12
0.0
 22
0.0
 32
0.0
 14
0.0
 24
0.0
 34
0.0
 15
0.0
 25
0.0
 35
0.0
146
0.0
 13
0.0
 23
0.0
 33
0.0
 16
1.0
 26
0.0
 36
0.0
 17
0.0
 27
1.0
 37
0.0
 76
0
330
15
  0
MLINESTYLE
  5
4C1
102
{ACAD_REACTORS
330
4BE
102
}
330
4BE
100
AcDbMlineStyle
  2
Standard
 70
0
  3

 62
256
 51
90.0
 52
90.0
  2
Standard
 71
2
 49
0.5
 62
256
  6
ByLayer
 49
-0.5
 62
256
  6
ByLayer
  0
ACDBPLACEHOLDER
  5
9
  0
ENDSEC
  0
EOF
