  0
SECTION
  2
HEADER
  9
$ACADVER
  1
AC1018
  9
$HANDSEED
  5
FFFFFF
  9
$EXTMAX
 10
7565115.721
 20
5721117.97
 30
1000000.00
  9
$EXTMIN
 10
7565070.425
 20
5721053.68699999936
 30
0.00
  9
$LIMMIN
 10
7565070.425
 20
5721053.68699999936
  9
$LIMMAX
 10
7565115.721
 20
5721117.97
  9
$DIMASZ
 40
2.5
  9
$DIMGAP
 40
0.625
  9
$INSUNITS
 70
6
  9
$MEASUREMENT
 70
1
  9
$DIMEXO
 40
0.625
  9
$DIMTXT
 40
2.5
  9
$DIMSTYLE
  2
Standard
  9
$PLIMMIN
 10
0.0
 20
0.0
  9
$PLIMMAX
 10
210.0
 20
297.0
  9
$DIMEXE
 40
1.25
  9
$TEXTSIZE
 40
2.5
  9
$TEXTSTYLE
  7
Standard
  9
$LWDISPLAY
290
1
  9
$TDCREATE
 40
45517.525092512
  9
$TDUCREATE
 40
45517.441759178
  9
$TDUPDATE
 40
45517.525092512
  9
$TDUUPDATE
 40
45517.441759178
  9
$TDINDWG
 40
0.0
  9
$TDUSRTIMER
 40
0.0
  9
$USRTIMER
 70
1
  0
ENDSEC
  0
SECTION
  2
CLASSES
  0
CLASS
  1
WIPEOUT
  2
AcDbWipeout
  3
WipeOut
 90
127
 91
1
280
0
281
1
  0
CLASS
  1
WIPEOUTVARIABLES
  2
AcDbWipeoutVariables
  3
WipeOut
 90
0
 91
1
280
0
281
0
  0
ENDSEC
  0
SECTION
  2
TABLES
  0
TABLE
  2
VPORT
  5
1
100
AcDbSymbolTable
 70
1
  0
VPORT
  5
2
100
AcDbSymbolTableRecord
100
AcDbViewportTableRecord
  2
*ACTIVE
 70
0
 10
0.0
 20
0.0
 11
1.0
 21
1.0
 12
7565093.073
 22
5721085.829
 13
0.0
 23
0.0
 14
1.0
 24
1.0
 15
0.0
 25
0.0
 16
0.0
 26
0.0
 36
1.0
 17
0.0
 27
0.0
 37
0.0
 40
64.283
 41
0.705
 42
50.0
 43
0.0
 44
0.0
 50
0.0
 51
0.0
 71
0
 72
100
 73
1
 74
1
 75
0
 76
0
 77
0
 78
0
  0
ENDTAB
  0
TABLE
  2
LTYPE
  5
3
100
AcDbSymbolTable
 70
3
  0
LTYPE
  5
4
100
AcDbSymbolTableRecord
100
AcDbLinetypeTableRecord
  2
ByBlock
 70
0
  3

 72
65
 73
0
 40
0.0
  0
LTYPE
  5
5
100
AcDbSymbolTableRecord
100
AcDbLinetypeTableRecord
  2
ByLayer
 70
0
  3

 72
65
 73
0
 40
0.0
  0
LTYPE
  5
6
100
AcDbSymbolTableRecord
100
AcDbLinetypeTableRecord
  2
CONTINUOUS
 70
0
  3
Solid line
 72
65
 73
0
 40
0.0
  0
LTYPE
  5
8
100
AcDbSymbolTableRecord
100
AcDbLinetypeTableRecord
  2
L_0_02
 70
0
  3
Dzialka_ewidencyjna (MLineStyle)
 72
65
 73
0
 40
0.0
  0
LTYPE
  5
9
100
AcDbSymbolTableRecord
100
AcDbLinetypeTableRecord
  2
L_0_03
 70
0
  3
Uzytek_gruntowy
 72
65
 73
2
 40
1.0
 49
0.5
 74
0
 49
-0.5
 74
0
  0
LTYPE
  5
A
100
AcDbSymbolTableRecord
100
AcDbLinetypeTableRecord
  2
L_0_04
 70
0
  3
Budynek_projektowany
 72
65
 73
2
 40
1.5
 49
1.0
 74
0
 49
-0.5
 74
0
  0
LTYPE
  5
B
100
AcDbSymbolTableRecord
100
AcDbLinetypeTableRecord
  2
L_0_06
 70
0
  3
Granica_konturu_klasyfikacyjnego_Krawedz_chodnika
 72
65
 73
2
 40
2.0
 49
1.5
 74
0
 49
-0.5
 74
0
  0
ENDTAB
  0
TABLE
  2
LAYER
  5
C
100
AcDbSymbolTable
 70
2
  0
LAYER
  5
D
100
AcDbSymbolTableRecord
100
AcDbLayerTableRecord
  2
0
 70
0
 62
7
  6
CONTINUOUS
370
18
390
E
  0
LAYER
  5
F
100
AcDbSymbolTableRecord
100
AcDbLayerTableRecord
  2
IE_Latarnie
 70
0
 62
12
  6
CONTINUOUS
370
18
390
E
  0
ENDTAB
  0
TABLE
  2
STYLE
  5
10
100
AcDbSymbolTable
 70
2
  0
STYLE
  5
11
100
AcDbSymbolTableRecord
100
AcDbTextStyleTableRecord
  2
STANDARD
 70
0
 40
0.0
 41
1.0
 50
0.0
 71
0
  3
simplex.shx
  4

  0
STYLE
  5
12
100
AcDbSymbolTableRecord
100
AcDbTextStyleTableRecord
  2
STANDARD_ITALIC
 70
0
 40
0.0
 41
1.0
 50
15.0
 71
0
  3
simplex.shx
  4

  0
ENDTAB
  0
TABLE
  2
VIEW
  5
13
100
AcDbSymbolTable
 70
0
  0
ENDTAB
  0
TABLE
  2
UCS
  5
14
100
AcDbSymbolTable
 70
0
  0
ENDTAB
  0
TABLE
  2
APPID
  5
15
100
AcDbSymbolTable
 70
1
  0
APPID
  5
16
100
AcDbSymbolTableRecord
100
AcDbRegAppTableRecord
  2
ACAD
 70
0
  0
ENDTAB
  0
TABLE
  2
DIMSTYLE
  5
17
100
AcDbSymbolTable
 70
1
100
AcDbDimStyleTable
  0
DIMSTYLE
105
18
100
AcDbSymbolTableRecord
100
AcDbDimStyleTableRecord
  2
Standard
 70
0
340
11
  0
ENDTAB
  0
TABLE
  2
BLOCK_RECORD
  5
19
100
AcDbSymbolTable
 70
4
  0
BLOCK_RECORD
  5
1A
100
AcDbSymbolTableRecord
100
AcDbBlockTableRecord
  2
*Model_Space
340
1B
  0
BLOCK_RECORD
  5
1C
100
AcDbSymbolTableRecord
100
AcDbBlockTableRecord
  2
*Paper_Space
340
1D
  0
BLOCK_RECORD
  5
1E
100
AcDbSymbolTableRecord
100
AcDbBlockTableRecord
  2
L_0_02_1
340
1F
  0
BLOCK_RECORD
  5
20
100
AcDbSymbolTableRecord
100
AcDbBlockTableRecord
  2
L_0_02_2
340
21
  0
ENDTAB
  0
ENDSEC
  0
SECTION
  2
BLOCKS
  0
BLOCK
  5
22
100
AcDbEntity
  8
0
100
AcDbBlockBegin
  2
*Model_Space
 70
0
 10
0.0
 20
0.0
 30
0.0
  3
*Model_Space
  1

  0
ENDBLK
  5
23
100
AcDbEntity
  8
0
100
AcDbBlockEnd
  0
BLOCK
  5
24
100
AcDbEntity
 67
1
  8
0
100
AcDbBlockBegin
  2
*Paper_Space
 70
0
 10
0.0
 20
0.0
 30
0.0
  3
*Paper_Space
  1

  0
ENDBLK
  5
25
100
AcDbEntity
 67
1
  8
0
100
AcDbBlockEnd
  0
BLOCK
  5
1F
100
AcDbEntity
  8
0
100
AcDbBlockBegin
 62
0
370
13
  2
L_0_02_1
 70
0
 10
0
 20
0
 30
0
  3
L_0_02_1
  0
POINT
  5
26
100
AcDbEntity
  8
0
100
AcDbPoint
 62
0
 10
0.0
 20
0.0
 30
0.000
  0
ENDBLK
  5
27
100
AcDbEntity
  8
0
100
AcDbBlockEnd
  0
BLOCK
  5
21
100
AcDbEntity
  8
0
100
AcDbBlockBegin
 62
0
370
13
  2
L_0_02_2
 70
0
 10
0
 20
0
 30
0
  3
L_0_02_2
  0
POINT
  5
28
100
AcDbEntity
  8
0
100
AcDbPoint
 62
0
 10
-0.0
 20
-0.0
 30
0.000
  0
ENDBLK
  5
29
100
AcDbEntity
  8
0
100
AcDbBlockEnd
  0
ENDSEC
  0
SECTION
  2
ENTITIES
  0
ARC
  5
2A
100
AcDbEntity
  8
IE_Latarnie
  6
CONTINUOUS
 62
12
370
18
100
AcDbCircle
 10
7565094.5417962752
 20
5721073.8536492960
 30
0
 40
7.7979863028
100
AcDbArc
 50
217.2636170330
 51
287.1702865783
  0
ARC
  5
2B
100
AcDbEntity
  8
IE_Latarnie
  6
CONTINUOUS
 62
12
370
18
100
AcDbCircle
 10
7565834.5333922496
 20
5721558.7306795584
 30
0
 40
893.3010144373
100
AcDbArc
 50
212.3067022604
 51
212.6984512418
  0
ARC
  5
2C
100
AcDbEntity
  8
IE_Latarnie
  6
CONTINUOUS
 62
12
370
18
100
AcDbCircle
 10
7565091.9534783718
 20
5721054.4961772058
 30
0
 40
0.1633551455
100
AcDbArc
 50
331.9079807764
 51
61.1087008556
  0
ARC
  5
2D
100
AcDbEntity
  8
IE_Latarnie
  6
CONTINUOUS
 62
12
370
18
100
AcDbCircle
 10
7565092.0324033190
 20
5721054.6392008294
 30
0
 40
0.2294020917
100
AcDbArc
 50
197.6654915043
 51
286.5083402874
  0
ARC
  5
2E
100
AcDbEntity
  8
IE_Latarnie
  6
CONTINUOUS
 62
12
370
18
100
AcDbCircle
 10
7565091.9534783718
 20
5721054.4961772058
 30
0
 40
0.1633551455
100
AcDbArc
 50
331.9079807764
 51
61.1087008556
  0
ARC
  5
2F
100
AcDbEntity
  8
IE_Latarnie
  6
CONTINUOUS
 62
12
370
18
100
AcDbCircle
 10
7565091.9584071373
 20
5721054.4935661158
 30
0
 40
0.1633551475
100
AcDbArc
 50
63.0651320792
 51
152.2658504916
  0
ARC
  5
30
100
AcDbEntity
  8
IE_Latarnie
  6
CONTINUOUS
 62
12
370
18
100
AcDbCircle
 10
7565074.0530153459
 20
5721093.8289240787
 30
0
 40
0.1633551503
100
AcDbArc
 50
320.6735381738
 51
49.8742546814
  0
ARC
  5
31
100
AcDbEntity
  8
IE_Latarnie
  6
CONTINUOUS
 62
12
370
18
100
AcDbCircle
 10
7565074.1582923942
 20
5721093.9538306381
 30
0
 40
0.2294020912
100
AcDbArc
 50
186.4310474828
 51
275.2738964420
  0
ARC
  5
32
100
AcDbEntity
  8
IE_Latarnie
  6
CONTINUOUS
 62
12
370
18
100
AcDbCircle
 10
7565074.0530153459
 20
5721093.8289240787
 30
0
 40
0.1633551503
100
AcDbArc
 50
320.6735381738
 51
49.8742546814
  0
ARC
  5
33
100
AcDbEntity
  8
IE_Latarnie
  6
CONTINUOUS
 62
12
370
18
100
AcDbCircle
 10
7565074.0573409715
 20
5721093.8254027763
 30
0
 40
0.1633551504
100
AcDbArc
 50
51.8306884679
 51
141.0314056618
  0
ARC
  5
34
100
AcDbEntity
  8
IE_Latarnie
  6
CONTINUOUS
 62
12
370
18
100
AcDbCircle
 10
7565082.6870213658
 20
5721076.0338227360
 30
0
 40
0.1633551541
100
AcDbArc
 50
320.6735392088
 51
49.8742541034
  0
ARC
  5
35
100
AcDbEntity
  8
IE_Latarnie
  6
CONTINUOUS
 62
12
370
18
100
AcDbCircle
 10
7565082.7922984192
 20
5721076.1587292973
 30
0
 40
0.2294020931
100
AcDbArc
 50
186.4310476618
 51
275.2738961676
  0
ARC
  5
36
100
AcDbEntity
  8
IE_Latarnie
  6
CONTINUOUS
 62
12
370
18
100
AcDbCircle
 10
7565082.6870213658
 20
5721076.0338227360
 30
0
 40
0.1633551541
100
AcDbArc
 50
320.6735392088
 51
49.8742541034
  0
ARC
  5
37
100
AcDbEntity
  8
IE_Latarnie
  6
CONTINUOUS
 62
12
370
18
100
AcDbCircle
 10
7565082.6913469965
 20
5721076.0303014336
 30
0
 40
0.1633551514
100
AcDbArc
 50
51.8306891284
 51
141.0314056133
  0
ARC
  5
38
100
AcDbEntity
  8
IE_Latarnie
  6
CONTINUOUS
 62
12
370
18
100
AcDbCircle
 10
7565097.7461253530
 20
5721066.7449906829
 30
0
 40
0.1633551492
100
AcDbArc
 50
320.6735377597
 51
49.8742553915
  0
ARC
  5
39
100
AcDbEntity
  8
IE_Latarnie
  6
CONTINUOUS
 62
12
370
18
100
AcDbCircle
 10
7565097.8514024013
 20
5721066.8698972435
 30
0
 40
0.2294020923
100
AcDbArc
 50
186.4310479190
 51
275.2738959574
  0
ARC
  5
3A
100
AcDbEntity
  8
IE_Latarnie
  6
CONTINUOUS
 62
12
370
18
100
AcDbCircle
 10
7565097.7461253530
 20
5721066.7449906829
 30
0
 40
0.1633551492
100
AcDbArc
 50
320.6735377597
 51
49.8742553915
  0
ARC
  5
3B
100
AcDbEntity
  8
IE_Latarnie
  6
CONTINUOUS
 62
12
370
18
100
AcDbCircle
 10
7565097.7504509786
 20
5721066.7414693811
 30
0
 40
0.1633551494
100
AcDbArc
 50
51.8306887247
 51
141.0314061698
  0
ARC
  5
3C
100
AcDbEntity
  8
IE_Latarnie
  6
CONTINUOUS
 62
12
370
18
100
AcDbCircle
 10
7565114.6245573158
 20
5721073.5962893440
 30
0
 40
0.1633551512
100
AcDbArc
 50
320.6735383808
 51
49.8742546422
  0
ARC
  5
3D
100
AcDbEntity
  8
IE_Latarnie
  6
CONTINUOUS
 62
12
370
18
100
AcDbCircle
 10
7565114.7298343654
 20
5721073.7211959014
 30
0
 40
0.2294020897
100
AcDbArc
 50
186.4310470465
 51
275.2738964847
  0
ARC
  5
3E
100
AcDbEntity
  8
IE_Latarnie
  6
CONTINUOUS
 62
12
370
18
100
AcDbCircle
 10
7565114.6245573158
 20
5721073.5962893440
 30
0
 40
0.1633551512
100
AcDbArc
 50
320.6735383808
 51
49.8742546422
  0
ARC
  5
3F
100
AcDbEntity
  8
IE_Latarnie
  6
CONTINUOUS
 62
12
370
18
100
AcDbCircle
 10
7565114.6288829427
 20
5721073.5927680416
 30
0
 40
0.1633551505
100
AcDbArc
 50
51.8306889265
 51
141.0314056618
  0
CIRCLE
  5
40
100
AcDbEntity
  8
IE_Latarnie
  6
CONTINUOUS
 62
12
370
18
100
AcDbCircle
 10
7565092.032
 20
5721054.639
 40
0.229000000283
  0
CIRCLE
  5
41
100
AcDbEntity
  8
IE_Latarnie
  6
CONTINUOUS
 62
12
370
18
100
AcDbCircle
 10
7565074.158
 20
5721093.95399999936
 40
0.229000000283
  0
CIRCLE
  5
42
100
AcDbEntity
  8
IE_Latarnie
  6
CONTINUOUS
 62
12
370
18
100
AcDbCircle
 10
7565082.792
 20
5721076.158
 40
0.229000000283
  0
CIRCLE
  5
43
100
AcDbEntity
  8
IE_Latarnie
  6
CONTINUOUS
 62
12
370
18
100
AcDbCircle
 10
7565097.851
 20
5721066.87000000064
 40
0.229000000283
  0
CIRCLE
  5
44
100
AcDbEntity
  8
IE_Latarnie
  6
CONTINUOUS
 62
12
370
18
100
AcDbCircle
 10
7565114.73
 20
5721073.721
 40
0.229000000283
  0
POLYLINE
  5
45
100
AcDbEntity
  8
IE_Latarnie
  6
CONTINUOUS
 62
12
370
18
100
AcDb2dPolyline
 66
1
 70
128
  0
VERTEX
  5
46
100
AcDbEntity
  8
IE_Latarnie
100
AcDbVertex
100
AcDb2dVertex
 10
7565096.84386013184
 20
5721066.4032068672
  0
VERTEX
  5
47
100
AcDbEntity
  8
IE_Latarnie
100
AcDbVertex
100
AcDb2dVertex
 10
7565114.72983436544
 20
5721073.72119590272
  0
SEQEND
  5
48
100
AcDbEntity
  8
IE_Latarnie
  0
POLYLINE
  5
49
100
AcDbEntity
  8
IE_Latarnie
  6
CONTINUOUS
 62
12
370
18
100
AcDb2dPolyline
 66
1
 70
128
  0
VERTEX
  5
4A
100
AcDbEntity
  8
IE_Latarnie
100
AcDbVertex
100
AcDb2dVertex
 10
7565070.4304443584
 20
5721102.78327305088
  0
VERTEX
  5
4B
100
AcDbEntity
  8
IE_Latarnie
100
AcDbVertex
100
AcDb2dVertex
 10
7565079.51598160896
 20
5721081.30486121344
  0
SEQEND
  5
4C
100
AcDbEntity
  8
IE_Latarnie
  0
POLYLINE
  5
4D
100
AcDbEntity
  8
IE_Latarnie
  6
CONTINUOUS
 62
12
370
18
100
AcDb2dPolyline
 66
1
 70
128
  0
VERTEX
  5
4E
100
AcDbEntity
  8
IE_Latarnie
100
AcDbVertex
100
AcDb2dVertex
 10
7565082.73900444288
 20
5721076.19978201792
  0
VERTEX
  5
4F
100
AcDbEntity
  8
IE_Latarnie
100
AcDbVertex
100
AcDb2dVertex
 10
7565088.33570552064
 20
5721069.13209998272
  0
SEQEND
  5
50
100
AcDbEntity
  8
IE_Latarnie
  0
POLYLINE
  5
51
100
AcDbEntity
  8
IE_Latarnie
  6
CONTINUOUS
 62
12
370
35
100
AcDb2dPolyline
 66
1
 70
128
  0
VERTEX
  5
52
100
AcDbEntity
  8
IE_Latarnie
100
AcDbVertex
100
AcDb2dVertex
 10
7565091.46249753728
 20
5721054.46402486784
  0
VERTEX
  5
53
100
AcDbEntity
  8
IE_Latarnie
100
AcDbVertex
100
AcDb2dVertex
 10
7565091.08001660672
 20
5721054.34645397248
  0
SEQEND
  5
54
100
AcDbEntity
  8
IE_Latarnie
  0
POLYLINE
  5
55
100
AcDbEntity
  8
IE_Latarnie
  6
CONTINUOUS
 62
12
370
35
100
AcDb2dPolyline
 66
1
 70
128
  0
VERTEX
  5
56
100
AcDbEntity
  8
IE_Latarnie
100
AcDbVertex
100
AcDb2dVertex
 10
7565092.60229070208
 20
5721054.81438613312
  0
VERTEX
  5
57
100
AcDbEntity
  8
IE_Latarnie
100
AcDbVertex
100
AcDb2dVertex
 10
7565092.98477163008
 20
5721054.93195702848
  0
SEQEND
  5
58
100
AcDbEntity
  8
IE_Latarnie
  0
POLYLINE
  5
59
100
AcDbEntity
  8
IE_Latarnie
  6
CONTINUOUS
 62
12
370
35
100
AcDb2dPolyline
 66
1
 70
128
  0
VERTEX
  5
5A
100
AcDbEntity
  8
IE_Latarnie
100
AcDbVertex
100
AcDb2dVertex
 10
7565092.20757475072
 20
5721054.06930892032
  0
VERTEX
  5
5B
100
AcDbEntity
  8
IE_Latarnie
100
AcDbVertex
100
AcDb2dVertex
 10
7565092.32514564736
 20
5721053.68682798976
  0
SEQEND
  5
5C
100
AcDbEntity
  8
IE_Latarnie
  0
POLYLINE
  5
5D
100
AcDbEntity
  8
IE_Latarnie
  6
CONTINUOUS
 62
12
370
35
100
AcDb2dPolyline
 66
1
 70
128
  0
VERTEX
  5
5E
100
AcDbEntity
  8
IE_Latarnie
100
AcDbVertex
100
AcDb2dVertex
 10
7565091.85721348608
 20
5721055.20910208384
  0
VERTEX
  5
5F
100
AcDbEntity
  8
IE_Latarnie
100
AcDbVertex
100
AcDb2dVertex
 10
7565091.739642592
 20
5721055.59158301248
  0
SEQEND
  5
60
100
AcDbEntity
  8
IE_Latarnie
  0
POLYLINE
  5
61
100
AcDbEntity
  8
IE_Latarnie
  6
CONTINUOUS
 62
12
370
35
100
AcDb2dPolyline
 66
1
 70
128
  0
VERTEX
  5
62
100
AcDbEntity
  8
IE_Latarnie
100
AcDbVertex
100
AcDb2dVertex
 10
7565073.5651785408
 20
5721093.8930427008
  0
VERTEX
  5
63
100
AcDbEntity
  8
IE_Latarnie
100
AcDbVertex
100
AcDb2dVertex
 10
7565073.16712099328
 20
5721093.85224115008
  0
SEQEND
  5
64
100
AcDbEntity
  8
IE_Latarnie
  0
POLYLINE
  5
65
100
AcDbEntity
  8
IE_Latarnie
  6
CONTINUOUS
 62
12
370
35
100
AcDb2dPolyline
 66
1
 70
128
  0
VERTEX
  5
66
100
AcDbEntity
  8
IE_Latarnie
100
AcDbVertex
100
AcDb2dVertex
 10
7565074.75139002112
 20
5721094.0146313216
  0
VERTEX
  5
67
100
AcDbEntity
  8
IE_Latarnie
100
AcDbVertex
100
AcDb2dVertex
 10
7565075.14944756864
 20
5721094.05543287232
  0
SEQEND
  5
68
100
AcDbEntity
  8
IE_Latarnie
  0
POLYLINE
  5
69
100
AcDbEntity
  8
IE_Latarnie
  6
CONTINUOUS
 62
12
370
35
100
AcDb2dPolyline
 66
1
 70
128
  0
VERTEX
  5
6A
100
AcDbEntity
  8
IE_Latarnie
100
AcDbVertex
100
AcDb2dVertex
 10
7565074.21907859072
 20
5721093.3607312704
  0
VERTEX
  5
6B
100
AcDbEntity
  8
IE_Latarnie
100
AcDbVertex
100
AcDb2dVertex
 10
7565074.25988014208
 20
5721092.96267372416
  0
SEQEND
  5
6C
100
AcDbEntity
  8
IE_Latarnie
  0
POLYLINE
  5
6D
100
AcDbEntity
  8
IE_Latarnie
  6
CONTINUOUS
 62
12
370
35
100
AcDb2dPolyline
 66
1
 70
128
  0
VERTEX
  5
6E
100
AcDbEntity
  8
IE_Latarnie
100
AcDbVertex
100
AcDb2dVertex
 10
7565074.0974899712
 20
5721094.54694275328
  0
VERTEX
  5
6F
100
AcDbEntity
  8
IE_Latarnie
100
AcDbVertex
100
AcDb2dVertex
 10
7565074.05668841984
 20
5721094.94500029952
  0
SEQEND
  5
70
100
AcDbEntity
  8
IE_Latarnie
  0
POLYLINE
  5
71
100
AcDbEntity
  8
IE_Latarnie
  6
CONTINUOUS
 62
12
370
35
100
AcDb2dPolyline
 66
1
 70
128
  0
VERTEX
  5
72
100
AcDbEntity
  8
IE_Latarnie
100
AcDbVertex
100
AcDb2dVertex
 10
7565082.19918456448
 20
5721076.09794135936
  0
VERTEX
  5
73
100
AcDbEntity
  8
IE_Latarnie
100
AcDbVertex
100
AcDb2dVertex
 10
7565081.80112701696
 20
5721076.05713980864
  0
SEQEND
  5
74
100
AcDbEntity
  8
IE_Latarnie
  0
POLYLINE
  5
75
100
AcDbEntity
  8
IE_Latarnie
  6
CONTINUOUS
 62
12
370
35
100
AcDb2dPolyline
 66
1
 70
128
  0
VERTEX
  5
76
100
AcDbEntity
  8
IE_Latarnie
100
AcDbVertex
100
AcDb2dVertex
 10
7565083.3853960448
 20
5721076.21952998016
  0
VERTEX
  5
77
100
AcDbEntity
  8
IE_Latarnie
100
AcDbVertex
100
AcDb2dVertex
 10
7565083.78345359232
 20
5721076.26033153152
  0
SEQEND
  5
78
100
AcDbEntity
  8
IE_Latarnie
  0
POLYLINE
  5
79
100
AcDbEntity
  8
IE_Latarnie
  6
CONTINUOUS
 62
12
370
35
100
AcDb2dPolyline
 66
1
 70
128
  0
VERTEX
  5
7A
100
AcDbEntity
  8
IE_Latarnie
100
AcDbVertex
100
AcDb2dVertex
 10
7565082.8530846144
 20
5721075.56562992832
  0
VERTEX
  5
7B
100
AcDbEntity
  8
IE_Latarnie
100
AcDbVertex
100
AcDb2dVertex
 10
7565082.89388616576
 20
5721075.16757238144
  0
SEQEND
  5
7C
100
AcDbEntity
  8
IE_Latarnie
  0
POLYLINE
  5
7D
100
AcDbEntity
  8
IE_Latarnie
  6
CONTINUOUS
 62
12
370
35
100
AcDb2dPolyline
 66
1
 70
128
  0
VERTEX
  5
7E
100
AcDbEntity
  8
IE_Latarnie
100
AcDbVertex
100
AcDb2dVertex
 10
7565082.7314959936
 20
5721076.7518414112
  0
VERTEX
  5
7F
100
AcDbEntity
  8
IE_Latarnie
100
AcDbVertex
100
AcDb2dVertex
 10
7565082.6906944448
 20
5721077.1498989568
  0
SEQEND
  5
80
100
AcDbEntity
  8
IE_Latarnie
  0
POLYLINE
  5
81
100
AcDbEntity
  8
IE_Latarnie
  6
CONTINUOUS
 62
12
370
35
100
AcDb2dPolyline
 66
1
 70
128
  0
VERTEX
  5
82
100
AcDbEntity
  8
IE_Latarnie
100
AcDbVertex
100
AcDb2dVertex
 10
7565097.25828854656
 20
5721066.80910930624
  0
VERTEX
  5
83
100
AcDbEntity
  8
IE_Latarnie
100
AcDbVertex
100
AcDb2dVertex
 10
7565096.86023100032
 20
5721066.76830775488
  0
SEQEND
  5
84
100
AcDbEntity
  8
IE_Latarnie
  0
POLYLINE
  5
85
100
AcDbEntity
  8
IE_Latarnie
  6
CONTINUOUS
 62
12
370
35
100
AcDb2dPolyline
 66
1
 70
128
  0
VERTEX
  5
86
100
AcDbEntity
  8
IE_Latarnie
100
AcDbVertex
100
AcDb2dVertex
 10
7565098.44450002816
 20
5721066.93069792704
  0
VERTEX
  5
87
100
AcDbEntity
  8
IE_Latarnie
100
AcDbVertex
100
AcDb2dVertex
 10
7565098.8425575744
 20
5721066.97149947776
  0
SEQEND
  5
88
100
AcDbEntity
  8
IE_Latarnie
  0
POLYLINE
  5
89
100
AcDbEntity
  8
IE_Latarnie
  6
CONTINUOUS
 62
12
370
35
100
AcDb2dPolyline
 66
1
 70
128
  0
VERTEX
  5
8A
100
AcDbEntity
  8
IE_Latarnie
100
AcDbVertex
100
AcDb2dVertex
 10
7565097.91218859776
 20
5721066.27679787584
  0
VERTEX
  5
8B
100
AcDbEntity
  8
IE_Latarnie
100
AcDbVertex
100
AcDb2dVertex
 10
7565097.95299014912
 20
5721065.8787403296
  0
SEQEND
  5
8C
100
AcDbEntity
  8
IE_Latarnie
  0
POLYLINE
  5
8D
100
AcDbEntity
  8
IE_Latarnie
  6
CONTINUOUS
 62
12
370
35
100
AcDb2dPolyline
 66
1
 70
128
  0
VERTEX
  5
8E
100
AcDbEntity
  8
IE_Latarnie
100
AcDbVertex
100
AcDb2dVertex
 10
7565097.79059997696
 20
5721067.46300935744
  0
VERTEX
  5
8F
100
AcDbEntity
  8
IE_Latarnie
100
AcDbVertex
100
AcDb2dVertex
 10
7565097.7497984256
 20
5721067.86106690368
  0
SEQEND
  5
90
100
AcDbEntity
  8
IE_Latarnie
  0
POLYLINE
  5
91
100
AcDbEntity
  8
IE_Latarnie
  6
CONTINUOUS
 62
12
370
35
100
AcDb2dPolyline
 66
1
 70
128
  0
VERTEX
  5
92
100
AcDbEntity
  8
IE_Latarnie
100
AcDbVertex
100
AcDb2dVertex
 10
7565114.13672051072
 20
5721073.66040796736
  0
VERTEX
  5
93
100
AcDbEntity
  8
IE_Latarnie
100
AcDbVertex
100
AcDb2dVertex
 10
7565113.73866296448
 20
5721073.61960641536
  0
SEQEND
  5
94
100
AcDbEntity
  8
IE_Latarnie
  0
POLYLINE
  5
95
100
AcDbEntity
  8
IE_Latarnie
  6
CONTINUOUS
 62
12
370
35
100
AcDb2dPolyline
 66
1
 70
128
  0
VERTEX
  5
96
100
AcDbEntity
  8
IE_Latarnie
100
AcDbVertex
100
AcDb2dVertex
 10
7565115.32293199232
 20
5721073.78199658688
  0
VERTEX
  5
97
100
AcDbEntity
  8
IE_Latarnie
100
AcDbVertex
100
AcDb2dVertex
 10
7565115.72098953984
 20
5721073.82279813888
  0
SEQEND
  5
98
100
AcDbEntity
  8
IE_Latarnie
  0
POLYLINE
  5
99
100
AcDbEntity
  8
IE_Latarnie
  6
CONTINUOUS
 62
12
370
35
100
AcDb2dPolyline
 66
1
 70
128
  0
VERTEX
  5
9A
100
AcDbEntity
  8
IE_Latarnie
100
AcDbVertex
100
AcDb2dVertex
 10
7565114.79062056192
 20
5721073.12809653568
  0
VERTEX
  5
9B
100
AcDbEntity
  8
IE_Latarnie
100
AcDbVertex
100
AcDb2dVertex
 10
7565114.83142211328
 20
5721072.73003899072
  0
SEQEND
  5
9C
100
AcDbEntity
  8
IE_Latarnie
  0
POLYLINE
  5
9D
100
AcDbEntity
  8
IE_Latarnie
  6
CONTINUOUS
 62
12
370
35
100
AcDb2dPolyline
 66
1
 70
128
  0
VERTEX
  5
9E
100
AcDbEntity
  8
IE_Latarnie
100
AcDbVertex
100
AcDb2dVertex
 10
7565114.66903194112
 20
5721074.31430801856
  0
VERTEX
  5
9F
100
AcDbEntity
  8
IE_Latarnie
100
AcDbVertex
100
AcDb2dVertex
 10
7565114.62823038976
 20
5721074.7123655648
  0
SEQEND
  5
A0
100
AcDbEntity
  8
IE_Latarnie
  0
POLYLINE
  5
A1
100
AcDbEntity
  8
IE_Latarnie
  6
CONTINUOUS
 62
12
370
18
100
AcDb2dPolyline
 66
1
 70
128
  0
VERTEX
  5
A2
100
AcDbEntity
  8
IE_Latarnie
100
AcDbVertex
100
AcDb2dVertex
 10
7565070.4304443584
 20
5721102.78327305088
  0
VERTEX
  5
A3
100
AcDbEntity
  8
IE_Latarnie
100
AcDbVertex
100
AcDb2dVertex
 10
7565078.08303503488
 20
5721117.9685503392
  0
SEQEND
  5
A4
100
AcDbEntity
  8
IE_Latarnie
  0
HATCH
  5
A5
100
AcDbEntity
  8
IE_Latarnie
  6
CONTINUOUS
420
14352384
370
18
100
AcDbHatch
 10
0.0
 20
0.0
 30
0.0
210
-0.0
220
-0.0
230
1.0
  2
SOLID
 70
1
 71
1
 91
1
 92
3
 72
0
 73
1
 93
8
 10
7565092.11009975296
 20
5721054.54259537344
 10
7565092.03240331776
 20
5721054.63920082816
 10
7565091.90883551104
 20
5721054.6492181568
 10
7565091.81381881472
 20
5721054.56958664832
 10
7565092.05289075456
 20
5721054.8676862496
 10
7565092.23511648256
 20
5721054.53181045696
 10
7565092.1776948672
 20
5721054.46167425216
 10
7565092.09758905088
 20
5721054.41925506432
 97
0
 75
0
 76
1
 98
0
  0
POLYLINE
  5
A6
100
AcDbEntity
  8
IE_Latarnie
  6
CONTINUOUS
 62
12
370
18
100
AcDb2dPolyline
 66
1
 70
129
  0
VERTEX
  5
A7
100
AcDbEntity
  8
IE_Latarnie
100
AcDbVertex
100
AcDb2dVertex
 10
7565092.11009975296
 20
5721054.54259537344
  0
VERTEX
  5
A8
100
AcDbEntity
  8
IE_Latarnie
100
AcDbVertex
100
AcDb2dVertex
 10
7565092.03240331776
 20
5721054.63920082816
  0
VERTEX
  5
A9
100
AcDbEntity
  8
IE_Latarnie
100
AcDbVertex
100
AcDb2dVertex
 10
7565091.90883551104
 20
5721054.6492181568
  0
VERTEX
  5
AA
100
AcDbEntity
  8
IE_Latarnie
100
AcDbVertex
100
AcDb2dVertex
 10
7565091.81381881472
 20
5721054.56958664832
  0
VERTEX
  5
AB
100
AcDbEntity
  8
IE_Latarnie
100
AcDbVertex
100
AcDb2dVertex
 10
7565092.05289075456
 20
5721054.8676862496
  0
VERTEX
  5
AC
100
AcDbEntity
  8
IE_Latarnie
100
AcDbVertex
100
AcDb2dVertex
 10
7565092.23511648256
 20
5721054.53181045696
  0
VERTEX
  5
AD
100
AcDbEntity
  8
IE_Latarnie
100
AcDbVertex
100
AcDb2dVertex
 10
7565092.1776948672
 20
5721054.46167425216
  0
VERTEX
  5
AE
100
AcDbEntity
  8
IE_Latarnie
100
AcDbVertex
100
AcDb2dVertex
 10
7565092.09758905088
 20
5721054.41925506432
  0
SEQEND
  5
AF
100
AcDbEntity
  8
IE_Latarnie
  0
HATCH
  5
B0
100
AcDbEntity
  8
IE_Latarnie
  6
CONTINUOUS
420
14352384
370
18
100
AcDbHatch
 10
0.0
 20
0.0
 30
0.0
210
-0.0
220
-0.0
230
1.0
  2
SOLID
 70
1
 71
1
 91
1
 92
3
 72
0
 73
1
 93
8
 10
7565074.21567896064
 20
5721093.84393918336
 10
7565074.15829239424
 20
5721093.95383063616
 10
7565074.03904398208
 20
5721093.98772999168
 10
7565073.93033384576
 20
5721093.92813590208
 10
7565074.22290170368
 20
5721094.1739464224
 10
7565074.33619898752
 20
5721093.80900466048
 10
7565074.2662134528
 20
5721093.75139950336
 10
7565074.17937833088
 20
5721093.72539967936
 97
0
 75
0
 76
1
 98
0
  0
POLYLINE
  5
B1
100
AcDbEntity
  8
IE_Latarnie
  6
CONTINUOUS
 62
12
370
18
100
AcDb2dPolyline
 66
1
 70
129
  0
VERTEX
  5
B2
100
AcDbEntity
  8
IE_Latarnie
100
AcDbVertex
100
AcDb2dVertex
 10
7565074.21567896064
 20
5721093.84393918336
  0
VERTEX
  5
B3
100
AcDbEntity
  8
IE_Latarnie
100
AcDbVertex
100
AcDb2dVertex
 10
7565074.15829239424
 20
5721093.95383063616
  0
VERTEX
  5
B4
100
AcDbEntity
  8
IE_Latarnie
100
AcDbVertex
100
AcDb2dVertex
 10
7565074.03904398208
 20
5721093.98772999168
  0
VERTEX
  5
B5
100
AcDbEntity
  8
IE_Latarnie
100
AcDbVertex
100
AcDb2dVertex
 10
7565073.93033384576
 20
5721093.92813590208
  0
VERTEX
  5
B6
100
AcDbEntity
  8
IE_Latarnie
100
AcDbVertex
100
AcDb2dVertex
 10
7565074.22290170368
 20
5721094.1739464224
  0
VERTEX
  5
B7
100
AcDbEntity
  8
IE_Latarnie
100
AcDbVertex
100
AcDb2dVertex
 10
7565074.33619898752
 20
5721093.80900466048
  0
VERTEX
  5
B8
100
AcDbEntity
  8
IE_Latarnie
100
AcDbVertex
100
AcDb2dVertex
 10
7565074.2662134528
 20
5721093.75139950336
  0
VERTEX
  5
B9
100
AcDbEntity
  8
IE_Latarnie
100
AcDbVertex
100
AcDb2dVertex
 10
7565074.17937833088
 20
5721093.72539967936
  0
SEQEND
  5
BA
100
AcDbEntity
  8
IE_Latarnie
  0
HATCH
  5
BB
100
AcDbEntity
  8
IE_Latarnie
  6
CONTINUOUS
420
14352384
370
18
100
AcDbHatch
 10
0.0
 20
0.0
 30
0.0
210
-0.0
220
-0.0
230
1.0
  2
SOLID
 70
1
 71
1
 91
1
 92
3
 72
0
 73
1
 93
8
 10
7565082.84968498304
 20
5721076.04883784128
 10
7565082.79229841792
 20
5721076.15872929536
 10
7565082.67305000576
 20
5721076.19262865024
 10
7565082.56433986816
 20
5721076.13303456
 10
7565082.85690772864
 20
5721076.37884507968
 10
7565082.97020500992
 20
5721076.0139033184
 10
7565082.90021947648
 20
5721075.95629816064
 10
7565082.81338435456
 20
5721075.93029833664
 97
0
 75
0
 76
1
 98
0
  0
POLYLINE
  5
BC
100
AcDbEntity
  8
IE_Latarnie
  6
CONTINUOUS
 62
12
370
18
100
AcDb2dPolyline
 66
1
 70
129
  0
VERTEX
  5
BD
100
AcDbEntity
  8
IE_Latarnie
100
AcDbVertex
100
AcDb2dVertex
 10
7565082.84968498304
 20
5721076.04883784128
  0
VERTEX
  5
BE
100
AcDbEntity
  8
IE_Latarnie
100
AcDbVertex
100
AcDb2dVertex
 10
7565082.79229841792
 20
5721076.15872929536
  0
VERTEX
  5
BF
100
AcDbEntity
  8
IE_Latarnie
100
AcDbVertex
100
AcDb2dVertex
 10
7565082.67305000576
 20
5721076.19262865024
  0
VERTEX
  5
C0
100
AcDbEntity
  8
IE_Latarnie
100
AcDbVertex
100
AcDb2dVertex
 10
7565082.56433986816
 20
5721076.13303456
  0
VERTEX
  5
C1
100
AcDbEntity
  8
IE_Latarnie
100
AcDbVertex
100
AcDb2dVertex
 10
7565082.85690772864
 20
5721076.37884507968
  0
VERTEX
  5
C2
100
AcDbEntity
  8
IE_Latarnie
100
AcDbVertex
100
AcDb2dVertex
 10
7565082.97020500992
 20
5721076.0139033184
  0
VERTEX
  5
C3
100
AcDbEntity
  8
IE_Latarnie
100
AcDbVertex
100
AcDb2dVertex
 10
7565082.90021947648
 20
5721075.95629816064
  0
VERTEX
  5
C4
100
AcDbEntity
  8
IE_Latarnie
100
AcDbVertex
100
AcDb2dVertex
 10
7565082.81338435456
 20
5721075.93029833664
  0
SEQEND
  5
C5
100
AcDbEntity
  8
IE_Latarnie
  0
HATCH
  5
C6
100
AcDbEntity
  8
IE_Latarnie
  6
CONTINUOUS
420
14352384
370
18
100
AcDbHatch
 10
0.0
 20
0.0
 30
0.0
210
-0.0
220
-0.0
230
1.0
  2
SOLID
 70
1
 71
1
 91
1
 92
3
 72
0
 73
1
 93
8
 10
7565097.90878896768
 20
5721066.76000578688
 10
7565097.8514024
 20
5721066.8698972416
 10
7565097.73215398912
 20
5721066.90379659648
 10
7565097.62344385152
 20
5721066.8442025056
 10
7565097.91601171072
 20
5721067.0900130272
 10
7565098.02930899328
 20
5721066.72507126592
 10
7565097.95932345856
 20
5721066.66746610752
 10
7565097.87248833664
 20
5721066.64146628416
 97
0
 75
0
 76
1
 98
0
  0
POLYLINE
  5
C7
100
AcDbEntity
  8
IE_Latarnie
  6
CONTINUOUS
 62
12
370
18
100
AcDb2dPolyline
 66
1
 70
129
  0
VERTEX
  5
C8
100
AcDbEntity
  8
IE_Latarnie
100
AcDbVertex
100
AcDb2dVertex
 10
7565097.90878896768
 20
5721066.76000578688
  0
VERTEX
  5
C9
100
AcDbEntity
  8
IE_Latarnie
100
AcDbVertex
100
AcDb2dVertex
 10
7565097.8514024
 20
5721066.8698972416
  0
VERTEX
  5
CA
100
AcDbEntity
  8
IE_Latarnie
100
AcDbVertex
100
AcDb2dVertex
 10
7565097.73215398912
 20
5721066.90379659648
  0
VERTEX
  5
CB
100
AcDbEntity
  8
IE_Latarnie
100
AcDbVertex
100
AcDb2dVertex
 10
7565097.62344385152
 20
5721066.8442025056
  0
VERTEX
  5
CC
100
AcDbEntity
  8
IE_Latarnie
100
AcDbVertex
100
AcDb2dVertex
 10
7565097.91601171072
 20
5721067.0900130272
  0
VERTEX
  5
CD
100
AcDbEntity
  8
IE_Latarnie
100
AcDbVertex
100
AcDb2dVertex
 10
7565098.02930899328
 20
5721066.72507126592
  0
VERTEX
  5
CE
100
AcDbEntity
  8
IE_Latarnie
100
AcDbVertex
100
AcDb2dVertex
 10
7565097.95932345856
 20
5721066.66746610752
  0
VERTEX
  5
CF
100
AcDbEntity
  8
IE_Latarnie
100
AcDbVertex
100
AcDb2dVertex
 10
7565097.87248833664
 20
5721066.64146628416
  0
SEQEND
  5
D0
100
AcDbEntity
  8
IE_Latarnie
  0
HATCH
  5
D1
100
AcDbEntity
  8
IE_Latarnie
  6
CONTINUOUS
420
14352384
370
18
100
AcDbHatch
 10
0.0
 20
0.0
 30
0.0
210
-0.0
220
-0.0
230
1.0
  2
SOLID
 70
1
 71
1
 91
1
 92
3
 72
0
 73
1
 93
8
 10
7565114.78722093056
 20
5721073.61130444928
 10
7565114.72983436544
 20
5721073.72119590272
 10
7565114.61058595328
 20
5721073.75509525696
 10
7565114.50187581696
 20
5721073.69550116736
 10
7565114.79444367616
 20
5721073.94131168768
 10
7565114.90774095744
 20
5721073.5763699264
 10
7565114.83775542272
 20
5721073.51876476864
 10
7565114.7509203008
 20
5721073.49276494464
 97
0
 75
0
 76
1
 98
0
  0
POLYLINE
  5
D2
100
AcDbEntity
  8
IE_Latarnie
  6
CONTINUOUS
 62
12
370
18
100
AcDb2dPolyline
 66
1
 70
129
  0
VERTEX
  5
D3
100
AcDbEntity
  8
IE_Latarnie
100
AcDbVertex
100
AcDb2dVertex
 10
7565114.78722093056
 20
5721073.61130444928
  0
VERTEX
  5
D4
100
AcDbEntity
  8
IE_Latarnie
100
AcDbVertex
100
AcDb2dVertex
 10
7565114.72983436544
 20
5721073.72119590272
  0
VERTEX
  5
D5
100
AcDbEntity
  8
IE_Latarnie
100
AcDbVertex
100
AcDb2dVertex
 10
7565114.61058595328
 20
5721073.75509525696
  0
VERTEX
  5
D6
100
AcDbEntity
  8
IE_Latarnie
100
AcDbVertex
100
AcDb2dVertex
 10
7565114.50187581696
 20
5721073.69550116736
  0
VERTEX
  5
D7
100
AcDbEntity
  8
IE_Latarnie
100
AcDbVertex
100
AcDb2dVertex
 10
7565114.79444367616
 20
5721073.94131168768
  0
VERTEX
  5
D8
100
AcDbEntity
  8
IE_Latarnie
100
AcDbVertex
100
AcDb2dVertex
 10
7565114.90774095744
 20
5721073.5763699264
  0
VERTEX
  5
D9
100
AcDbEntity
  8
IE_Latarnie
100
AcDbVertex
100
AcDb2dVertex
 10
7565114.83775542272
 20
5721073.51876476864
  0
VERTEX
  5
DA
100
AcDbEntity
  8
IE_Latarnie
100
AcDbVertex
100
AcDb2dVertex
 10
7565114.7509203008
 20
5721073.49276494464
  0
SEQEND
  5
DB
100
AcDbEntity
  8
IE_Latarnie
  0
ENDSEC
  0
SECTION
  2
OBJECTS
  0
DICTIONARY
  5
DC
330
0
100
AcDbDictionary
280
0
281
1
  3
ACAD_GROUP
350
DD
  3
ACAD_LAYOUT
350
DE
  3
ACAD_MLINESTYLE
350
DF
  3
ACAD_PLOTSETTINGS
350
E0
  3
ACAD_PLOTSTYLENAME
350
E1
  0
DICTIONARY
  5
DD
102
{ACAD_REACTORS
330
DC
102
}
330
DC
100
AcDbDictionary
280
0
281
1
  0
DICTIONARY
  5
DE
102
{ACAD_REACTORS
330
DC
102
}
330
DC
100
AcDbDictionary
280
0
281
1
  3
Layout
350
1D
  3
Model
350
1B
  0
DICTIONARY
  5
DF
102
{ACAD_REACTORS
330
DC
102
}
330
DC
100
AcDbDictionary
280
0
281
1
  3
Standard
350
E2
  3
L_0_02
350
7
  0
DICTIONARY
  5
E0
102
{ACAD_REACTORS
330
DC
102
}
330
DC
100
AcDbDictionary
280
0
281
1
  0
ACDBDICTIONARYWDFLT
  5
E1
102
{ACAD_REACTORS
330
DC
102
}
330
DC
100
AcDbDictionary
281
1
  3
Normal
350
E
100
AcDbDictionaryWithDefault
340
E
  0
LAYOUT
  5
1D
100
AcDbPlotSettings
  1

  2

  4

  6

 40
0.0
 41
0.0
 42
0.0
 43
0.0
 44
0.0
 45
0.0
 46
0.0
 47
0.0
 48
0.0
 49
0.0
140
0.0
141
0.0
142
1.0
143
1.0
 70
688
 72
1
 73
0
 74
5
  7

 75
0
147
1.0
148
0.0
149
0.0
100
AcDbLayout
  1
Layout
 70
1
 71
1
 10
0.0
 20
0.0
 11
420.0
 21
297.0
 12
0.0
 22
0.0
 32
0.0
 14
100000000000000000000.0
 24
100000000000000000000.0
 34
100000000000000000000.0
 15
-100000000000000000000.0
 25
-100000000000000000000.0
 35
-100000000000000000000.0
146
0.0
 13
0.0
 23
0.0
 33
0.0
 16
1.0
 26
0.0
 36
0.0
 17
0.0
 27
1.0
 37
0.0
 76
0
330
1C
  0
LAYOUT
  5
1B
100
AcDbPlotSettings
  1

  2

  4

  6

 40
0.0
 41
0.0
 42
0.0
 43
0.0
 44
0.0
 45
0.0
 46
0.0
 47
0.0
 48
0.0
 49
0.0
140
0.0
141
0.0
142
1.0
143
1.0
 70
1712
 72
1
 73
0
 74
0
  7

 75
0
147
1.0
148
0.0
149
0.0
100
AcDbLayout
  1
Model
 70
1
 71
0
 10
0.0
 20
0.0
 11
12.0
 21
9.0
 12
0.0
 22
0.0
 32
0.0
 14
0.0
 24
0.0
 34
0.0
 15
0.0
 25
0.0
 35
0.0
146
0.0
 13
0.0
 23
0.0
 33
0.0
 16
1.0
 26
0.0
 36
0.0
 17
0.0
 27
1.0
 37
0.0
 76
0
330
1A
  0
MLINESTYLE
  5
E2
102
{ACAD_REACTORS
330
DF
102
}
330
DF
100
AcDbMlineStyle
  2
Standard
 70
0
  3

 62
256
 51
90.0
 52
90.0
  2
Standard
 71
2
 49
0.5
 62
256
  6
ByLayer
 49
-0.5
 62
256
  6
ByLayer
  0
MLINESTYLE
  5
7
100
AcDbMlineStyle
  2
L_0_02
 70
0
  3

 51
90.0
 52
90.0
 71
1
 49
0.0
 62
256
  6
CONTINUOUS
  0
ACDBPLACEHOLDER
  5
E
  0
ENDSEC
  0
EOF
