  0
SECTION
  2
HEADER
  9
$ACADVER
  1
AC1018
  9
$HANDSEED
  5
FFFFFF
  9
$EXTMAX
 10
7576525.15000000037
 20
5715082.51999999955
 30
1000000.00
  9
$EXTMIN
 10
7576090.24000000022
 20
5714458.25999999978
 30
0.00
  9
$LIMMIN
 10
7576090.24000000022
 20
5714458.25999999978
  9
$LIMMAX
 10
7576525.15000000037
 20
5715082.51999999955
  9
$DIMASZ
 40
2.5
  9
$DIMGAP
 40
0.625
  9
$INSUNITS
 70
6
  9
$MEASUREMENT
 70
1
  9
$DIMEXO
 40
0.625
  9
$DIMTXT
 40
2.5
  9
$DIMSTYLE
  2
Standard
  9
$PLIMMIN
 10
0.0
 20
0.0
  9
$PLIMMAX
 10
210.0
 20
297.0
  9
$DIMEXE
 40
1.25
  9
$TEXTSIZE
 40
2.5
  9
$TEXTSTYLE
  7
Standard
  9
$LWDISPLAY
290
1
  9
$TDCREATE
 40
45545.624332905
  9
$TDUCREATE
 40
45545.540999572
  9
$TDUPDATE
 40
45545.624332905
  9
$TDUUPDATE
 40
45545.540999572
  9
$TDINDWG
 40
0.0
  9
$TDUSRTIMER
 40
0.0
  9
$USRTIMER
 70
1
  0
ENDSEC
  0
SECTION
  2
TABLES
  0
TABLE
  2
VPORT
  5
1
100
AcDbSymbolTable
 70
1
  0
VPORT
  5
2
100
AcDbSymbolTableRecord
100
AcDbViewportTableRecord
  2
*ACTIVE
 70
0
 10
0.0
 20
0.0
 11
1.0
 21
1.0
 12
7576307.695
 22
5714770.390
 13
0.0
 23
0.0
 14
1.0
 24
1.0
 15
0.0
 25
0.0
 16
0.0
 26
0.0
 36
1.0
 17
0.0
 27
0.0
 37
0.0
 40
624.260
 41
0.697
 42
50.0
 43
0.0
 44
0.0
 50
0.0
 51
0.0
 71
0
 72
100
 73
1
 74
1
 75
0
 76
0
 77
0
 78
0
  0
ENDTAB
  0
TABLE
  2
LTYPE
  5
3
100
AcDbSymbolTable
 70
3
  0
LTYPE
  5
4
100
AcDbSymbolTableRecord
100
AcDbLinetypeTableRecord
  2
ByBlock
 70
0
  3

 72
65
 73
0
 40
0.0
  0
LTYPE
  5
5
100
AcDbSymbolTableRecord
100
AcDbLinetypeTableRecord
  2
ByLayer
 70
0
  3

 72
65
 73
0
 40
0.0
  0
LTYPE
  5
6
100
AcDbSymbolTableRecord
100
AcDbLinetypeTableRecord
  2
CONTINUOUS
 70
0
  3
Solid line
 72
65
 73
0
 40
0.0
  0
ENDTAB
  0
TABLE
  2
LAYER
  5
7
100
AcDbSymbolTable
 70
2
  0
LAYER
  5
8
100
AcDbSymbolTableRecord
100
AcDbLayerTableRecord
  2
0
 70
0
420
0
  6
CONTINUOUS
370
18
390
9
  0
LAYER
  5
A
100
AcDbSymbolTableRecord
100
AcDbLayerTableRecord
  2
ewns_dzialki
 70
0
420
0
  6
CONTINUOUS
370
18
390
9
  0
ENDTAB
  0
TABLE
  2
STYLE
  5
B
100
AcDbSymbolTable
 70
2
  0
STYLE
  5
C
100
AcDbSymbolTableRecord
100
AcDbTextStyleTableRecord
  2
STANDARD
 70
0
 40
0.0
 41
1.0
 50
0.0
 71
0
  3
simplex.shx
  4

  0
STYLE
  5
D
100
AcDbSymbolTableRecord
100
AcDbTextStyleTableRecord
  2
STANDARD_ITALIC
 70
0
 40
0.0
 41
1.0
 50
15.0
 71
0
  3
simplex.shx
  4

  0
ENDTAB
  0
TABLE
  2
VIEW
  5
E
100
AcDbSymbolTable
 70
0
  0
ENDTAB
  0
TABLE
  2
UCS
  5
F
100
AcDbSymbolTable
 70
0
  0
ENDTAB
  0
TABLE
  2
APPID
  5
10
100
AcDbSymbolTable
 70
1
  0
APPID
  5
11
100
AcDbSymbolTableRecord
100
AcDbRegAppTableRecord
  2
ACAD
 70
0
  0
ENDTAB
  0
TABLE
  2
DIMSTYLE
  5
12
100
AcDbSymbolTable
 70
1
100
AcDbDimStyleTable
  0
DIMSTYLE
105
13
100
AcDbSymbolTableRecord
100
AcDbDimStyleTableRecord
  2
Standard
 70
0
340
C
  0
ENDTAB
  0
TABLE
  2
BLOCK_RECORD
  5
14
100
AcDbSymbolTable
 70
2
  0
BLOCK_RECORD
  5
15
100
AcDbSymbolTableRecord
100
AcDbBlockTableRecord
  2
*Model_Space
340
16
  0
BLOCK_RECORD
  5
17
100
AcDbSymbolTableRecord
100
AcDbBlockTableRecord
  2
*Paper_Space
340
18
  0
ENDTAB
  0
ENDSEC
  0
SECTION
  2
BLOCKS
  0
BLOCK
  5
19
100
AcDbEntity
  8
0
100
AcDbBlockBegin
  2
*Model_Space
 70
0
 10
0.0
 20
0.0
 30
0.0
  3
*Model_Space
  1

  0
ENDBLK
  5
1A
100
AcDbEntity
  8
0
100
AcDbBlockEnd
  0
BLOCK
  5
1B
100
AcDbEntity
 67
1
  8
0
100
AcDbBlockBegin
  2
*Paper_Space
 70
0
 10
0.0
 20
0.0
 30
0.0
  3
*Paper_Space
  1

  0
ENDBLK
  5
1C
100
AcDbEntity
 67
1
  8
0
100
AcDbBlockEnd
  0
ENDSEC
  0
SECTION
  2
ENTITIES
  0
POLYLINE
  5
1D
100
AcDbEntity
  8
ewns_dzialki
  6
CONTINUOUS
420
255
370
18
100
AcDb2dPolyline
 66
1
 70
128
  0
VERTEX
  5
1E
100
AcDbEntity
  8
ewns_dzialki
100
AcDbVertex
100
AcDb2dVertex
 10
7576224.28000000026
 20
5714626.3200000003
  0
VERTEX
  5
1F
100
AcDbEntity
  8
ewns_dzialki
100
AcDbVertex
100
AcDb2dVertex
 10
7576202.49000000022
 20
5714629.4299999997
  0
SEQEND
  5
20
100
AcDbEntity
  8
ewns_dzialki
  0
POLYLINE
  5
21
100
AcDbEntity
  8
ewns_dzialki
  6
CONTINUOUS
420
255
370
18
100
AcDb2dPolyline
 66
1
 70
128
  0
VERTEX
  5
22
100
AcDbEntity
  8
ewns_dzialki
100
AcDbVertex
100
AcDb2dVertex
 10
7576202.49000000022
 20
5714629.4299999997
  0
VERTEX
  5
23
100
AcDbEntity
  8
ewns_dzialki
100
AcDbVertex
100
AcDb2dVertex
 10
7576230.11000000034
 20
5714852.12000000011
  0
SEQEND
  5
24
100
AcDbEntity
  8
ewns_dzialki
  0
POLYLINE
  5
25
100
AcDbEntity
  8
ewns_dzialki
  6
CONTINUOUS
420
255
370
18
100
AcDb2dPolyline
 66
1
 70
128
  0
VERTEX
  5
26
100
AcDbEntity
  8
ewns_dzialki
100
AcDbVertex
100
AcDb2dVertex
 10
7576230.11000000034
 20
5714852.12000000011
  0
VERTEX
  5
27
100
AcDbEntity
  8
ewns_dzialki
100
AcDbVertex
100
AcDb2dVertex
 10
7576245.12999999989
 20
5714973.37000000011
  0
SEQEND
  5
28
100
AcDbEntity
  8
ewns_dzialki
  0
POLYLINE
  5
29
100
AcDbEntity
  8
ewns_dzialki
  6
CONTINUOUS
420
255
370
18
100
AcDb2dPolyline
 66
1
 70
128
  0
VERTEX
  5
2A
100
AcDbEntity
  8
ewns_dzialki
100
AcDbVertex
100
AcDb2dVertex
 10
7576245.12999999989
 20
5714973.37000000011
  0
VERTEX
  5
2B
100
AcDbEntity
  8
ewns_dzialki
100
AcDbVertex
100
AcDb2dVertex
 10
7576266.12999999989
 20
5714972.78000000026
  0
SEQEND
  5
2C
100
AcDbEntity
  8
ewns_dzialki
  0
POLYLINE
  5
2D
100
AcDbEntity
  8
ewns_dzialki
  6
CONTINUOUS
420
255
370
18
100
AcDb2dPolyline
 66
1
 70
128
  0
VERTEX
  5
2E
100
AcDbEntity
  8
ewns_dzialki
100
AcDbVertex
100
AcDb2dVertex
 10
7576266.12999999989
 20
5714972.78000000026
  0
VERTEX
  5
2F
100
AcDbEntity
  8
ewns_dzialki
100
AcDbVertex
100
AcDb2dVertex
 10
7576224.28000000026
 20
5714626.3200000003
  0
SEQEND
  5
30
100
AcDbEntity
  8
ewns_dzialki
  0
POLYLINE
  5
31
100
AcDbEntity
  8
ewns_dzialki
  6
CONTINUOUS
370
18
100
AcDb2dPolyline
 66
1
 70
129
  0
VERTEX
  5
32
100
AcDbEntity
  8
ewns_dzialki
100
AcDbVertex
100
AcDb2dVertex
 10
7576414.70000000019
 20
5715082.51999999955
  0
VERTEX
  5
33
100
AcDbEntity
  8
ewns_dzialki
100
AcDbVertex
100
AcDb2dVertex
 10
7576393.13999999966
 20
5714804.37999999989
  0
VERTEX
  5
34
100
AcDbEntity
  8
ewns_dzialki
100
AcDbVertex
100
AcDb2dVertex
 10
7576383.15000000037
 20
5714804.9299999997
  0
VERTEX
  5
35
100
AcDbEntity
  8
ewns_dzialki
100
AcDbVertex
100
AcDb2dVertex
 10
7576405.5700000003
 20
5715081.36000000034
  0
SEQEND
  5
36
100
AcDbEntity
  8
ewns_dzialki
  0
POLYLINE
  5
37
100
AcDbEntity
  8
ewns_dzialki
  6
CONTINUOUS
370
18
100
AcDb2dPolyline
 66
1
 70
129
  0
VERTEX
  5
38
100
AcDbEntity
  8
ewns_dzialki
100
AcDbVertex
100
AcDb2dVertex
 10
7576405.5700000003
 20
5715081.36000000034
  0
VERTEX
  5
39
100
AcDbEntity
  8
ewns_dzialki
100
AcDbVertex
100
AcDb2dVertex
 10
7576383.15000000037
 20
5714804.9299999997
  0
VERTEX
  5
3A
100
AcDbEntity
  8
ewns_dzialki
100
AcDbVertex
100
AcDb2dVertex
 10
7576373.96999999974
 20
5714805.41999999993
  0
VERTEX
  5
3B
100
AcDbEntity
  8
ewns_dzialki
100
AcDbVertex
100
AcDb2dVertex
 10
7576396.91999999993
 20
5715080.04999999981
  0
VERTEX
  5
3C
100
AcDbEntity
  8
ewns_dzialki
100
AcDbVertex
100
AcDb2dVertex
 10
7576397.79000000004
 20
5715080.37000000011
  0
SEQEND
  5
3D
100
AcDbEntity
  8
ewns_dzialki
  0
POLYLINE
  5
3E
100
AcDbEntity
  8
ewns_dzialki
  6
CONTINUOUS
370
18
100
AcDb2dPolyline
 66
1
 70
129
  0
VERTEX
  5
3F
100
AcDbEntity
  8
ewns_dzialki
100
AcDbVertex
100
AcDb2dVertex
 10
7576396.91999999993
 20
5715080.04999999981
  0
VERTEX
  5
40
100
AcDbEntity
  8
ewns_dzialki
100
AcDbVertex
100
AcDb2dVertex
 10
7576373.96999999974
 20
5714805.41999999993
  0
VERTEX
  5
41
100
AcDbEntity
  8
ewns_dzialki
100
AcDbVertex
100
AcDb2dVertex
 10
7576351.79000000004
 20
5714806.63999999966
  0
VERTEX
  5
42
100
AcDbEntity
  8
ewns_dzialki
100
AcDbVertex
100
AcDb2dVertex
 10
7576375.51999999955
 20
5715072.23000000045
  0
SEQEND
  5
43
100
AcDbEntity
  8
ewns_dzialki
  0
POLYLINE
  5
44
100
AcDbEntity
  8
ewns_dzialki
  6
CONTINUOUS
370
18
100
AcDb2dPolyline
 66
1
 70
129
  0
VERTEX
  5
45
100
AcDbEntity
  8
ewns_dzialki
100
AcDbVertex
100
AcDb2dVertex
 10
7576375.51999999955
 20
5715072.23000000045
  0
VERTEX
  5
46
100
AcDbEntity
  8
ewns_dzialki
100
AcDbVertex
100
AcDb2dVertex
 10
7576351.79000000004
 20
5714806.63999999966
  0
VERTEX
  5
47
100
AcDbEntity
  8
ewns_dzialki
100
AcDbVertex
100
AcDb2dVertex
 10
7576337.70999999996
 20
5714807.40000000037
  0
VERTEX
  5
48
100
AcDbEntity
  8
ewns_dzialki
100
AcDbVertex
100
AcDb2dVertex
 10
7576357.04999999981
 20
5715012.58999999985
  0
VERTEX
  5
49
100
AcDbEntity
  8
ewns_dzialki
100
AcDbVertex
100
AcDb2dVertex
 10
7576361.98000000045
 20
5715067.28000000026
  0
SEQEND
  5
4A
100
AcDbEntity
  8
ewns_dzialki
  0
POLYLINE
  5
4B
100
AcDbEntity
  8
ewns_dzialki
  6
CONTINUOUS
370
18
100
AcDb2dPolyline
 66
1
 70
129
  0
VERTEX
  5
4C
100
AcDbEntity
  8
ewns_dzialki
100
AcDbVertex
100
AcDb2dVertex
 10
7576525.15000000037
 20
5714797.1799999997
  0
VERTEX
  5
4D
100
AcDbEntity
  8
ewns_dzialki
100
AcDbVertex
100
AcDb2dVertex
 10
7576524.79000000004
 20
5714792.13999999966
  0
VERTEX
  5
4E
100
AcDbEntity
  8
ewns_dzialki
100
AcDbVertex
100
AcDb2dVertex
 10
7576493.11000000034
 20
5714793.87999999989
  0
VERTEX
  5
4F
100
AcDbEntity
  8
ewns_dzialki
100
AcDbVertex
100
AcDb2dVertex
 10
7576484.3200000003
 20
5714794.36000000034
  0
VERTEX
  5
50
100
AcDbEntity
  8
ewns_dzialki
100
AcDbVertex
100
AcDb2dVertex
 10
7576474.24000000022
 20
5714794.91000000015
  0
VERTEX
  5
51
100
AcDbEntity
  8
ewns_dzialki
100
AcDbVertex
100
AcDb2dVertex
 10
7576459.75999999978
 20
5714795.70999999996
  0
VERTEX
  5
52
100
AcDbEntity
  8
ewns_dzialki
100
AcDbVertex
100
AcDb2dVertex
 10
7576442.08999999985
 20
5714796.6799999997
  0
VERTEX
  5
53
100
AcDbEntity
  8
ewns_dzialki
100
AcDbVertex
100
AcDb2dVertex
 10
7576430.5
 20
5714797.30999999959
  0
VERTEX
  5
54
100
AcDbEntity
  8
ewns_dzialki
100
AcDbVertex
100
AcDb2dVertex
 10
7576418.12000000011
 20
5714797.99000000022
  0
VERTEX
  5
55
100
AcDbEntity
  8
ewns_dzialki
100
AcDbVertex
100
AcDb2dVertex
 10
7576405.44000000041
 20
5714798.6799999997
  0
VERTEX
  5
56
100
AcDbEntity
  8
ewns_dzialki
100
AcDbVertex
100
AcDb2dVertex
 10
7576392.75999999978
 20
5714799.37999999989
  0
VERTEX
  5
57
100
AcDbEntity
  8
ewns_dzialki
100
AcDbVertex
100
AcDb2dVertex
 10
7576382.76999999955
 20
5714799.91999999993
  0
VERTEX
  5
58
100
AcDbEntity
  8
ewns_dzialki
100
AcDbVertex
100
AcDb2dVertex
 10
7576373.58000000007
 20
5714800.4299999997
  0
VERTEX
  5
59
100
AcDbEntity
  8
ewns_dzialki
100
AcDbVertex
100
AcDb2dVertex
 10
7576351.41000000015
 20
5714801.65000000037
  0
VERTEX
  5
5A
100
AcDbEntity
  8
ewns_dzialki
100
AcDbVertex
100
AcDb2dVertex
 10
7576337.23000000045
 20
5714802.41999999993
  0
VERTEX
  5
5B
100
AcDbEntity
  8
ewns_dzialki
100
AcDbVertex
100
AcDb2dVertex
 10
7576337.70999999996
 20
5714807.40000000037
  0
VERTEX
  5
5C
100
AcDbEntity
  8
ewns_dzialki
100
AcDbVertex
100
AcDb2dVertex
 10
7576351.79000000004
 20
5714806.63999999966
  0
VERTEX
  5
5D
100
AcDbEntity
  8
ewns_dzialki
100
AcDbVertex
100
AcDb2dVertex
 10
7576373.96999999974
 20
5714805.41999999993
  0
VERTEX
  5
5E
100
AcDbEntity
  8
ewns_dzialki
100
AcDbVertex
100
AcDb2dVertex
 10
7576383.15000000037
 20
5714804.9299999997
  0
VERTEX
  5
5F
100
AcDbEntity
  8
ewns_dzialki
100
AcDbVertex
100
AcDb2dVertex
 10
7576393.13999999966
 20
5714804.37999999989
  0
VERTEX
  5
60
100
AcDbEntity
  8
ewns_dzialki
100
AcDbVertex
100
AcDb2dVertex
 10
7576405.8200000003
 20
5714803.69000000041
  0
VERTEX
  5
61
100
AcDbEntity
  8
ewns_dzialki
100
AcDbVertex
100
AcDb2dVertex
 10
7576418.50999999978
 20
5714803.0
  0
VERTEX
  5
62
100
AcDbEntity
  8
ewns_dzialki
100
AcDbVertex
100
AcDb2dVertex
 10
7576430.88999999966
 20
5714802.3200000003
  0
VERTEX
  5
63
100
AcDbEntity
  8
ewns_dzialki
100
AcDbVertex
100
AcDb2dVertex
 10
7576442.37000000011
 20
5714801.70000000019
  0
VERTEX
  5
64
100
AcDbEntity
  8
ewns_dzialki
100
AcDbVertex
100
AcDb2dVertex
 10
7576460.13999999966
 20
5714800.73000000045
  0
VERTEX
  5
65
100
AcDbEntity
  8
ewns_dzialki
100
AcDbVertex
100
AcDb2dVertex
 10
7576474.62000000011
 20
5714799.94000000041
  0
VERTEX
  5
66
100
AcDbEntity
  8
ewns_dzialki
100
AcDbVertex
100
AcDb2dVertex
 10
7576484.70999999996
 20
5714799.38999999966
  0
VERTEX
  5
67
100
AcDbEntity
  8
ewns_dzialki
100
AcDbVertex
100
AcDb2dVertex
 10
7576493.5
 20
5714798.91000000015
  0
SEQEND
  5
68
100
AcDbEntity
  8
ewns_dzialki
  0
POLYLINE
  5
69
100
AcDbEntity
  8
ewns_dzialki
  6
CONTINUOUS
370
18
100
AcDb2dPolyline
 66
1
 70
129
  0
VERTEX
  5
6A
100
AcDbEntity
  8
ewns_dzialki
100
AcDbVertex
100
AcDb2dVertex
 10
7576392.75999999978
 20
5714799.37999999989
  0
VERTEX
  5
6B
100
AcDbEntity
  8
ewns_dzialki
100
AcDbVertex
100
AcDb2dVertex
 10
7576405.44000000041
 20
5714798.6799999997
  0
VERTEX
  5
6C
100
AcDbEntity
  8
ewns_dzialki
100
AcDbVertex
100
AcDb2dVertex
 10
7576379.65000000037
 20
5714464.62000000011
  0
VERTEX
  5
6D
100
AcDbEntity
  8
ewns_dzialki
100
AcDbVertex
100
AcDb2dVertex
 10
7576365.88999999966
 20
5714462.86000000034
  0
SEQEND
  5
6E
100
AcDbEntity
  8
ewns_dzialki
  0
POLYLINE
  5
6F
100
AcDbEntity
  8
ewns_dzialki
  6
CONTINUOUS
370
18
100
AcDb2dPolyline
 66
1
 70
129
  0
VERTEX
  5
70
100
AcDbEntity
  8
ewns_dzialki
100
AcDbVertex
100
AcDb2dVertex
 10
7576382.76999999955
 20
5714799.91999999993
  0
VERTEX
  5
71
100
AcDbEntity
  8
ewns_dzialki
100
AcDbVertex
100
AcDb2dVertex
 10
7576392.75999999978
 20
5714799.37999999989
  0
VERTEX
  5
72
100
AcDbEntity
  8
ewns_dzialki
100
AcDbVertex
100
AcDb2dVertex
 10
7576365.88999999966
 20
5714462.86000000034
  0
VERTEX
  5
73
100
AcDbEntity
  8
ewns_dzialki
100
AcDbVertex
100
AcDb2dVertex
 10
7576355.29999999981
 20
5714461.50999999978
  0
SEQEND
  5
74
100
AcDbEntity
  8
ewns_dzialki
  0
POLYLINE
  5
75
100
AcDbEntity
  8
ewns_dzialki
  6
CONTINUOUS
370
18
100
AcDb2dPolyline
 66
1
 70
129
  0
VERTEX
  5
76
100
AcDbEntity
  8
ewns_dzialki
100
AcDbVertex
100
AcDb2dVertex
 10
7576373.58000000007
 20
5714800.4299999997
  0
VERTEX
  5
77
100
AcDbEntity
  8
ewns_dzialki
100
AcDbVertex
100
AcDb2dVertex
 10
7576382.76999999955
 20
5714799.91999999993
  0
VERTEX
  5
78
100
AcDbEntity
  8
ewns_dzialki
100
AcDbVertex
100
AcDb2dVertex
 10
7576355.29999999981
 20
5714461.50999999978
  0
VERTEX
  5
79
100
AcDbEntity
  8
ewns_dzialki
100
AcDbVertex
100
AcDb2dVertex
 10
7576345.5
 20
5714460.25
  0
SEQEND
  5
7A
100
AcDbEntity
  8
ewns_dzialki
  0
POLYLINE
  5
7B
100
AcDbEntity
  8
ewns_dzialki
  6
CONTINUOUS
370
18
100
AcDb2dPolyline
 66
1
 70
129
  0
VERTEX
  5
7C
100
AcDbEntity
  8
ewns_dzialki
100
AcDbVertex
100
AcDb2dVertex
 10
7576351.41000000015
 20
5714801.65000000037
  0
VERTEX
  5
7D
100
AcDbEntity
  8
ewns_dzialki
100
AcDbVertex
100
AcDb2dVertex
 10
7576373.58000000007
 20
5714800.4299999997
  0
VERTEX
  5
7E
100
AcDbEntity
  8
ewns_dzialki
100
AcDbVertex
100
AcDb2dVertex
 10
7576345.5
 20
5714460.25
  0
VERTEX
  5
7F
100
AcDbEntity
  8
ewns_dzialki
100
AcDbVertex
100
AcDb2dVertex
 10
7576329.9299999997
 20
5714458.25999999978
  0
VERTEX
  5
80
100
AcDbEntity
  8
ewns_dzialki
100
AcDbVertex
100
AcDb2dVertex
 10
7576321.71999999974
 20
5714460.04999999981
  0
VERTEX
  5
81
100
AcDbEntity
  8
ewns_dzialki
100
AcDbVertex
100
AcDb2dVertex
 10
7576329.70999999996
 20
5714570.19000000041
  0
SEQEND
  5
82
100
AcDbEntity
  8
ewns_dzialki
  0
POLYLINE
  5
83
100
AcDbEntity
  8
ewns_dzialki
  6
CONTINUOUS
370
18
100
AcDb2dPolyline
 66
1
 70
129
  0
VERTEX
  5
84
100
AcDbEntity
  8
ewns_dzialki
100
AcDbVertex
100
AcDb2dVertex
 10
7576337.23000000045
 20
5714802.41999999993
  0
VERTEX
  5
85
100
AcDbEntity
  8
ewns_dzialki
100
AcDbVertex
100
AcDb2dVertex
 10
7576351.41000000015
 20
5714801.65000000037
  0
VERTEX
  5
86
100
AcDbEntity
  8
ewns_dzialki
100
AcDbVertex
100
AcDb2dVertex
 10
7576329.70999999996
 20
5714570.19000000041
  0
VERTEX
  5
87
100
AcDbEntity
  8
ewns_dzialki
100
AcDbVertex
100
AcDb2dVertex
 10
7576314.96999999974
 20
5714571.49000000022
  0
VERTEX
  5
88
100
AcDbEntity
  8
ewns_dzialki
100
AcDbVertex
100
AcDb2dVertex
 10
7576317.34999999963
 20
5714598.40000000037
  0
SEQEND
  5
89
100
AcDbEntity
  8
ewns_dzialki
  0
POLYLINE
  5
8A
100
AcDbEntity
  8
ewns_dzialki
  6
CONTINUOUS
370
18
100
AcDb2dPolyline
 66
1
 70
129
  0
VERTEX
  5
8B
100
AcDbEntity
  8
ewns_dzialki
100
AcDbVertex
100
AcDb2dVertex
 10
7576361.98000000045
 20
5715067.28000000026
  0
VERTEX
  5
8C
100
AcDbEntity
  8
ewns_dzialki
100
AcDbVertex
100
AcDb2dVertex
 10
7576357.04999999981
 20
5715012.58999999985
  0
VERTEX
  5
8D
100
AcDbEntity
  8
ewns_dzialki
100
AcDbVertex
100
AcDb2dVertex
 10
7576337.70999999996
 20
5714807.40000000037
  0
VERTEX
  5
8E
100
AcDbEntity
  8
ewns_dzialki
100
AcDbVertex
100
AcDb2dVertex
 10
7576337.23000000045
 20
5714802.41999999993
  0
VERTEX
  5
8F
100
AcDbEntity
  8
ewns_dzialki
100
AcDbVertex
100
AcDb2dVertex
 10
7576317.34999999963
 20
5714598.40000000037
  0
VERTEX
  5
90
100
AcDbEntity
  8
ewns_dzialki
100
AcDbVertex
100
AcDb2dVertex
 10
7576295.37999999989
 20
5714607.9299999997
  0
VERTEX
  5
91
100
AcDbEntity
  8
ewns_dzialki
100
AcDbVertex
100
AcDb2dVertex
 10
7576335.30999999959
 20
5715001.53000000026
  0
VERTEX
  5
92
100
AcDbEntity
  8
ewns_dzialki
100
AcDbVertex
100
AcDb2dVertex
 10
7576341.16000000015
 20
5715060.83000000007
  0
VERTEX
  5
93
100
AcDbEntity
  8
ewns_dzialki
100
AcDbVertex
100
AcDb2dVertex
 10
7576360.29000000004
 20
5715066.66999999993
  0
SEQEND
  5
94
100
AcDbEntity
  8
ewns_dzialki
  0
POLYLINE
  5
95
100
AcDbEntity
  8
ewns_dzialki
  6
CONTINUOUS
370
18
100
AcDb2dPolyline
 66
1
 70
129
  0
VERTEX
  5
96
100
AcDbEntity
  8
ewns_dzialki
100
AcDbVertex
100
AcDb2dVertex
 10
7576335.30999999959
 20
5715001.53000000026
  0
VERTEX
  5
97
100
AcDbEntity
  8
ewns_dzialki
100
AcDbVertex
100
AcDb2dVertex
 10
7576295.37999999989
 20
5714607.9299999997
  0
VERTEX
  5
98
100
AcDbEntity
  8
ewns_dzialki
100
AcDbVertex
100
AcDb2dVertex
 10
7576277.08000000007
 20
5714615.87000000011
  0
VERTEX
  5
99
100
AcDbEntity
  8
ewns_dzialki
100
AcDbVertex
100
AcDb2dVertex
 10
7576317.20000000019
 20
5714992.3200000003
  0
SEQEND
  5
9A
100
AcDbEntity
  8
ewns_dzialki
  0
POLYLINE
  5
9B
100
AcDbEntity
  8
ewns_dzialki
  6
CONTINUOUS
370
18
100
AcDb2dPolyline
 66
1
 70
129
  0
VERTEX
  5
9C
100
AcDbEntity
  8
ewns_dzialki
100
AcDbVertex
100
AcDb2dVertex
 10
7576130.54000000004
 20
5714644.73000000045
  0
VERTEX
  5
9D
100
AcDbEntity
  8
ewns_dzialki
100
AcDbVertex
100
AcDb2dVertex
 10
7576117.37999999989
 20
5714648.54999999981
  0
VERTEX
  5
9E
100
AcDbEntity
  8
ewns_dzialki
100
AcDbVertex
100
AcDb2dVertex
 10
7576112.98000000045
 20
5714649.98000000045
  0
VERTEX
  5
9F
100
AcDbEntity
  8
ewns_dzialki
100
AcDbVertex
100
AcDb2dVertex
 10
7576155.36000000034
 20
5714975.9299999997
  0
VERTEX
  5
A0
100
AcDbEntity
  8
ewns_dzialki
100
AcDbVertex
100
AcDb2dVertex
 10
7576162.65000000037
 20
5714975.73000000045
  0
VERTEX
  5
A1
100
AcDbEntity
  8
ewns_dzialki
100
AcDbVertex
100
AcDb2dVertex
 10
7576166.29000000004
 20
5715007.51999999955
  0
VERTEX
  5
A2
100
AcDbEntity
  8
ewns_dzialki
100
AcDbVertex
100
AcDb2dVertex
 10
7576186.1799999997
 20
5715013.58000000007
  0
VERTEX
  5
A3
100
AcDbEntity
  8
ewns_dzialki
100
AcDbVertex
100
AcDb2dVertex
 10
7576181.71999999974
 20
5714975.1799999997
  0
VERTEX
  5
A4
100
AcDbEntity
  8
ewns_dzialki
100
AcDbVertex
100
AcDb2dVertex
 10
7576173.86000000034
 20
5714975.40000000037
  0
SEQEND
  5
A5
100
AcDbEntity
  8
ewns_dzialki
  0
POLYLINE
  5
A6
100
AcDbEntity
  8
ewns_dzialki
  6
CONTINUOUS
370
18
100
AcDb2dPolyline
 66
1
 70
129
  0
VERTEX
  5
A7
100
AcDbEntity
  8
ewns_dzialki
100
AcDbVertex
100
AcDb2dVertex
 10
7576252.38999999966
 20
5714622.3200000003
  0
VERTEX
  5
A8
100
AcDbEntity
  8
ewns_dzialki
100
AcDbVertex
100
AcDb2dVertex
 10
7576224.28000000026
 20
5714626.3200000003
  0
VERTEX
  5
A9
100
AcDbEntity
  8
ewns_dzialki
100
AcDbVertex
100
AcDb2dVertex
 10
7576266.12999999989
 20
5714972.78000000026
  0
VERTEX
  5
AA
100
AcDbEntity
  8
ewns_dzialki
100
AcDbVertex
100
AcDb2dVertex
 10
7576275.91999999993
 20
5714972.5
  0
VERTEX
  5
AB
100
AcDbEntity
  8
ewns_dzialki
100
AcDbVertex
100
AcDb2dVertex
 10
7576283.86000000034
 20
5715043.36000000034
  0
VERTEX
  5
AC
100
AcDbEntity
  8
ewns_dzialki
100
AcDbVertex
100
AcDb2dVertex
 10
7576300.40000000037
 20
5715048.41000000015
  0
VERTEX
  5
AD
100
AcDbEntity
  8
ewns_dzialki
100
AcDbVertex
100
AcDb2dVertex
 10
7576293.0
 20
5714980.0
  0
SEQEND
  5
AE
100
AcDbEntity
  8
ewns_dzialki
  0
POLYLINE
  5
AF
100
AcDbEntity
  8
ewns_dzialki
  6
CONTINUOUS
370
18
100
AcDb2dPolyline
 66
1
 70
129
  0
VERTEX
  5
B0
100
AcDbEntity
  8
ewns_dzialki
100
AcDbVertex
100
AcDb2dVertex
 10
7576317.20000000019
 20
5714992.3200000003
  0
VERTEX
  5
B1
100
AcDbEntity
  8
ewns_dzialki
100
AcDbVertex
100
AcDb2dVertex
 10
7576277.08000000007
 20
5714615.87000000011
  0
VERTEX
  5
B2
100
AcDbEntity
  8
ewns_dzialki
100
AcDbVertex
100
AcDb2dVertex
 10
7576267.04999999981
 20
5714620.23000000045
  0
VERTEX
  5
B3
100
AcDbEntity
  8
ewns_dzialki
100
AcDbVertex
100
AcDb2dVertex
 10
7576252.38999999966
 20
5714622.3200000003
  0
VERTEX
  5
B4
100
AcDbEntity
  8
ewns_dzialki
100
AcDbVertex
100
AcDb2dVertex
 10
7576293.0
 20
5714980.0
  0
SEQEND
  5
B5
100
AcDbEntity
  8
ewns_dzialki
  0
POLYLINE
  5
B6
100
AcDbEntity
  8
ewns_dzialki
  6
CONTINUOUS
370
18
100
AcDb2dPolyline
 66
1
 70
129
  0
VERTEX
  5
B7
100
AcDbEntity
  8
ewns_dzialki
100
AcDbVertex
100
AcDb2dVertex
 10
7576234.01999999955
 20
5715028.16000000015
  0
VERTEX
  5
B8
100
AcDbEntity
  8
ewns_dzialki
100
AcDbVertex
100
AcDb2dVertex
 10
7576251.53000000026
 20
5715033.5
  0
VERTEX
  5
B9
100
AcDbEntity
  8
ewns_dzialki
100
AcDbVertex
100
AcDb2dVertex
 10
7576244.55999999959
 20
5714973.38999999966
  0
VERTEX
  5
BA
100
AcDbEntity
  8
ewns_dzialki
100
AcDbVertex
100
AcDb2dVertex
 10
7576245.12999999989
 20
5714973.37000000011
  0
VERTEX
  5
BB
100
AcDbEntity
  8
ewns_dzialki
100
AcDbVertex
100
AcDb2dVertex
 10
7576230.11000000034
 20
5714852.12000000011
  0
VERTEX
  5
BC
100
AcDbEntity
  8
ewns_dzialki
100
AcDbVertex
100
AcDb2dVertex
 10
7576208.95000000019
 20
5714854.58999999985
  0
VERTEX
  5
BD
100
AcDbEntity
  8
ewns_dzialki
100
AcDbVertex
100
AcDb2dVertex
 10
7576224.13999999966
 20
5714973.98000000045
  0
VERTEX
  5
BE
100
AcDbEntity
  8
ewns_dzialki
100
AcDbVertex
100
AcDb2dVertex
 10
7576227.58000000007
 20
5714973.87000000011
  0
SEQEND
  5
BF
100
AcDbEntity
  8
ewns_dzialki
  0
POLYLINE
  5
C0
100
AcDbEntity
  8
ewns_dzialki
  6
CONTINUOUS
370
18
100
AcDb2dPolyline
 66
1
 70
129
  0
VERTEX
  5
C1
100
AcDbEntity
  8
ewns_dzialki
100
AcDbVertex
100
AcDb2dVertex
 10
7576162.65000000037
 20
5714975.73000000045
  0
VERTEX
  5
C2
100
AcDbEntity
  8
ewns_dzialki
100
AcDbVertex
100
AcDb2dVertex
 10
7576155.36000000034
 20
5714975.9299999997
  0
VERTEX
  5
C3
100
AcDbEntity
  8
ewns_dzialki
100
AcDbVertex
100
AcDb2dVertex
 10
7576112.98000000045
 20
5714649.98000000045
  0
VERTEX
  5
C4
100
AcDbEntity
  8
ewns_dzialki
100
AcDbVertex
100
AcDb2dVertex
 10
7576090.24000000022
 20
5714657.40000000037
  0
VERTEX
  5
C5
100
AcDbEntity
  8
ewns_dzialki
100
AcDbVertex
100
AcDb2dVertex
 10
7576117.79999999981
 20
5714870.04999999981
  0
VERTEX
  5
C6
100
AcDbEntity
  8
ewns_dzialki
100
AcDbVertex
100
AcDb2dVertex
 10
7576131.55999999959
 20
5714976.1799999997
  0
VERTEX
  5
C7
100
AcDbEntity
  8
ewns_dzialki
100
AcDbVertex
100
AcDb2dVertex
 10
7576138.37000000011
 20
5714976.29000000004
  0
VERTEX
  5
C8
100
AcDbEntity
  8
ewns_dzialki
100
AcDbVertex
100
AcDb2dVertex
 10
7576141.40000000037
 20
5714999.96999999974
  0
VERTEX
  5
C9
100
AcDbEntity
  8
ewns_dzialki
100
AcDbVertex
100
AcDb2dVertex
 10
7576147.38999999966
 20
5715001.75
  0
VERTEX
  5
CA
100
AcDbEntity
  8
ewns_dzialki
100
AcDbVertex
100
AcDb2dVertex
 10
7576166.29000000004
 20
5715007.51999999955
  0
SEQEND
  5
CB
100
AcDbEntity
  8
ewns_dzialki
  0
POLYLINE
  5
CC
100
AcDbEntity
  8
ewns_dzialki
  6
CONTINUOUS
370
18
100
AcDb2dPolyline
 66
1
 70
129
  0
VERTEX
  5
CD
100
AcDbEntity
  8
ewns_dzialki
100
AcDbVertex
100
AcDb2dVertex
 10
7576130.54000000004
 20
5714644.73000000045
  0
VERTEX
  5
CE
100
AcDbEntity
  8
ewns_dzialki
100
AcDbVertex
100
AcDb2dVertex
 10
7576173.86000000034
 20
5714975.40000000037
  0
VERTEX
  5
CF
100
AcDbEntity
  8
ewns_dzialki
100
AcDbVertex
100
AcDb2dVertex
 10
7576181.71999999974
 20
5714975.1799999997
  0
VERTEX
  5
D0
100
AcDbEntity
  8
ewns_dzialki
100
AcDbVertex
100
AcDb2dVertex
 10
7576190.34999999963
 20
5714974.9299999997
  0
VERTEX
  5
D1
100
AcDbEntity
  8
ewns_dzialki
100
AcDbVertex
100
AcDb2dVertex
 10
7576163.62000000011
 20
5714770.90000000037
  0
VERTEX
  5
D2
100
AcDbEntity
  8
ewns_dzialki
100
AcDbVertex
100
AcDb2dVertex
 10
7576146.49000000022
 20
5714640.12999999989
  0
SEQEND
  5
D3
100
AcDbEntity
  8
ewns_dzialki
  0
POLYLINE
  5
D4
100
AcDbEntity
  8
ewns_dzialki
  6
CONTINUOUS
370
18
100
AcDb2dPolyline
 66
1
 70
129
  0
VERTEX
  5
D5
100
AcDbEntity
  8
ewns_dzialki
100
AcDbVertex
100
AcDb2dVertex
 10
7576215.08000000007
 20
5715022.38999999966
  0
VERTEX
  5
D6
100
AcDbEntity
  8
ewns_dzialki
100
AcDbVertex
100
AcDb2dVertex
 10
7576227.88999999966
 20
5715026.29000000004
  0
VERTEX
  5
D7
100
AcDbEntity
  8
ewns_dzialki
100
AcDbVertex
100
AcDb2dVertex
 10
7576221.69000000041
 20
5714974.04000000004
  0
VERTEX
  5
D8
100
AcDbEntity
  8
ewns_dzialki
100
AcDbVertex
100
AcDb2dVertex
 10
7576224.13999999966
 20
5714973.98000000045
  0
VERTEX
  5
D9
100
AcDbEntity
  8
ewns_dzialki
100
AcDbVertex
100
AcDb2dVertex
 10
7576208.95000000019
 20
5714854.58999999985
  0
VERTEX
  5
DA
100
AcDbEntity
  8
ewns_dzialki
100
AcDbVertex
100
AcDb2dVertex
 10
7576180.70999999996
 20
5714632.53000000026
  0
VERTEX
  5
DB
100
AcDbEntity
  8
ewns_dzialki
100
AcDbVertex
100
AcDb2dVertex
 10
7576172.29000000004
 20
5714633.73000000045
  0
VERTEX
  5
DC
100
AcDbEntity
  8
ewns_dzialki
100
AcDbVertex
100
AcDb2dVertex
 10
7576189.3200000003
 20
5714767.62999999989
  0
VERTEX
  5
DD
100
AcDbEntity
  8
ewns_dzialki
100
AcDbVertex
100
AcDb2dVertex
 10
7576163.62000000011
 20
5714770.90000000037
  0
VERTEX
  5
DE
100
AcDbEntity
  8
ewns_dzialki
100
AcDbVertex
100
AcDb2dVertex
 10
7576190.34999999963
 20
5714974.9299999997
  0
VERTEX
  5
DF
100
AcDbEntity
  8
ewns_dzialki
100
AcDbVertex
100
AcDb2dVertex
 10
7576209.38999999966
 20
5714974.40000000037
  0
SEQEND
  5
E0
100
AcDbEntity
  8
ewns_dzialki
  0
POLYLINE
  5
E1
100
AcDbEntity
  8
ewns_dzialki
  6
CONTINUOUS
370
18
100
AcDb2dPolyline
 66
1
 70
129
  0
VERTEX
  5
E2
100
AcDbEntity
  8
ewns_dzialki
100
AcDbVertex
100
AcDb2dVertex
 10
7576146.49000000022
 20
5714640.12999999989
  0
VERTEX
  5
E3
100
AcDbEntity
  8
ewns_dzialki
100
AcDbVertex
100
AcDb2dVertex
 10
7576163.62000000011
 20
5714770.90000000037
  0
VERTEX
  5
E4
100
AcDbEntity
  8
ewns_dzialki
100
AcDbVertex
100
AcDb2dVertex
 10
7576189.3200000003
 20
5714767.62999999989
  0
VERTEX
  5
E5
100
AcDbEntity
  8
ewns_dzialki
100
AcDbVertex
100
AcDb2dVertex
 10
7576172.29000000004
 20
5714633.73000000045
  0
VERTEX
  5
E6
100
AcDbEntity
  8
ewns_dzialki
100
AcDbVertex
100
AcDb2dVertex
 10
7576165.01999999955
 20
5714634.76999999955
  0
SEQEND
  5
E7
100
AcDbEntity
  8
ewns_dzialki
  0
MTEXT
  5
E8
100
AcDbEntity
  8
ewns_dzialki
370
18
100
AcDbMText
 10
7576398.92500000074
 20
5714943.44999999925
 40
0.9000
 41
0.0
 71
5
 72
1
  1
\W0.6563x;739
  7
STANDARD
 11
1.00000000
 21
0.00000000
 44
0.90
 90
3
 63
0
 45
1.0
  0
MTEXT
  5
E9
100
AcDbEntity
  8
ewns_dzialki
370
18
100
AcDbMText
 10
7576389.76999999955
 20
5714943.14499999955
 40
0.9000
 41
0.0
 71
5
 72
1
  1
\W0.6563x;740
  7
STANDARD
 11
1.00000000
 21
0.00000000
 44
0.90
 90
3
 63
0
 45
1.0
  0
MTEXT
  5
EA
100
AcDbEntity
  8
ewns_dzialki
370
18
100
AcDbMText
 10
7576374.35500000045
 20
5714942.7349999994
 40
0.9000
 41
0.0
 71
5
 72
1
  1
\W0.6563x;741
  7
STANDARD
 11
1.00000000
 21
0.00000000
 44
0.90
 90
3
 63
0
 45
1.0
  0
MTEXT
  5
EB
100
AcDbEntity
  8
ewns_dzialki
370
18
100
AcDbMText
 10
7576356.61500000022
 20
5714939.43500000052
 40
0.9000
 41
0.0
 71
5
 72
1
  1
\W0.6563x;742
  7
STANDARD
 11
1.00000000
 21
0.00000000
 44
0.90
 90
3
 63
0
 45
1.0
  0
MTEXT
  5
EC
100
AcDbEntity
  8
ewns_dzialki
370
18
100
AcDbMText
 10
7576431.19000000041
 20
5714799.76999999955
 40
0.9000
 41
0.0
 71
5
 72
1
  1
\W0.6563x;743
  7
STANDARD
 11
1.00000000
 21
0.00000000
 44
0.90
 90
3
 63
0
 45
1.0
  0
MTEXT
  5
ED
100
AcDbEntity
  8
ewns_dzialki
370
18
100
AcDbMText
 10
7576385.66500000004
 20
5714631.12000000011
 40
0.9000
 41
0.0
 71
5
 72
1
  1
\W0.6563x;753
  7
STANDARD
 11
1.00000000
 21
0.00000000
 44
0.90
 90
3
 63
0
 45
1.0
  0
MTEXT
  5
EE
100
AcDbEntity
  8
ewns_dzialki
370
18
100
AcDbMText
 10
7576374.02999999933
 20
5714630.71499999985
 40
0.9000
 41
0.0
 71
5
 72
1
  1
\W0.6563x;754
  7
STANDARD
 11
1.00000000
 21
0.00000000
 44
0.90
 90
3
 63
0
 45
1.0
  0
MTEXT
  5
EF
100
AcDbEntity
  8
ewns_dzialki
370
18
100
AcDbMText
 10
7576364.13499999978
 20
5714630.33999999985
 40
0.9000
 41
0.0
 71
5
 72
1
  1
\W0.6563x;755
  7
STANDARD
 11
1.00000000
 21
0.00000000
 44
0.90
 90
3
 63
0
 45
1.0
  0
MTEXT
  5
F0
100
AcDbEntity
  8
ewns_dzialki
370
18
100
AcDbMText
 10
7576347.65000000037
 20
5714629.95500000007
 40
0.9000
 41
0.0
 71
5
 72
1
  1
\W0.6563x;756
  7
STANDARD
 11
1.00000000
 21
0.00000000
 44
0.90
 90
3
 63
0
 45
1.0
  0
MTEXT
  5
F1
100
AcDbEntity
  8
ewns_dzialki
370
18
100
AcDbMText
 10
7576333.18999999948
 20
5714686.3049999997
 40
0.9000
 41
0.0
 71
5
 72
1
  1
\W0.6563x;757
  7
STANDARD
 11
1.00000000
 21
0.00000000
 44
0.90
 90
3
 63
0
 45
1.0
  0
MTEXT
  5
F2
100
AcDbEntity
  8
ewns_dzialki
370
18
100
AcDbMText
 10
7576328.6799999997
 20
5714832.83999999985
 40
0.9000
 41
0.0
 71
5
 72
1
  1
\W0.6563x;759
  7
STANDARD
 11
1.00000000
 21
0.00000000
 44
0.90
 90
3
 63
0
 45
1.0
  0
MTEXT
  5
F3
100
AcDbEntity
  8
ewns_dzialki
370
18
100
AcDbMText
 10
7576306.1950000003
 20
5714804.73000000045
 40
0.9000
 41
0.0
 71
5
 72
1
  1
\W0.6563x;761
  7
STANDARD
 11
1.00000000
 21
0.00000000
 44
0.90
 90
3
 63
0
 45
1.0
  0
MTEXT
  5
F4
100
AcDbEntity
  8
ewns_dzialki
370
18
100
AcDbMText
 10
7576149.58000000007
 20
5714829.15500000026
 40
0.9000
 41
0.0
 71
5
 72
1
  1
\W0.6563x;771
  7
STANDARD
 11
1.00000000
 21
0.00000000
 44
0.90
 90
3
 63
0
 45
1.0
  0
MTEXT
  5
F5
100
AcDbEntity
  8
ewns_dzialki
370
18
100
AcDbMText
 10
7576262.33999999985
 20
5714835.36500000022
 40
0.9000
 41
0.0
 71
5
 72
1
  1
\W0.6563x;763
  7
STANDARD
 11
1.00000000
 21
0.00000000
 44
0.90
 90
3
 63
0
 45
1.0
  0
MTEXT
  5
F6
100
AcDbEntity
  8
ewns_dzialki
370
18
100
AcDbMText
 10
7576284.79499999993
 20
5714804.09500000067
 40
0.9000
 41
0.0
 71
5
 72
1
  1
\W0.6563x;762
  7
STANDARD
 11
1.00000000
 21
0.00000000
 44
0.90
 90
3
 63
0
 45
1.0
  0
MTEXT
  5
F7
100
AcDbEntity
  8
ewns_dzialki
370
18
100
AcDbMText
 10
7576234.31000000052
 20
5714799.84500000067
 40
0.9000
 41
0.0
 71
5
 72
1
  1
\W0.6563x;765
  7
STANDARD
 11
1.00000000
 21
0.00000000
 44
0.90
 90
3
 63
0
 45
1.0
  0
MTEXT
  5
F8
100
AcDbEntity
  8
ewns_dzialki
370
18
100
AcDbMText
 10
7576230.24000000022
 20
5714942.81000000052
 40
0.9000
 41
0.0
 71
5
 72
1
  1
\W0.6563x;766/2
  7
STANDARD
 11
1.00000000
 21
0.00000000
 44
0.90
 90
3
 63
0
 45
1.0
  0
MTEXT
  5
F9
100
AcDbEntity
  8
ewns_dzialki
370
18
100
AcDbMText
 10
7576205.41000000015
 20
5714742.00999999978
 40
0.9000
 41
0.0
 71
5
 72
1
  1
\W0.6563x;766/1
  7
STANDARD
 11
1.00000000
 21
0.00000000
 44
0.90
 90
3
 63
0
 45
1.0
  0
MTEXT
  5
FA
100
AcDbEntity
  8
ewns_dzialki
370
18
100
AcDbMText
 10
7576128.2650000006
 20
5714828.75
 40
0.9000
 41
0.0
 71
5
 72
1
  1
\W0.6563x;772
  7
STANDARD
 11
1.00000000
 21
0.00000000
 44
0.90
 90
3
 63
0
 45
1.0
  0
MTEXT
  5
FB
100
AcDbEntity
  8
ewns_dzialki
370
18
100
AcDbMText
 10
7576160.4450000003
 20
5714807.7650000006
 40
0.9000
 41
0.0
 71
5
 72
1
  1
\W0.6563x;770
  7
STANDARD
 11
1.00000000
 21
0.00000000
 44
0.90
 90
3
 63
0
 45
1.0
  0
MTEXT
  5
FC
100
AcDbEntity
  8
ewns_dzialki
370
18
100
AcDbMText
 10
7576195.75499999989
 20
5714829.41000000015
 40
0.9000
 41
0.0
 71
5
 72
1
  1
\W0.6563x;768/1
  7
STANDARD
 11
1.00000000
 21
0.00000000
 44
0.90
 90
3
 63
0
 45
1.0
  0
MTEXT
  5
FD
100
AcDbEntity
  8
ewns_dzialki
370
18
100
AcDbMText
 10
7576167.90500000026
 20
5714702.31500000041
 40
0.9000
 41
0.0
 71
5
 72
1
  1
\W0.6563x;768/2
  7
STANDARD
 11
1.00000000
 21
0.00000000
 44
0.90
 90
3
 63
0
 45
1.0
  0
ENDSEC
  0
SECTION
  2
OBJECTS
  0
DICTIONARY
  5
FE
330
0
100
AcDbDictionary
280
0
281
1
  3
ACAD_GROUP
350
FF
  3
ACAD_LAYOUT
350
100
  3
ACAD_MLINESTYLE
350
101
  3
ACAD_PLOTSETTINGS
350
102
  3
ACAD_PLOTSTYLENAME
350
103
  0
DICTIONARY
  5
FF
102
{ACAD_REACTORS
330
FE
102
}
330
FE
100
AcDbDictionary
280
0
281
1
  0
DICTIONARY
  5
100
102
{ACAD_REACTORS
330
FE
102
}
330
FE
100
AcDbDictionary
280
0
281
1
  3
Layout
350
18
  3
Model
350
16
  0
DICTIONARY
  5
101
102
{ACAD_REACTORS
330
FE
102
}
330
FE
100
AcDbDictionary
280
0
281
1
  3
Standard
350
104
  0
DICTIONARY
  5
102
102
{ACAD_REACTORS
330
FE
102
}
330
FE
100
AcDbDictionary
280
0
281
1
  0
ACDBDICTIONARYWDFLT
  5
103
102
{ACAD_REACTORS
330
FE
102
}
330
FE
100
AcDbDictionary
281
1
  3
Normal
350
9
100
AcDbDictionaryWithDefault
340
9
  0
LAYOUT
  5
18
100
AcDbPlotSettings
  1

  2

  4

  6

 40
0.0
 41
0.0
 42
0.0
 43
0.0
 44
0.0
 45
0.0
 46
0.0
 47
0.0
 48
0.0
 49
0.0
140
0.0
141
0.0
142
1.0
143
1.0
 70
688
 72
1
 73
0
 74
5
  7

 75
0
147
1.0
148
0.0
149
0.0
100
AcDbLayout
  1
Layout
 70
1
 71
1
 10
0.0
 20
0.0
 11
420.0
 21
297.0
 12
0.0
 22
0.0
 32
0.0
 14
100000000000000000000.0
 24
100000000000000000000.0
 34
100000000000000000000.0
 15
-100000000000000000000.0
 25
-100000000000000000000.0
 35
-100000000000000000000.0
146
0.0
 13
0.0
 23
0.0
 33
0.0
 16
1.0
 26
0.0
 36
0.0
 17
0.0
 27
1.0
 37
0.0
 76
0
330
17
  0
LAYOUT
  5
16
100
AcDbPlotSettings
  1

  2

  4

  6

 40
0.0
 41
0.0
 42
0.0
 43
0.0
 44
0.0
 45
0.0
 46
0.0
 47
0.0
 48
0.0
 49
0.0
140
0.0
141
0.0
142
1.0
143
1.0
 70
1712
 72
1
 73
0
 74
0
  7

 75
0
147
1.0
148
0.0
149
0.0
100
AcDbLayout
  1
Model
 70
1
 71
0
 10
0.0
 20
0.0
 11
12.0
 21
9.0
 12
0.0
 22
0.0
 32
0.0
 14
0.0
 24
0.0
 34
0.0
 15
0.0
 25
0.0
 35
0.0
146
0.0
 13
0.0
 23
0.0
 33
0.0
 16
1.0
 26
0.0
 36
0.0
 17
0.0
 27
1.0
 37
0.0
 76
0
330
15
  0
MLINESTYLE
  5
104
102
{ACAD_REACTORS
330
101
102
}
330
101
100
AcDbMlineStyle
  2
Standard
 70
0
  3

 62
256
 51
90.0
 52
90.0
  2
Standard
 71
2
 49
0.5
 62
256
  6
ByLayer
 49
-0.5
 62
256
  6
ByLayer
  0
ACDBPLACEHOLDER
  5
9
  0
ENDSEC
  0
EOF
