  0
SECTION
  2
HEADER
  9
$ACADVER
  1
AC1018
  9
$HANDSEED
  5
FFFFFF
  9
$EXTMAX
 10
7571556.11000000034
 20
5715272.59999999963
 30
1000000.00
  9
$EXTMIN
 10
7571111.88999999966
 20
5714557.90000000037
 30
0.00
  9
$LIMMIN
 10
7571111.88999999966
 20
5714557.90000000037
  9
$LIMMAX
 10
7571556.11000000034
 20
5715272.59999999963
  9
$DIMASZ
 40
2.5
  9
$DIMGAP
 40
0.625
  9
$INSUNITS
 70
6
  9
$DIMEXO
 40
0.625
  9
$DIMTXT
 40
2.5
  9
$DIMSTYLE
  2
Standard
  9
$PLIMMIN
 10
0.0
 20
0.0
  9
$PLIMMAX
 10
210.0
 20
297.0
  9
$DIMEXE
 40
1.25
  9
$TEXTSIZE
 40
2.5
  9
$TEXTSTYLE
  7
Standard
  9
$LWDISPLAY
290
1
  9
$TDCREATE
 40
44795.701403866
  9
$TDUCREATE
 40
44795.618070532
  9
$TDUPDATE
 40
44795.701403866
  9
$TDUUPDATE
 40
44795.618070532
  9
$TDINDWG
 40
0.0
  9
$TDUSRTIMER
 40
0.0
  9
$USRTIMER
 70
1
  0
ENDSEC
  0
SECTION
  2
CLASSES
  0
CLASS
  1
WIPEOUT
  2
AcDbWipeout
  3
WipeOut
 90
127
 91
1
280
0
281
1
  0
CLASS
  1
WIPEOUTVARIABLES
  2
AcDbWipeoutVariables
  3
WipeOut
 90
0
 91
1
280
0
281
0
  0
ENDSEC
  0
SECTION
  2
TABLES
  0
TABLE
  2
VPORT
  5
1
100
AcDbSymbolTable
 70
1
  0
VPORT
  5
2
100
AcDbSymbolTableRecord
100
AcDbViewportTableRecord
  2
*ACTIVE
 70
0
 10
0.0
 20
0.0
 11
1.0
 21
1.0
 12
7571334.00
 22
5714915.25
 13
0.0
 23
0.0
 14
1.0
 24
1.0
 15
0.0
 25
0.0
 16
0.0
 26
0.0
 36
1.0
 17
0.0
 27
0.0
 37
0.0
 40
714.70
 41
0.62
 42
50.0
 43
0.0
 44
0.0
 50
0.0
 51
0.0
 71
0
 72
100
 73
1
 74
1
 75
0
 76
0
 77
0
 78
0
  0
ENDTAB
  0
TABLE
  2
LTYPE
  5
3
100
AcDbSymbolTable
 70
3
  0
LTYPE
  5
4
100
AcDbSymbolTableRecord
100
AcDbLinetypeTableRecord
  2
ByBlock
 70
0
  3

 72
65
 73
0
 40
0.0
  0
LTYPE
  5
5
100
AcDbSymbolTableRecord
100
AcDbLinetypeTableRecord
  2
ByLayer
 70
0
  3

 72
65
 73
0
 40
0.0
  0
LTYPE
  5
6
100
AcDbSymbolTableRecord
100
AcDbLinetypeTableRecord
  2
CONTINUOUS
 70
0
  3
Solid line
 72
65
 73
0
 40
0.0
  0
LTYPE
  5
8
100
AcDbSymbolTableRecord
100
AcDbLinetypeTableRecord
  2
L_0_02
 70
0
  3
Dzialka_ewidencyjna (MLineStyle)
 72
65
 73
0
 40
0.0
  0
LTYPE
  5
9
100
AcDbSymbolTableRecord
100
AcDbLinetypeTableRecord
  2
L_0_03
 70
0
  3
Uzytek_gruntowy
 72
65
 73
2
 40
1.0
 49
0.5
 74
0
 49
-0.5
 74
0
  0
ENDTAB
  0
TABLE
  2
LAYER
  5
A
100
AcDbSymbolTable
 70
3
  0
LAYER
  5
B
100
AcDbSymbolTableRecord
100
AcDbLayerTableRecord
  2
0
 70
0
 62
7
  6
CONTINUOUS
370
18
390
C
  0
LAYER
  5
D
100
AcDbSymbolTableRecord
100
AcDbLayerTableRecord
  2
odnowienie_ew
 70
0
 62
96
  6
L_0_02
370
18
390
C
  0
LAYER
  5
E
100
AcDbSymbolTableRecord
100
AcDbLayerTableRecord
  2
uzytkowanie_2022
 70
0
 62
5
  6
L_0_03
370
35
390
C
  0
ENDTAB
  0
TABLE
  2
STYLE
  5
F
100
AcDbSymbolTable
 70
2
  0
STYLE
  5
10
100
AcDbSymbolTableRecord
100
AcDbTextStyleTableRecord
  2
STANDARD
 70
0
 40
0.0
 41
1.0
 50
0.0
 71
0
  3
simplex.shx
  4

  0
STYLE
  5
11
100
AcDbSymbolTableRecord
100
AcDbTextStyleTableRecord
  2
STANDARD_ITALIC
 70
0
 40
0.0
 41
1.0
 50
15.0
 71
0
  3
simplex.shx
  4

  0
ENDTAB
  0
TABLE
  2
VIEW
  5
12
100
AcDbSymbolTable
 70
0
  0
ENDTAB
  0
TABLE
  2
UCS
  5
13
100
AcDbSymbolTable
 70
0
  0
ENDTAB
  0
TABLE
  2
APPID
  5
14
100
AcDbSymbolTable
 70
1
  0
APPID
  5
15
100
AcDbSymbolTableRecord
100
AcDbRegAppTableRecord
  2
ACAD
 70
0
  0
ENDTAB
  0
TABLE
  2
DIMSTYLE
  5
16
100
AcDbSymbolTable
 70
1
100
AcDbDimStyleTable
  0
DIMSTYLE
105
17
100
AcDbSymbolTableRecord
100
AcDbDimStyleTableRecord
  2
Standard
 70
0
340
10
  0
ENDTAB
  0
TABLE
  2
BLOCK_RECORD
  5
18
100
AcDbSymbolTable
 70
4
  0
BLOCK_RECORD
  5
19
100
AcDbSymbolTableRecord
100
AcDbBlockTableRecord
  2
*Model_Space
340
1A
  0
BLOCK_RECORD
  5
1B
100
AcDbSymbolTableRecord
100
AcDbBlockTableRecord
  2
*Paper_Space
340
1C
  0
BLOCK_RECORD
  5
1D
100
AcDbSymbolTableRecord
100
AcDbBlockTableRecord
  2
L_0_02_1
340
1E
  0
BLOCK_RECORD
  5
1F
100
AcDbSymbolTableRecord
100
AcDbBlockTableRecord
  2
L_0_02_2
340
20
  0
ENDTAB
  0
ENDSEC
  0
SECTION
  2
BLOCKS
  0
BLOCK
  5
21
100
AcDbEntity
  8
0
100
AcDbBlockBegin
  2
*Model_Space
 70
0
 10
0.0
 20
0.0
 30
0.0
  3
*Model_Space
  1

  0
ENDBLK
  5
22
100
AcDbEntity
  8
0
100
AcDbBlockEnd
  0
BLOCK
  5
23
100
AcDbEntity
 67
1
  8
0
100
AcDbBlockBegin
  2
*Paper_Space
 70
0
 10
0.0
 20
0.0
 30
0.0
  3
*Paper_Space
  1

  0
ENDBLK
  5
24
100
AcDbEntity
 67
1
  8
0
100
AcDbBlockEnd
  0
BLOCK
  5
1E
100
AcDbEntity
  8
0
100
AcDbBlockBegin
 62
0
370
13
  2
L_0_02_1
 70
0
 10
0
 20
0
 30
0
  3
L_0_02_1
  0
POINT
  5
25
100
AcDbEntity
  8
0
100
AcDbPoint
 62
0
 10
0.0
 20
0.0
 30
0.000
  0
ENDBLK
  5
26
100
AcDbEntity
  8
0
100
AcDbBlockEnd
  0
BLOCK
  5
20
100
AcDbEntity
  8
0
100
AcDbBlockBegin
 62
0
370
13
  2
L_0_02_2
 70
0
 10
0
 20
0
 30
0
  3
L_0_02_2
  0
POINT
  5
27
100
AcDbEntity
  8
0
100
AcDbPoint
 62
0
 10
-0.0
 20
-0.0
 30
0.000
  0
ENDBLK
  5
28
100
AcDbEntity
  8
0
100
AcDbBlockEnd
  0
ENDSEC
  0
SECTION
  2
ENTITIES
  0
INSERT
  5
29
100
AcDbEntity
  8
odnowienie_ew
  6
CONTINUOUS
100
AcDbBlockReference
 66
0
  2
L_0_02_1
 10
7571326.48000000045
 20
5714557.90000000037
 41
0.50
 42
0.50
 43
0.50
 50
161.93
  0
INSERT
  5
2A
100
AcDbEntity
  8
odnowienie_ew
  6
CONTINUOUS
100
AcDbBlockReference
 66
0
  2
L_0_02_2
 10
7571313.79000000004
 20
5714562.04000000004
 41
0.50
 42
0.50
 43
0.50
 50
341.93
  0
INSERT
  5
2B
100
AcDbEntity
  8
odnowienie_ew
  6
CONTINUOUS
100
AcDbBlockReference
 66
0
  2
L_0_02_1
 10
7571313.79000000004
 20
5714562.04000000004
 41
0.50
 42
0.50
 43
0.50
 50
161.91
  0
INSERT
  5
2C
100
AcDbEntity
  8
odnowienie_ew
  6
CONTINUOUS
100
AcDbBlockReference
 66
0
  2
L_0_02_2
 10
7571303.80999999959
 20
5714565.29999999981
 41
0.50
 42
0.50
 43
0.50
 50
341.91
  0
INSERT
  5
2D
100
AcDbEntity
  8
odnowienie_ew
  6
CONTINUOUS
100
AcDbBlockReference
 66
0
  2
L_0_02_1
 10
7571303.80999999959
 20
5714565.29999999981
 41
0.50
 42
0.50
 43
0.50
 50
161.90
  0
INSERT
  5
2E
100
AcDbEntity
  8
odnowienie_ew
  6
CONTINUOUS
100
AcDbBlockReference
 66
0
  2
L_0_02_2
 10
7571292.40000000037
 20
5714569.03000000026
 41
0.50
 42
0.50
 43
0.50
 50
341.90
  0
INSERT
  5
2F
100
AcDbEntity
  8
odnowienie_ew
  6
CONTINUOUS
100
AcDbBlockReference
 66
0
  2
L_0_02_1
 10
7571292.40000000037
 20
5714569.03000000026
 41
0.50
 42
0.50
 43
0.50
 50
161.92
  0
INSERT
  5
30
100
AcDbEntity
  8
odnowienie_ew
  6
CONTINUOUS
100
AcDbBlockReference
 66
0
  2
L_0_02_2
 10
7571195.74000000022
 20
5714600.58000000007
 41
0.50
 42
0.50
 43
0.50
 50
341.92
  0
INSERT
  5
31
100
AcDbEntity
  8
odnowienie_ew
  6
CONTINUOUS
100
AcDbBlockReference
 66
0
  2
L_0_02_1
 10
7571195.74000000022
 20
5714600.58000000007
 41
0.50
 42
0.50
 43
0.50
 50
161.89
  0
INSERT
  5
32
100
AcDbEntity
  8
odnowienie_ew
  6
CONTINUOUS
100
AcDbBlockReference
 66
0
  2
L_0_02_2
 10
7571159.41000000015
 20
5714612.45999999996
 41
0.50
 42
0.50
 43
0.50
 50
341.89
  0
INSERT
  5
33
100
AcDbEntity
  8
odnowienie_ew
  6
CONTINUOUS
100
AcDbBlockReference
 66
0
  2
L_0_02_1
 10
7571159.41000000015
 20
5714612.45999999996
 41
0.50
 42
0.50
 43
0.50
 50
161.92
  0
INSERT
  5
34
100
AcDbEntity
  8
odnowienie_ew
  6
CONTINUOUS
100
AcDbBlockReference
 66
0
  2
L_0_02_2
 10
7571117.58999999985
 20
5714626.11000000034
 41
0.50
 42
0.50
 43
0.50
 50
341.92
  0
INSERT
  5
35
100
AcDbEntity
  8
odnowienie_ew
  6
CONTINUOUS
100
AcDbBlockReference
 66
0
  2
L_0_02_1
 10
7571117.58999999985
 20
5714626.11000000034
 41
0.50
 42
0.50
 43
0.50
 50
161.93
  0
INSERT
  5
36
100
AcDbEntity
  8
odnowienie_ew
  6
CONTINUOUS
100
AcDbBlockReference
 66
0
  2
L_0_02_2
 10
7571111.88999999966
 20
5714627.96999999974
 41
0.50
 42
0.50
 43
0.50
 50
341.93
  0
INSERT
  5
37
100
AcDbEntity
  8
odnowienie_ew
  6
CONTINUOUS
100
AcDbBlockReference
 66
0
  2
L_0_02_1
 10
7571111.88999999966
 20
5714627.96999999974
 41
0.50
 42
0.50
 43
0.50
 50
74.53
  0
INSERT
  5
38
100
AcDbEntity
  8
odnowienie_ew
  6
CONTINUOUS
100
AcDbBlockReference
 66
0
  2
L_0_02_2
 10
7571113.49000000022
 20
5714633.75
 41
0.50
 42
0.50
 43
0.50
 50
254.53
  0
INSERT
  5
39
100
AcDbEntity
  8
odnowienie_ew
  6
CONTINUOUS
100
AcDbBlockReference
 66
0
  2
L_0_02_1
 10
7571113.49000000022
 20
5714633.75
 41
0.50
 42
0.50
 43
0.50
 50
341.93
  0
INSERT
  5
3A
100
AcDbEntity
  8
odnowienie_ew
  6
CONTINUOUS
100
AcDbBlockReference
 66
0
  2
L_0_02_2
 10
7571136.94000000041
 20
5714626.09999999963
 41
0.50
 42
0.50
 43
0.50
 50
161.93
  0
INSERT
  5
3B
100
AcDbEntity
  8
odnowienie_ew
  6
CONTINUOUS
100
AcDbBlockReference
 66
0
  2
L_0_02_1
 10
7571136.94000000041
 20
5714626.09999999963
 41
0.50
 42
0.50
 43
0.50
 50
341.91
  0
INSERT
  5
3C
100
AcDbEntity
  8
odnowienie_ew
  6
CONTINUOUS
100
AcDbBlockReference
 66
0
  2
L_0_02_2
 10
7571160.50999999978
 20
5714618.40000000037
 41
0.50
 42
0.50
 43
0.50
 50
161.91
  0
INSERT
  5
3D
100
AcDbEntity
  8
odnowienie_ew
  6
CONTINUOUS
100
AcDbBlockReference
 66
0
  2
L_0_02_1
 10
7571160.50999999978
 20
5714618.40000000037
 41
0.50
 42
0.50
 43
0.50
 50
341.92
  0
INSERT
  5
3E
100
AcDbEntity
  8
odnowienie_ew
  6
CONTINUOUS
100
AcDbBlockReference
 66
0
  2
L_0_02_2
 10
7571183.50999999978
 20
5714610.88999999966
 41
0.50
 42
0.50
 43
0.50
 50
161.92
  0
INSERT
  5
3F
100
AcDbEntity
  8
odnowienie_ew
  6
CONTINUOUS
100
AcDbBlockReference
 66
0
  2
L_0_02_1
 10
7571183.50999999978
 20
5714610.88999999966
 41
0.50
 42
0.50
 43
0.50
 50
341.90
  0
INSERT
  5
40
100
AcDbEntity
  8
odnowienie_ew
  6
CONTINUOUS
100
AcDbBlockReference
 66
0
  2
L_0_02_2
 10
7571196.8200000003
 20
5714606.54000000004
 41
0.50
 42
0.50
 43
0.50
 50
161.90
  0
INSERT
  5
41
100
AcDbEntity
  8
odnowienie_ew
  6
CONTINUOUS
100
AcDbBlockReference
 66
0
  2
L_0_02_1
 10
7571196.8200000003
 20
5714606.54000000004
 41
0.50
 42
0.50
 43
0.50
 50
341.91
  0
INSERT
  5
42
100
AcDbEntity
  8
odnowienie_ew
  6
CONTINUOUS
100
AcDbBlockReference
 66
0
  2
L_0_02_2
 10
7571202.33000000007
 20
5714604.74000000022
 41
0.50
 42
0.50
 43
0.50
 50
161.91
  0
INSERT
  5
43
100
AcDbEntity
  8
odnowienie_ew
  6
CONTINUOUS
100
AcDbBlockReference
 66
0
  2
L_0_02_1
 10
7571202.33000000007
 20
5714604.74000000022
 41
0.50
 42
0.50
 43
0.50
 50
341.96
  0
INSERT
  5
44
100
AcDbEntity
  8
odnowienie_ew
  6
CONTINUOUS
100
AcDbBlockReference
 66
0
  2
L_0_02_2
 10
7571209.36000000034
 20
5714602.45000000019
 41
0.50
 42
0.50
 43
0.50
 50
161.96
  0
INSERT
  5
45
100
AcDbEntity
  8
odnowienie_ew
  6
CONTINUOUS
100
AcDbBlockReference
 66
0
  2
L_0_02_1
 10
7571209.36000000034
 20
5714602.45000000019
 41
0.50
 42
0.50
 43
0.50
 50
341.91
  0
INSERT
  5
46
100
AcDbEntity
  8
odnowienie_ew
  6
CONTINUOUS
100
AcDbBlockReference
 66
0
  2
L_0_02_2
 10
7571214.78000000026
 20
5714600.6799999997
 41
0.50
 42
0.50
 43
0.50
 50
161.91
  0
INSERT
  5
47
100
AcDbEntity
  8
odnowienie_ew
  6
CONTINUOUS
100
AcDbBlockReference
 66
0
  2
L_0_02_1
 10
7571214.78000000026
 20
5714600.6799999997
 41
0.50
 42
0.50
 43
0.50
 50
341.90
  0
INSERT
  5
48
100
AcDbEntity
  8
odnowienie_ew
  6
CONTINUOUS
100
AcDbBlockReference
 66
0
  2
L_0_02_2
 10
7571221.91000000015
 20
5714598.34999999963
 41
0.50
 42
0.50
 43
0.50
 50
161.90
  0
INSERT
  5
49
100
AcDbEntity
  8
odnowienie_ew
  6
CONTINUOUS
100
AcDbBlockReference
 66
0
  2
L_0_02_1
 10
7571221.91000000015
 20
5714598.34999999963
 41
0.50
 42
0.50
 43
0.50
 50
341.93
  0
INSERT
  5
4A
100
AcDbEntity
  8
odnowienie_ew
  6
CONTINUOUS
100
AcDbBlockReference
 66
0
  2
L_0_02_2
 10
7571240.29999999981
 20
5714592.34999999963
 41
0.50
 42
0.50
 43
0.50
 50
161.93
  0
INSERT
  5
4B
100
AcDbEntity
  8
odnowienie_ew
  6
CONTINUOUS
100
AcDbBlockReference
 66
0
  2
L_0_02_1
 10
7571240.29999999981
 20
5714592.34999999963
 41
0.50
 42
0.50
 43
0.50
 50
341.92
  0
INSERT
  5
4C
100
AcDbEntity
  8
odnowienie_ew
  6
CONTINUOUS
100
AcDbBlockReference
 66
0
  2
L_0_02_2
 10
7571258.21999999974
 20
5714586.5
 41
0.50
 42
0.50
 43
0.50
 50
161.92
  0
INSERT
  5
4D
100
AcDbEntity
  8
odnowienie_ew
  6
CONTINUOUS
100
AcDbBlockReference
 66
0
  2
L_0_02_1
 10
7571258.21999999974
 20
5714586.5
 41
0.50
 42
0.50
 43
0.50
 50
341.91
  0
INSERT
  5
4E
100
AcDbEntity
  8
odnowienie_ew
  6
CONTINUOUS
100
AcDbBlockReference
 66
0
  2
L_0_02_2
 10
7571279.12999999989
 20
5714579.66999999993
 41
0.50
 42
0.50
 43
0.50
 50
161.91
  0
INSERT
  5
4F
100
AcDbEntity
  8
odnowienie_ew
  6
CONTINUOUS
100
AcDbBlockReference
 66
0
  2
L_0_02_1
 10
7571279.12999999989
 20
5714579.66999999993
 41
0.50
 42
0.50
 43
0.50
 50
341.92
  0
INSERT
  5
50
100
AcDbEntity
  8
odnowienie_ew
  6
CONTINUOUS
100
AcDbBlockReference
 66
0
  2
L_0_02_2
 10
7571305.41000000015
 20
5714571.08999999985
 41
0.50
 42
0.50
 43
0.50
 50
161.92
  0
INSERT
  5
51
100
AcDbEntity
  8
odnowienie_ew
  6
CONTINUOUS
100
AcDbBlockReference
 66
0
  2
L_0_02_1
 10
7571305.41000000015
 20
5714571.08999999985
 41
0.50
 42
0.50
 43
0.50
 50
341.92
  0
INSERT
  5
52
100
AcDbEntity
  8
odnowienie_ew
  6
CONTINUOUS
100
AcDbBlockReference
 66
0
  2
L_0_02_2
 10
7571325.5
 20
5714564.53000000026
 41
0.50
 42
0.50
 43
0.50
 50
161.92
  0
INSERT
  5
53
100
AcDbEntity
  8
odnowienie_ew
  6
CONTINUOUS
100
AcDbBlockReference
 66
0
  2
L_0_02_1
 10
7571325.5
 20
5714564.53000000026
 41
0.50
 42
0.50
 43
0.50
 50
71.76
  0
INSERT
  5
54
100
AcDbEntity
  8
odnowienie_ew
  6
CONTINUOUS
100
AcDbBlockReference
 66
0
  2
L_0_02_2
 10
7571364.50999999978
 20
5714682.87999999989
 41
0.50
 42
0.50
 43
0.50
 50
251.76
  0
INSERT
  5
55
100
AcDbEntity
  8
odnowienie_ew
  6
CONTINUOUS
100
AcDbBlockReference
 66
0
  2
L_0_02_1
 10
7571364.50999999978
 20
5714682.87999999989
 41
0.50
 42
0.50
 43
0.50
 50
72.20
  0
INSERT
  5
56
100
AcDbEntity
  8
odnowienie_ew
  6
CONTINUOUS
100
AcDbBlockReference
 66
0
  2
L_0_02_2
 10
7571455.25999999978
 20
5714965.45999999996
 41
0.50
 42
0.50
 43
0.50
 50
252.20
  0
INSERT
  5
57
100
AcDbEntity
  8
odnowienie_ew
  6
CONTINUOUS
100
AcDbBlockReference
 66
0
  2
L_0_02_1
 10
7571455.25999999978
 20
5714965.45999999996
 41
0.50
 42
0.50
 43
0.50
 50
72.20
  0
INSERT
  5
58
100
AcDbEntity
  8
odnowienie_ew
  6
CONTINUOUS
100
AcDbBlockReference
 66
0
  2
L_0_02_2
 10
7571456.48000000045
 20
5714969.25999999978
 41
0.50
 42
0.50
 43
0.50
 50
252.20
  0
INSERT
  5
59
100
AcDbEntity
  8
odnowienie_ew
  6
CONTINUOUS
100
AcDbBlockReference
 66
0
  2
L_0_02_1
 10
7571456.48000000045
 20
5714969.25999999978
 41
0.50
 42
0.50
 43
0.50
 50
341.99
  0
INSERT
  5
5A
100
AcDbEntity
  8
odnowienie_ew
  6
CONTINUOUS
100
AcDbBlockReference
 66
0
  2
L_0_02_2
 10
7571462.20000000019
 20
5714967.40000000037
 41
0.50
 42
0.50
 43
0.50
 50
161.99
  0
INSERT
  5
5B
100
AcDbEntity
  8
odnowienie_ew
  6
CONTINUOUS
100
AcDbBlockReference
 66
0
  2
L_0_02_1
 10
7571462.20000000019
 20
5714967.40000000037
 41
0.50
 42
0.50
 43
0.50
 50
251.66
  0
INSERT
  5
5C
100
AcDbEntity
  8
odnowienie_ew
  6
CONTINUOUS
100
AcDbBlockReference
 66
0
  2
L_0_02_2
 10
7571326.48000000045
 20
5714557.90000000037
 41
0.50
 42
0.50
 43
0.50
 50
71.66
  0
MLINE
  5
5D
100
AcDbEntity
  8
odnowienie_ew
  6
L_0_02
370
18
100
AcDbMline
  2
L_0_02
340
7
 40
1.0
 70
1
 71
3
 72
26
 73
1
 10
7571326.48000000045
 20
5714557.90000000037
210
0.0
220
0.0
230
1.0
 11
7571326.48000000045
 21
5714557.90000000037
 12
-0.950686627836
 22
0.310153084224
 13
0.450837598985
 23
-0.892605993337
 74
3
 41
0.0
 41
0.25
 41
13.098247076213
 75
0
 11
7571313.79000000004
 21
5714562.04000000004
 12
-0.950571036773
 22
0.310507172297
 13
-0.310330133642
 23
-0.950628848791
 74
3
 41
0.0
 41
0.25
 41
10.248952329041
 75
0
 11
7571303.80999999959
 21
5714565.29999999981
 12
-0.950500056656
 22
0.310724383172
 13
-0.310615779762
 23
-0.950535552919
 74
3
 41
0.0
 41
0.25
 41
11.754207595068
 75
0
 11
7571292.40000000037
 21
5714569.03000000026
 12
-0.950641576752
 22
0.310291141592
 13
-0.310507770445
 23
-0.950570841386
 74
3
 41
0.0
 41
0.25
 41
101.42870032616
 75
0
 11
7571195.74000000022
 21
5714600.58000000007
 12
-0.950473032844
 22
0.310807036335
 13
-0.310549100398
 23
-0.950557339797
 74
3
 41
0.0
 41
0.25
 41
37.973072874937
 75
0
 11
7571159.41000000015
 21
5714612.45999999996
 12
-0.950642409188
 22
0.31028859124
 13
-0.310547825335
 23
-0.950557756362
 74
3
 41
0.0
 41
0.25
 41
43.741304823057
 75
0
 11
7571117.58999999985
 21
5714626.11000000034
 12
-0.950665699098
 22
0.310217228017
 13
-0.310252909847
 23
-0.950654054812
 74
3
 41
0.0
 41
0.25
 41
5.745798528962
 75
0
 11
7571111.88999999966
 21
5714627.96999999974
 12
0.266783780885
 22
0.963756408153
 13
-0.881077757915
 23
-0.472971441535
 74
3
 41
0.0
 41
0.25
 41
5.747366088943
 75
0
 11
7571113.49000000022
 21
5714633.75
 12
0.950690866708
 22
-0.310140090858
 13
-0.473007186065
 23
0.881058568956
 74
3
 41
0.0
 41
0.25
 41
24.416272519666
 75
0
 11
7571136.94000000041
 21
5714626.09999999963
 12
0.950561732957
 22
-0.310535653087
 13
0.310337878689
 23
0.950626320407
 74
3
 41
0.0
 41
0.25
 41
24.545864573728
 75
0
 11
7571160.50999999978
 21
5714618.40000000037
 12
0.950607945321
 22
-0.310394159567
 13
0.310464907187
 23
0.950584841771
 74
3
 41
0.0
 41
0.25
 41
23.945042880942
 75
0
 11
7571183.50999999978
 21
5714610.88999999966
 12
0.950523715125
 22
-0.310652003026
 13
0.310523084152
 23
0.950565838966
 74
3
 41
0.0
 41
0.25
 41
13.752806861863
 75
0
 11
7571196.8200000003
 21
5714606.54000000004
 12
0.950563893471
 22
-0.31052903959
 13
0.310590521958
 23
0.950543806287
 74
3
 41
0.0
 41
0.25
 41
5.546559324019
 75
0
 11
7571202.33000000007
 21
5714604.74000000022
 12
0.950825124155
 22
-0.309728241006
 13
0.310128667803
 23
0.95069459313
 74
3
 41
0.0
 41
0.25
 41
7.143578294969
 75
0
 11
7571209.36000000034
 21
5714602.45000000019
 12
0.950594894438
 22
-0.310434126133
 13
0.310081204937
 23
0.95071007481
 74
3
 41
0.0
 41
0.25
 41
5.45169273119
 75
0
 11
7571214.78000000026
 21
5714600.6799999997
 12
0.950533178931
 22
-0.310623044462
 13
0.310528586831
 23
0.950564041378
 74
3
 41
0.0
 41
0.25
 41
7.251053259293
 75
0
 11
7571221.91000000015
 21
5714598.34999999963
 12
0.950680141297
 22
-0.310172966171
 13
0.310398014014
 23
0.950606686751
 74
3
 41
0.0
 41
0.25
 41
19.094045595161
 75
0
 11
7571240.29999999981
 21
5714592.34999999963
 12
0.950627815429
 22
-0.310333299103
 13
0.31025313374
 23
0.950653981743
 74
3
 41
0.0
 41
0.25
 41
18.600700252059
 75
0
 11
7571258.21999999974
 21
5714586.5
 12
0.950575339045
 22
-0.310494001229
 13
0.310413651275
 23
0.950601580633
 74
3
 41
0.0
 41
0.25
 41
21.747204367993
 75
0
 11
7571279.12999999989
 21
5714579.66999999993
 12
0.950618525197
 22
-0.310361755943
 13
0.310427879337
 23
0.950596934421
 74
3
 41
0.0
 41
0.25
 41
27.395158708443
 75
0
 11
7571305.41000000015
 21
5714571.08999999985
 12
0.950605456496
 22
-0.310401781696
 13
0.310381768888
 23
0.950611991057
 74
3
 41
0.0
 41
0.25
 41
20.883899308661
 75
0
 11
7571325.5
 21
5714564.53000000026
 12
0.313048163803
 22
0.949737251633
 13
-0.451450203396
 23
0.892296315051
 74
3
 41
0.0
 41
0.25
 41
124.363412600307
 75
0
 11
7571364.50999999978
 21
5714682.87999999989
 12
0.305767045902
 22
0.952106356265
 13
-0.950928772777
 23
0.309409872345
 74
3
 41
0.0
 41
0.25
 41
296.544573569063
 75
0
 11
7571455.25999999978
 21
5714965.45999999996
 12
0.305684736672
 22
0.952132785785
 13
-0.952119571914
 23
0.305725891573
 74
3
 41
0.0
 41
0.25
 41
3.741039964749
 75
0
 11
7571456.48000000045
 21
5714969.25999999978
 12
0.950985185642
 22
-0.3092364414
 13
-0.455447137181
 23
0.8902628293
 74
3
 41
0.0
 41
0.25
 41
5.764815042443
 75
0
 11
7571462.20000000019
 21
5714967.40000000037
 12
-0.314600059139
 22
-0.949224316371
 13
0.89238857717
 23
0.451267800021
 74
3
 41
0.0
 41
0.25
 41
431.154877580133
 75
0
  0
INSERT
  5
5E
100
AcDbEntity
  8
odnowienie_ew
  6
CONTINUOUS
100
AcDbBlockReference
 66
0
  2
L_0_02_1
 10
7571312.41000000015
 20
5714999.46999999974
 41
0.50
 42
0.50
 43
0.50
 50
353.45
  0
INSERT
  5
5F
100
AcDbEntity
  8
odnowienie_ew
  6
CONTINUOUS
100
AcDbBlockReference
 66
0
  2
L_0_02_2
 10
7571326.51999999955
 20
5714997.84999999963
 41
0.50
 42
0.50
 43
0.50
 50
173.45
  0
INSERT
  5
60
100
AcDbEntity
  8
odnowienie_ew
  6
CONTINUOUS
100
AcDbBlockReference
 66
0
  2
L_0_02_1
 10
7571326.51999999955
 20
5714997.84999999963
 41
0.50
 42
0.50
 43
0.50
 50
251.66
  0
INSERT
  5
61
100
AcDbEntity
  8
odnowienie_ew
  6
CONTINUOUS
100
AcDbBlockReference
 66
0
  2
L_0_02_2
 10
7571196.8200000003
 20
5714606.54000000004
 41
0.50
 42
0.50
 43
0.50
 50
71.66
  0
INSERT
  5
62
100
AcDbEntity
  8
odnowienie_ew
  6
CONTINUOUS
100
AcDbBlockReference
 66
0
  2
L_0_02_1
 10
7571196.8200000003
 20
5714606.54000000004
 41
0.50
 42
0.50
 43
0.50
 50
161.90
  0
INSERT
  5
63
100
AcDbEntity
  8
odnowienie_ew
  6
CONTINUOUS
100
AcDbBlockReference
 66
0
  2
L_0_02_2
 10
7571183.50999999978
 20
5714610.88999999966
 41
0.50
 42
0.50
 43
0.50
 50
341.90
  0
INSERT
  5
64
100
AcDbEntity
  8
odnowienie_ew
  6
CONTINUOUS
100
AcDbBlockReference
 66
0
  2
L_0_02_1
 10
7571183.50999999978
 20
5714610.88999999966
 41
0.50
 42
0.50
 43
0.50
 50
71.65
  0
INSERT
  5
65
100
AcDbEntity
  8
odnowienie_ew
  6
CONTINUOUS
100
AcDbBlockReference
 66
0
  2
L_0_02_2
 10
7571312.41000000015
 20
5714999.46999999974
 41
0.50
 42
0.50
 43
0.50
 50
251.65
  0
MLINE
  5
66
100
AcDbEntity
  8
odnowienie_ew
  6
L_0_02
370
18
100
AcDbMline
  2
L_0_02
340
7
 40
1.0
 70
1
 71
3
 72
4
 73
1
 10
7571312.41000000015
 20
5714999.46999999974
210
0.0
220
0.0
230
1.0
 11
7571312.41000000015
 21
5714999.46999999974
 12
0.993473533231
 22
-0.114062872007
 13
-0.538025668003
 23
0.84292845519
 74
3
 41
0.0
 41
0.25
 41
13.952693405954
 75
0
 11
7571326.51999999955
 21
5714997.84999999963
 12
-0.3146190431
 22
-0.949218024333
 13
0.842863045336
 23
0.538128132332
 74
3
 41
0.0
 41
0.25
 41
411.994594991233
 75
0
 11
7571196.8200000003
 21
5714606.54000000004
 12
-0.950523715125
 22
0.310652003026
 13
0.450594417262
 23
-0.892728778035
 74
3
 41
0.0
 41
0.25
 41
13.752806861863
 75
0
 11
7571183.50999999978
 21
5714610.88999999966
 12
0.314849812012
 22
0.949141504664
 13
-0.892783546723
 23
-0.450485891788
 74
3
 41
0.0
 41
0.25
 41
409.151546650906
 75
0
  0
INSERT
  5
67
100
AcDbEntity
  8
odnowienie_ew
  6
CONTINUOUS
100
AcDbBlockReference
 66
0
  2
L_0_02_1
 10
7571326.51999999955
 20
5714997.84999999963
 41
0.50
 42
0.50
 43
0.50
 50
354.59
  0
INSERT
  5
68
100
AcDbEntity
  8
odnowienie_ew
  6
CONTINUOUS
100
AcDbBlockReference
 66
0
  2
L_0_02_2
 10
7571332.63999999966
 20
5714997.26999999955
 41
0.50
 42
0.50
 43
0.50
 50
174.59
  0
INSERT
  5
69
100
AcDbEntity
  8
odnowienie_ew
  6
CONTINUOUS
100
AcDbBlockReference
 66
0
  2
L_0_02_1
 10
7571332.63999999966
 20
5714997.26999999955
 41
0.50
 42
0.50
 43
0.50
 50
251.64
  0
INSERT
  5
6A
100
AcDbEntity
  8
odnowienie_ew
  6
CONTINUOUS
100
AcDbBlockReference
 66
0
  2
L_0_02_2
 10
7571202.33000000007
 20
5714604.74000000022
 41
0.50
 42
0.50
 43
0.50
 50
71.64
  0
INSERT
  5
6B
100
AcDbEntity
  8
odnowienie_ew
  6
CONTINUOUS
100
AcDbBlockReference
 66
0
  2
L_0_02_1
 10
7571202.33000000007
 20
5714604.74000000022
 41
0.50
 42
0.50
 43
0.50
 50
161.91
  0
INSERT
  5
6C
100
AcDbEntity
  8
odnowienie_ew
  6
CONTINUOUS
100
AcDbBlockReference
 66
0
  2
L_0_02_2
 10
7571196.8200000003
 20
5714606.54000000004
 41
0.50
 42
0.50
 43
0.50
 50
341.91
  0
INSERT
  5
6D
100
AcDbEntity
  8
odnowienie_ew
  6
CONTINUOUS
100
AcDbBlockReference
 66
0
  2
L_0_02_1
 10
7571196.8200000003
 20
5714606.54000000004
 41
0.50
 42
0.50
 43
0.50
 50
71.66
  0
INSERT
  5
6E
100
AcDbEntity
  8
odnowienie_ew
  6
CONTINUOUS
100
AcDbBlockReference
 66
0
  2
L_0_02_2
 10
7571326.51999999955
 20
5714997.84999999963
 41
0.50
 42
0.50
 43
0.50
 50
251.66
  0
MLINE
  5
6F
100
AcDbEntity
  8
odnowienie_ew
  6
L_0_02
370
18
100
AcDbMline
  2
L_0_02
340
7
 40
1.0
 70
1
 71
3
 72
4
 73
1
 10
7571326.51999999955
 20
5714997.84999999963
210
0.0
220
0.0
230
1.0
 11
7571326.51999999955
 21
5714997.84999999963
 12
0.995539232056
 22
-0.094348489323
 13
-0.546455447776
 23
0.837488175198
 74
3
 41
0.0
 41
0.25
 41
5.897422224108
 75
0
 11
7571332.63999999966
 21
5714997.26999999955
 12
-0.315066972666
 22
-0.949069440418
 13
0.837617096286
 23
0.546257814598
 74
3
 41
0.0
 41
0.25
 41
413.344604654566
 75
0
 11
7571202.33000000007
 21
5714604.74000000022
 12
-0.950563893471
 22
0.31052903959
 13
0.450441500042
 23
-0.892805944783
 74
3
 41
0.0
 41
0.25
 41
5.546559324019
 75
0
 11
7571196.8200000003
 21
5714606.54000000004
 12
0.3146190431
 22
0.949218024333
 13
-0.892699631463
 23
-0.450652158529
 74
3
 41
0.0
 41
0.25
 41
411.994594991233
 75
0
  0
INSERT
  5
70
100
AcDbEntity
  8
odnowienie_ew
  6
CONTINUOUS
100
AcDbBlockReference
 66
0
  2
L_0_02_1
 10
7571332.63999999966
 20
5714997.26999999955
 41
0.50
 42
0.50
 43
0.50
 50
354.48
  0
INSERT
  5
71
100
AcDbEntity
  8
odnowienie_ew
  6
CONTINUOUS
100
AcDbBlockReference
 66
0
  2
L_0_02_2
 10
7571339.99000000022
 20
5714996.55999999959
 41
0.50
 42
0.50
 43
0.50
 50
174.48
  0
INSERT
  5
72
100
AcDbEntity
  8
odnowienie_ew
  6
CONTINUOUS
100
AcDbBlockReference
 66
0
  2
L_0_02_1
 10
7571339.99000000022
 20
5714996.55999999959
 41
0.50
 42
0.50
 43
0.50
 50
251.66
  0
INSERT
  5
73
100
AcDbEntity
  8
odnowienie_ew
  6
CONTINUOUS
100
AcDbBlockReference
 66
0
  2
L_0_02_2
 10
7571209.36000000034
 20
5714602.45000000019
 41
0.50
 42
0.50
 43
0.50
 50
71.66
  0
INSERT
  5
74
100
AcDbEntity
  8
odnowienie_ew
  6
CONTINUOUS
100
AcDbBlockReference
 66
0
  2
L_0_02_1
 10
7571209.36000000034
 20
5714602.45000000019
 41
0.50
 42
0.50
 43
0.50
 50
161.96
  0
INSERT
  5
75
100
AcDbEntity
  8
odnowienie_ew
  6
CONTINUOUS
100
AcDbBlockReference
 66
0
  2
L_0_02_2
 10
7571202.33000000007
 20
5714604.74000000022
 41
0.50
 42
0.50
 43
0.50
 50
341.96
  0
INSERT
  5
76
100
AcDbEntity
  8
odnowienie_ew
  6
CONTINUOUS
100
AcDbBlockReference
 66
0
  2
L_0_02_1
 10
7571202.33000000007
 20
5714604.74000000022
 41
0.50
 42
0.50
 43
0.50
 50
71.64
  0
INSERT
  5
77
100
AcDbEntity
  8
odnowienie_ew
  6
CONTINUOUS
100
AcDbBlockReference
 66
0
  2
L_0_02_2
 10
7571332.63999999966
 20
5714997.26999999955
 41
0.50
 42
0.50
 43
0.50
 50
251.64
  0
MLINE
  5
78
100
AcDbEntity
  8
odnowienie_ew
  6
L_0_02
370
18
100
AcDbMline
  2
L_0_02
340
7
 40
1.0
 70
1
 71
3
 72
4
 73
1
 10
7571332.63999999966
 20
5714997.26999999955
210
0.0
220
0.0
230
1.0
 11
7571332.63999999966
 21
5714997.26999999955
 12
0.995366751992
 22
-0.09615107399
 13
-0.545499204752
 23
0.838111339629
 74
3
 41
0.0
 41
0.25
 41
7.134212890225
 75
0
 11
7571339.99000000022
 21
5714996.55999999959
 12
-0.314623248427
 22
-0.949216630464
 13
0.837983806334
 23
0.545695098312
 74
3
 41
0.0
 41
0.25
 41
414.945001173546
 75
0
 11
7571209.36000000034
 21
5714602.45000000019
 12
-0.950825124155
 22
0.309728241006
 13
0.451026115356
 23
-0.892510752466
 74
3
 41
0.0
 41
0.25
 41
7.143578294969
 75
0
 11
7571202.33000000007
 21
5714604.74000000022
 12
0.315066972666
 22
0.949069440418
 13
-0.892616155404
 23
-0.450817478712
 74
3
 41
0.0
 41
0.25
 41
413.344604654566
 75
0
  0
INSERT
  5
79
100
AcDbEntity
  8
odnowienie_ew
  6
CONTINUOUS
100
AcDbBlockReference
 66
0
  2
L_0_02_1
 10
7571216.41999999992
 20
5715037.05999999959
 41
0.50
 42
0.50
 43
0.50
 50
79.81
  0
INSERT
  5
7A
100
AcDbEntity
  8
odnowienie_ew
  6
CONTINUOUS
100
AcDbBlockReference
 66
0
  2
L_0_02_2
 10
7571217.49000000022
 20
5715043.00999999978
 41
0.50
 42
0.50
 43
0.50
 50
259.81
  0
INSERT
  5
7B
100
AcDbEntity
  8
odnowienie_ew
  6
CONTINUOUS
100
AcDbBlockReference
 66
0
  2
L_0_02_1
 10
7571217.49000000022
 20
5715043.00999999978
 41
0.50
 42
0.50
 43
0.50
 50
341.94
  0
INSERT
  5
7C
100
AcDbEntity
  8
odnowienie_ew
  6
CONTINUOUS
100
AcDbBlockReference
 66
0
  2
L_0_02_2
 10
7571269.62999999989
 20
5715026.00999999978
 41
0.50
 42
0.50
 43
0.50
 50
161.94
  0
INSERT
  5
7D
100
AcDbEntity
  8
odnowienie_ew
  6
CONTINUOUS
100
AcDbBlockReference
 66
0
  2
L_0_02_1
 10
7571269.62999999989
 20
5715026.00999999978
 41
0.50
 42
0.50
 43
0.50
 50
251.66
  0
INSERT
  5
7E
100
AcDbEntity
  8
odnowienie_ew
  6
CONTINUOUS
100
AcDbBlockReference
 66
0
  2
L_0_02_2
 10
7571265.58000000007
 20
5715013.79000000004
 41
0.50
 42
0.50
 43
0.50
 50
71.66
  0
INSERT
  5
7F
100
AcDbEntity
  8
odnowienie_ew
  6
CONTINUOUS
100
AcDbBlockReference
 66
0
  2
L_0_02_1
 10
7571265.58000000007
 20
5715013.79000000004
 41
0.50
 42
0.50
 43
0.50
 50
168.53
  0
INSERT
  5
80
100
AcDbEntity
  8
odnowienie_ew
  6
CONTINUOUS
100
AcDbBlockReference
 66
0
  2
L_0_02_2
 10
7571258.62999999989
 20
5715015.20000000019
 41
0.50
 42
0.50
 43
0.50
 50
348.53
  0
INSERT
  5
81
100
AcDbEntity
  8
odnowienie_ew
  6
CONTINUOUS
100
AcDbBlockReference
 66
0
  2
L_0_02_1
 10
7571258.62999999989
 20
5715015.20000000019
 41
0.50
 42
0.50
 43
0.50
 50
157.99
  0
INSERT
  5
82
100
AcDbEntity
  8
odnowienie_ew
  6
CONTINUOUS
100
AcDbBlockReference
 66
0
  2
L_0_02_2
 10
7571238.54000000004
 20
5715023.3200000003
 41
0.50
 42
0.50
 43
0.50
 50
337.99
  0
INSERT
  5
83
100
AcDbEntity
  8
odnowienie_ew
  6
CONTINUOUS
100
AcDbBlockReference
 66
0
  2
L_0_02_1
 10
7571238.54000000004
 20
5715023.3200000003
 41
0.50
 42
0.50
 43
0.50
 50
148.15
  0
INSERT
  5
84
100
AcDbEntity
  8
odnowienie_ew
  6
CONTINUOUS
100
AcDbBlockReference
 66
0
  2
L_0_02_2
 10
7571216.41999999992
 20
5715037.05999999959
 41
0.50
 42
0.50
 43
0.50
 50
328.15
  0
MLINE
  5
85
100
AcDbEntity
  8
odnowienie_ew
  6
L_0_02
370
18
100
AcDbMline
  2
L_0_02
340
7
 40
1.0
 70
1
 71
3
 72
6
 73
1
 10
7571216.41999999992
 20
5715037.05999999959
210
0.0
220
0.0
230
1.0
 11
7571216.41999999992
 21
5715037.05999999959
 12
0.176992773415
 22
0.984212150991
 13
-0.913692458422
 23
-0.406406313217
 74
3
 41
0.0
 41
0.25
 41
5.795444566188
 75
0
 11
7571217.49000000022
 21
5715043.00999999978
 12
0.950741522529
 22
-0.309984769526
 13
-0.513144640592
 23
0.858302148332
 74
3
 41
0.0
 41
0.25
 41
54.591404066317
 75
0
 11
7571269.62999999989
 21
5715026.00999999978
 12
-0.314596059702
 22
-0.949225641889
 13
0.892565131689
 23
0.450918491186
 74
3
 41
0.0
 41
0.25
 41
12.623651385373
 75
0
 11
7571265.58000000007
 21
5715013.79000000004
 12
-0.980034571515
 22
0.19882715769
 13
0.501474400666
 23
-0.865172483079
 74
3
 41
0.0
 41
0.25
 41
6.841586564585
 75
0
 11
7571258.62999999989
 21
5715015.20000000019
 12
-0.927133946389
 22
0.374730096806
 13
-0.287995833444
 23
-0.957631661924
 74
3
 41
0.0
 41
0.25
 41
21.418929368933
 75
0
 11
7571238.54000000004
 21
5715023.3200000003
 12
-0.849462115056
 22
0.527649613934
 13
-0.452858160945
 23
-0.891582573891
 74
3
 41
0.0
 41
0.25
 41
25.790007680212
 75
0
  0
INSERT
  5
86
100
AcDbEntity
  8
odnowienie_ew
  6
CONTINUOUS
100
AcDbBlockReference
 66
0
  2
L_0_02_1
 10
7571290.24000000022
 20
5715009.4299999997
 41
0.50
 42
0.50
 43
0.50
 50
172.72
  0
INSERT
  5
87
100
AcDbEntity
  8
odnowienie_ew
  6
CONTINUOUS
100
AcDbBlockReference
 66
0
  2
L_0_02_2
 10
7571281.78000000026
 20
5715010.50999999978
 41
0.50
 42
0.50
 43
0.50
 50
352.72
  0
INSERT
  5
88
100
AcDbEntity
  8
odnowienie_ew
  6
CONTINUOUS
100
AcDbBlockReference
 66
0
  2
L_0_02_1
 10
7571281.78000000026
 20
5715010.50999999978
 41
0.50
 42
0.50
 43
0.50
 50
168.55
  0
INSERT
  5
89
100
AcDbEntity
  8
odnowienie_ew
  6
CONTINUOUS
100
AcDbBlockReference
 66
0
  2
L_0_02_2
 10
7571265.58000000007
 20
5715013.79000000004
 41
0.50
 42
0.50
 43
0.50
 50
348.55
  0
INSERT
  5
8A
100
AcDbEntity
  8
odnowienie_ew
  6
CONTINUOUS
100
AcDbBlockReference
 66
0
  2
L_0_02_1
 10
7571265.58000000007
 20
5715013.79000000004
 41
0.50
 42
0.50
 43
0.50
 50
71.66
  0
INSERT
  5
8B
100
AcDbEntity
  8
odnowienie_ew
  6
CONTINUOUS
100
AcDbBlockReference
 66
0
  2
L_0_02_2
 10
7571269.62999999989
 20
5715026.00999999978
 41
0.50
 42
0.50
 43
0.50
 50
251.66
  0
INSERT
  5
8C
100
AcDbEntity
  8
odnowienie_ew
  6
CONTINUOUS
100
AcDbBlockReference
 66
0
  2
L_0_02_1
 10
7571269.62999999989
 20
5715026.00999999978
 41
0.50
 42
0.50
 43
0.50
 50
341.92
  0
INSERT
  5
8D
100
AcDbEntity
  8
odnowienie_ew
  6
CONTINUOUS
100
AcDbBlockReference
 66
0
  2
L_0_02_2
 10
7571293.19000000041
 20
5715018.3200000003
 41
0.50
 42
0.50
 43
0.50
 50
161.92
  0
INSERT
  5
8E
100
AcDbEntity
  8
odnowienie_ew
  6
CONTINUOUS
100
AcDbBlockReference
 66
0
  2
L_0_02_1
 10
7571293.19000000041
 20
5715018.3200000003
 41
0.50
 42
0.50
 43
0.50
 50
251.64
  0
INSERT
  5
8F
100
AcDbEntity
  8
odnowienie_ew
  6
CONTINUOUS
100
AcDbBlockReference
 66
0
  2
L_0_02_2
 10
7571290.24000000022
 20
5715009.4299999997
 41
0.50
 42
0.50
 43
0.50
 50
71.64
  0
MLINE
  5
90
100
AcDbEntity
  8
odnowienie_ew
  6
L_0_02
370
18
100
AcDbMline
  2
L_0_02
340
7
 40
1.0
 70
1
 71
3
 72
5
 73
1
 10
7571290.24000000022
 20
5715009.4299999997
210
0.0
220
0.0
230
1.0
 11
7571290.24000000022
 21
5715009.4299999997
 12
-0.991949779603
 22
0.126631886767
 13
0.532635674443
 23
-0.846344633297
 74
3
 41
0.0
 41
0.25
 41
8.27865757312
 75
0
 11
7571281.78000000026
 21
5715010.50999999978
 12
-0.980112524151
 22
0.198442535768
 13
-0.162644935982
 23
-0.986684663304
 74
3
 41
0.0
 41
0.25
 41
16.278714408802
 75
0
 11
7571265.58000000007
 21
5715013.79000000004
 12
0.314596059702
 22
0.949225641889
 13
-0.865074066642
 23
-0.501644155974
 74
3
 41
0.0
 41
0.25
 41
12.623651385373
 75
0
 11
7571269.62999999989
 21
5715026.00999999978
 12
0.95064189691
 22
-0.310290160721
 13
-0.45077512579
 23
0.892637544566
 74
3
 41
0.0
 41
0.25
 41
24.533254427467
 75
0
 11
7571293.19000000041
 21
5715018.3200000003
 12
-0.314946340012
 22
-0.949109478887
 13
0.892720706279
 23
0.450610408868
 74
3
 41
0.0
 41
0.25
 41
9.116674970965
 75
0
  0
INSERT
  5
91
100
AcDbEntity
  8
odnowienie_ew
  6
CONTINUOUS
100
AcDbBlockReference
 66
0
  2
L_0_02_1
 10
7571314.70000000019
 20
5715006.36000000034
 41
0.50
 42
0.50
 43
0.50
 50
173.82
  0
INSERT
  5
92
100
AcDbEntity
  8
odnowienie_ew
  6
CONTINUOUS
100
AcDbBlockReference
 66
0
  2
L_0_02_2
 10
7571311.46999999974
 20
5715006.70999999996
 41
0.50
 42
0.50
 43
0.50
 50
353.82
  0
INSERT
  5
93
100
AcDbEntity
  8
odnowienie_ew
  6
CONTINUOUS
100
AcDbBlockReference
 66
0
  2
L_0_02_1
 10
7571311.46999999974
 20
5715006.70999999996
 41
0.50
 42
0.50
 43
0.50
 50
172.70
  0
INSERT
  5
94
100
AcDbEntity
  8
odnowienie_ew
  6
CONTINUOUS
100
AcDbBlockReference
 66
0
  2
L_0_02_2
 10
7571290.24000000022
 20
5715009.4299999997
 41
0.50
 42
0.50
 43
0.50
 50
352.70
  0
INSERT
  5
95
100
AcDbEntity
  8
odnowienie_ew
  6
CONTINUOUS
100
AcDbBlockReference
 66
0
  2
L_0_02_1
 10
7571290.24000000022
 20
5715009.4299999997
 41
0.50
 42
0.50
 43
0.50
 50
71.64
  0
INSERT
  5
96
100
AcDbEntity
  8
odnowienie_ew
  6
CONTINUOUS
100
AcDbBlockReference
 66
0
  2
L_0_02_2
 10
7571293.19000000041
 20
5715018.3200000003
 41
0.50
 42
0.50
 43
0.50
 50
251.64
  0
INSERT
  5
97
100
AcDbEntity
  8
odnowienie_ew
  6
CONTINUOUS
100
AcDbBlockReference
 66
0
  2
L_0_02_1
 10
7571293.19000000041
 20
5715018.3200000003
 41
0.50
 42
0.50
 43
0.50
 50
341.93
  0
INSERT
  5
98
100
AcDbEntity
  8
odnowienie_ew
  6
CONTINUOUS
100
AcDbBlockReference
 66
0
  2
L_0_02_2
 10
7571337.29000000004
 20
5715003.9299999997
 41
0.50
 42
0.50
 43
0.50
 50
161.93
  0
INSERT
  5
99
100
AcDbEntity
  8
odnowienie_ew
  6
CONTINUOUS
100
AcDbBlockReference
 66
0
  2
L_0_02_1
 10
7571337.29000000004
 20
5715003.9299999997
 41
0.50
 42
0.50
 43
0.50
 50
173.86
  0
INSERT
  5
9A
100
AcDbEntity
  8
odnowienie_ew
  6
CONTINUOUS
100
AcDbBlockReference
 66
0
  2
L_0_02_2
 10
7571314.70000000019
 20
5715006.36000000034
 41
0.50
 42
0.50
 43
0.50
 50
353.86
  0
MLINE
  5
9B
100
AcDbEntity
  8
odnowienie_ew
  6
L_0_02
370
18
100
AcDbMline
  2
L_0_02
340
7
 40
1.0
 70
1
 71
3
 72
5
 73
1
 10
7571314.70000000019
 20
5715006.36000000034
210
0.0
220
0.0
230
1.0
 11
7571314.70000000019
 21
5715006.36000000034
 12
-0.994180348751
 22
0.107728520633
 13
-0.107340624927
 23
-0.994222304236
 74
3
 41
0.0
 41
0.25
 41
2.998907509091
 75
0
 11
7571311.46999999974
 21
5715006.70999999996
 12
-0.991892238513
 22
0.127081812933
 13
-0.117410740775
 23
-0.993083439571
 74
3
 41
0.0
 41
0.25
 41
21.153534754288
 75
0
 11
7571290.24000000022
 21
5715009.4299999997
 12
0.314946340012
 22
0.949109478887
 13
-0.846465410827
 23
-0.532443713713
 74
3
 41
0.0
 41
0.25
 41
9.116674970965
 75
0
 11
7571293.19000000041
 21
5715018.3200000003
 12
0.950669045044
 22
-0.310206974124
 13
-0.45064946696
 23
0.892700990214
 74
3
 41
0.0
 41
0.25
 41
46.138383243915
 75
0
 11
7571337.29000000004
 21
5715003.9299999997
 12
-0.994264108377
 22
0.106952712882
 13
0.977762402886
 23
-0.209715720685
 74
3
 41
0.0
 41
0.25
 41
22.470321300465
 75
0
  0
INSERT
  5
9C
100
AcDbEntity
  8
odnowienie_ew
  6
CONTINUOUS
100
AcDbBlockReference
 66
0
  2
L_0_02_1
 10
7571297.62000000011
 20
5715021.08000000007
 41
0.50
 42
0.50
 43
0.50
 50
341.94
  0
INSERT
  5
9D
100
AcDbEntity
  8
odnowienie_ew
  6
CONTINUOUS
100
AcDbBlockReference
 66
0
  2
L_0_02_2
 10
7571315.0700000003
 20
5715015.38999999966
 41
0.50
 42
0.50
 43
0.50
 50
161.94
  0
INSERT
  5
9E
100
AcDbEntity
  8
odnowienie_ew
  6
CONTINUOUS
100
AcDbBlockReference
 66
0
  2
L_0_02_1
 10
7571315.0700000003
 20
5715015.38999999966
 41
0.50
 42
0.50
 43
0.50
 50
341.93
  0
INSERT
  5
9F
100
AcDbEntity
  8
odnowienie_ew
  6
CONTINUOUS
100
AcDbBlockReference
 66
0
  2
L_0_02_2
 10
7571329.50999999978
 20
5715010.6799999997
 41
0.50
 42
0.50
 43
0.50
 50
161.93
  0
INSERT
  5
A0
100
AcDbEntity
  8
odnowienie_ew
  6
CONTINUOUS
100
AcDbBlockReference
 66
0
  2
L_0_02_1
 10
7571329.50999999978
 20
5715010.6799999997
 41
0.50
 42
0.50
 43
0.50
 50
341.93
  0
INSERT
  5
A1
100
AcDbEntity
  8
odnowienie_ew
  6
CONTINUOUS
100
AcDbBlockReference
 66
0
  2
L_0_02_2
 10
7571346.91999999992
 20
5715005.0
 41
0.50
 42
0.50
 43
0.50
 50
161.93
  0
INSERT
  5
A2
100
AcDbEntity
  8
odnowienie_ew
  6
CONTINUOUS
100
AcDbBlockReference
 66
0
  2
L_0_02_1
 10
7571346.91999999992
 20
5715005.0
 41
0.50
 42
0.50
 43
0.50
 50
341.92
  0
INSERT
  5
A3
100
AcDbEntity
  8
odnowienie_ew
  6
CONTINUOUS
100
AcDbBlockReference
 66
0
  2
L_0_02_2
 10
7571356.54000000004
 20
5715001.86000000034
 41
0.50
 42
0.50
 43
0.50
 50
161.92
  0
INSERT
  5
A4
100
AcDbEntity
  8
odnowienie_ew
  6
CONTINUOUS
100
AcDbBlockReference
 66
0
  2
L_0_02_1
 10
7571356.54000000004
 20
5715001.86000000034
 41
0.50
 42
0.50
 43
0.50
 50
173.86
  0
INSERT
  5
A5
100
AcDbEntity
  8
odnowienie_ew
  6
CONTINUOUS
100
AcDbBlockReference
 66
0
  2
L_0_02_2
 10
7571337.29000000004
 20
5715003.9299999997
 41
0.50
 42
0.50
 43
0.50
 50
353.86
  0
INSERT
  5
A6
100
AcDbEntity
  8
odnowienie_ew
  6
CONTINUOUS
100
AcDbBlockReference
 66
0
  2
L_0_02_1
 10
7571337.29000000004
 20
5715003.9299999997
 41
0.50
 42
0.50
 43
0.50
 50
161.93
  0
INSERT
  5
A7
100
AcDbEntity
  8
odnowienie_ew
  6
CONTINUOUS
100
AcDbBlockReference
 66
0
  2
L_0_02_2
 10
7571293.19000000041
 20
5715018.3200000003
 41
0.50
 42
0.50
 43
0.50
 50
341.93
  0
INSERT
  5
A8
100
AcDbEntity
  8
odnowienie_ew
  6
CONTINUOUS
100
AcDbBlockReference
 66
0
  2
L_0_02_1
 10
7571293.19000000041
 20
5715018.3200000003
 41
0.50
 42
0.50
 43
0.50
 50
161.92
  0
INSERT
  5
A9
100
AcDbEntity
  8
odnowienie_ew
  6
CONTINUOUS
100
AcDbBlockReference
 66
0
  2
L_0_02_2
 10
7571269.62999999989
 20
5715026.00999999978
 41
0.50
 42
0.50
 43
0.50
 50
341.92
  0
INSERT
  5
AA
100
AcDbEntity
  8
odnowienie_ew
  6
CONTINUOUS
100
AcDbBlockReference
 66
0
  2
L_0_02_1
 10
7571269.62999999989
 20
5715026.00999999978
 41
0.50
 42
0.50
 43
0.50
 50
161.94
  0
INSERT
  5
AB
100
AcDbEntity
  8
odnowienie_ew
  6
CONTINUOUS
100
AcDbBlockReference
 66
0
  2
L_0_02_2
 10
7571217.49000000022
 20
5715043.00999999978
 41
0.50
 42
0.50
 43
0.50
 50
341.94
  0
INSERT
  5
AC
100
AcDbEntity
  8
odnowienie_ew
  6
CONTINUOUS
100
AcDbBlockReference
 66
0
  2
L_0_02_1
 10
7571217.49000000022
 20
5715043.00999999978
 41
0.50
 42
0.50
 43
0.50
 50
80.61
  0
INSERT
  5
AD
100
AcDbEntity
  8
odnowienie_ew
  6
CONTINUOUS
100
AcDbBlockReference
 66
0
  2
L_0_02_2
 10
7571218.15000000037
 20
5715047.0
 41
0.50
 42
0.50
 43
0.50
 50
260.61
  0
INSERT
  5
AE
100
AcDbEntity
  8
odnowienie_ew
  6
CONTINUOUS
100
AcDbBlockReference
 66
0
  2
L_0_02_1
 10
7571218.15000000037
 20
5715047.0
 41
0.50
 42
0.50
 43
0.50
 50
341.92
  0
INSERT
  5
AF
100
AcDbEntity
  8
odnowienie_ew
  6
CONTINUOUS
100
AcDbBlockReference
 66
0
  2
L_0_02_2
 10
7571226.96999999974
 20
5715044.12000000011
 41
0.50
 42
0.50
 43
0.50
 50
161.92
  0
INSERT
  5
B0
100
AcDbEntity
  8
odnowienie_ew
  6
CONTINUOUS
100
AcDbBlockReference
 66
0
  2
L_0_02_1
 10
7571226.96999999974
 20
5715044.12000000011
 41
0.50
 42
0.50
 43
0.50
 50
341.97
  0
INSERT
  5
B1
100
AcDbEntity
  8
odnowienie_ew
  6
CONTINUOUS
100
AcDbBlockReference
 66
0
  2
L_0_02_2
 10
7571238.58000000007
 20
5715040.33999999985
 41
0.50
 42
0.50
 43
0.50
 50
161.97
  0
INSERT
  5
B2
100
AcDbEntity
  8
odnowienie_ew
  6
CONTINUOUS
100
AcDbBlockReference
 66
0
  2
L_0_02_1
 10
7571238.58000000007
 20
5715040.33999999985
 41
0.50
 42
0.50
 43
0.50
 50
341.93
  0
INSERT
  5
B3
100
AcDbEntity
  8
odnowienie_ew
  6
CONTINUOUS
100
AcDbBlockReference
 66
0
  2
L_0_02_2
 10
7571255.87000000011
 20
5715034.70000000019
 41
0.50
 42
0.50
 43
0.50
 50
161.93
  0
INSERT
  5
B4
100
AcDbEntity
  8
odnowienie_ew
  6
CONTINUOUS
100
AcDbBlockReference
 66
0
  2
L_0_02_1
 10
7571255.87000000011
 20
5715034.70000000019
 41
0.50
 42
0.50
 43
0.50
 50
341.92
  0
INSERT
  5
B5
100
AcDbEntity
  8
odnowienie_ew
  6
CONTINUOUS
100
AcDbBlockReference
 66
0
  2
L_0_02_2
 10
7571280.37999999989
 20
5715026.70000000019
 41
0.50
 42
0.50
 43
0.50
 50
161.92
  0
INSERT
  5
B6
100
AcDbEntity
  8
odnowienie_ew
  6
CONTINUOUS
100
AcDbBlockReference
 66
0
  2
L_0_02_1
 10
7571280.37999999989
 20
5715026.70000000019
 41
0.50
 42
0.50
 43
0.50
 50
341.94
  0
INSERT
  5
B7
100
AcDbEntity
  8
odnowienie_ew
  6
CONTINUOUS
100
AcDbBlockReference
 66
0
  2
L_0_02_2
 10
7571297.62000000011
 20
5715021.08000000007
 41
0.50
 42
0.50
 43
0.50
 50
161.94
  0
MLINE
  5
B8
100
AcDbEntity
  8
odnowienie_ew
  6
L_0_02
370
18
100
AcDbMline
  2
L_0_02
340
7
 40
1.0
 70
1
 71
3
 72
14
 73
1
 10
7571297.62000000011
 20
5715021.08000000007
210
0.0
220
0.0
230
1.0
 11
7571297.62000000011
 21
5715021.08000000007
 12
0.950733330442
 22
-0.310009894014
 13
0.309971900511
 23
0.950745718315
 74
3
 41
0.0
 41
0.25
 41
18.104252913458
 75
0
 11
7571315.0700000003
 21
5715015.38999999966
 12
0.950704524718
 22
-0.310098221021
 13
0.310054057852
 23
0.950718928606
 74
3
 41
0.0
 41
0.25
 41
14.938735957432
 75
0
 11
7571329.50999999978
 21
5715010.6799999997
 12
0.950684343985
 22
-0.310160084636
 13
0.310129152993
 23
0.950694434855
 74
3
 41
0.0
 41
0.25
 41
18.063123709564
 75
0
 11
7571346.91999999992
 21
5715005.0
 12
0.95064115457
 22
-0.310292435031
 13
0.310226260585
 23
0.950662751581
 74
3
 41
0.0
 41
0.25
 41
9.869486152965
 75
0
 11
7571356.54000000004
 21
5715001.86000000034
 12
-0.99426804652
 22
0.106916096398
 13
0.977756837818
 23
-0.209741665149
 74
3
 41
0.0
 41
0.25
 41
19.110976214989
 75
0
 11
7571337.29000000004
 21
5715003.9299999997
 12
-0.950669045044
 22
0.310206974124
 13
-0.209697716303
 23
-0.977766264389
 74
3
 41
0.0
 41
0.25
 41
46.138383243915
 75
0
 11
7571293.19000000041
 21
5715018.3200000003
 12
-0.95064189691
 22
0.310290160721
 13
-0.310248567719
 23
-0.950655471887
 74
3
 41
0.0
 41
0.25
 41
24.533254427467
 75
0
 11
7571269.62999999989
 21
5715026.00999999978
 12
-0.950741522529
 22
0.309984769526
 13
-0.310137469124
 23
-0.950691721982
 74
3
 41
0.0
 41
0.25
 41
54.591404066317
 75
0
 11
7571217.49000000022
 21
5715043.00999999978
 12
0.16319594656
 22
0.986593676762
 13
-0.854688883808
 23
-0.519140551195
 74
3
 41
0.0
 41
0.25
 41
3.794218095254
 75
0
 11
7571218.15000000037
 21
5715047.0
 12
0.950605456488
 22
-0.310401781721
 13
-0.518953084403
 23
0.85480272355
 74
3
 41
0.0
 41
0.25
 41
9.028297256942
 75
0
 11
7571226.96999999974
 21
5715044.12000000011
 12
0.950871431483
 22
-0.309586047472
 13
0.309993943122
 23
0.950738531473
 74
3
 41
0.0
 41
0.25
 41
11.959852579362
 75
0
 11
7571238.58000000007
 21
5715040.33999999985
 12
0.9506981257
 22
-0.310117838555
 13
0.30985195513
 23
0.950784815772
 74
3
 41
0.0
 41
0.25
 41
17.936635202739
 75
0
 11
7571255.87000000011
 21
5715034.70000000019
 12
0.950642819547
 22
-0.310287334004
 13
0.310202587512
 23
0.950670476401
 74
3
 41
0.0
 41
0.25
 41
25.532554178922
 75
0
 11
7571280.37999999989
 21
5715026.70000000019
 12
0.950758104669
 22
-0.309933906513
 13
0.310110625616
 23
0.950700478532
 74
3
 41
0.0
 41
0.25
 41
17.882898279342
 75
0
  0
INSERT
  5
B9
100
AcDbEntity
  8
odnowienie_ew
  6
CONTINUOUS
100
AcDbBlockReference
 66
0
  2
L_0_02_1
 10
7571257.25
 20
5715096.96999999974
 41
0.50
 42
0.50
 43
0.50
 50
336.85
  0
INSERT
  5
BA
100
AcDbEntity
  8
odnowienie_ew
  6
CONTINUOUS
100
AcDbBlockReference
 66
0
  2
L_0_02_2
 10
7571273.90000000037
 20
5715089.84999999963
 41
0.50
 42
0.50
 43
0.50
 50
156.85
  0
INSERT
  5
BB
100
AcDbEntity
  8
odnowienie_ew
  6
CONTINUOUS
100
AcDbBlockReference
 66
0
  2
L_0_02_1
 10
7571273.90000000037
 20
5715089.84999999963
 41
0.50
 42
0.50
 43
0.50
 50
251.90
  0
INSERT
  5
BC
100
AcDbEntity
  8
odnowienie_ew
  6
CONTINUOUS
100
AcDbBlockReference
 66
0
  2
L_0_02_2
 10
7571255.87000000011
 20
5715034.70000000019
 41
0.50
 42
0.50
 43
0.50
 50
71.90
  0
INSERT
  5
BD
100
AcDbEntity
  8
odnowienie_ew
  6
CONTINUOUS
100
AcDbBlockReference
 66
0
  2
L_0_02_1
 10
7571255.87000000011
 20
5715034.70000000019
 41
0.50
 42
0.50
 43
0.50
 50
161.93
  0
INSERT
  5
BE
100
AcDbEntity
  8
odnowienie_ew
  6
CONTINUOUS
100
AcDbBlockReference
 66
0
  2
L_0_02_2
 10
7571238.58000000007
 20
5715040.33999999985
 41
0.50
 42
0.50
 43
0.50
 50
341.93
  0
INSERT
  5
BF
100
AcDbEntity
  8
odnowienie_ew
  6
CONTINUOUS
100
AcDbBlockReference
 66
0
  2
L_0_02_1
 10
7571238.58000000007
 20
5715040.33999999985
 41
0.50
 42
0.50
 43
0.50
 50
71.75
  0
INSERT
  5
C0
100
AcDbEntity
  8
odnowienie_ew
  6
CONTINUOUS
100
AcDbBlockReference
 66
0
  2
L_0_02_2
 10
7571257.25
 20
5715096.96999999974
 41
0.50
 42
0.50
 43
0.50
 50
251.75
  0
MLINE
  5
C1
100
AcDbEntity
  8
odnowienie_ew
  6
L_0_02
370
18
100
AcDbMline
  2
L_0_02
340
7
 40
1.0
 70
1
 71
3
 72
4
 73
1
 10
7571257.25
 20
5715096.96999999974
210
0.0
220
0.0
230
1.0
 11
7571257.25
 21
5715096.96999999974
 12
0.919458936095
 22
-0.393186043541
 13
-0.411518759462
 23
0.91140128956
 74
3
 41
0.0
 41
0.25
 41
17.858475916377
 75
0
 11
7571273.90000000037
 21
5715089.84999999963
 12
-0.31074185065
 22
-0.950494346251
 13
0.910888435213
 23
0.412652709425
 74
3
 41
0.0
 41
0.25
 41
57.772438762497
 75
0
 11
7571255.87000000011
 21
5715034.70000000019
 12
-0.9506981257
 22
0.310117838555
 13
0.45266602081
 23
-0.89168014086
 74
3
 41
0.0
 41
0.25
 41
17.936635202739
 75
0
 11
7571238.58000000007
 21
5715040.33999999985
 12
0.313106728708
 22
0.949717945728
 13
-0.892242807954
 23
-0.451555945209
 74
3
 41
0.0
 41
0.25
 41
59.378229891424
 75
0
  0
INSERT
  5
C2
100
AcDbEntity
  8
odnowienie_ew
  6
CONTINUOUS
100
AcDbBlockReference
 66
0
  2
L_0_02_1
 10
7571273.90000000037
 20
5715089.84999999963
 41
0.50
 42
0.50
 43
0.50
 50
342.30
  0
INSERT
  5
C3
100
AcDbEntity
  8
odnowienie_ew
  6
CONTINUOUS
100
AcDbBlockReference
 66
0
  2
L_0_02_2
 10
7571298.33999999985
 20
5715082.04999999981
 41
0.50
 42
0.50
 43
0.50
 50
162.30
  0
INSERT
  5
C4
100
AcDbEntity
  8
odnowienie_ew
  6
CONTINUOUS
100
AcDbBlockReference
 66
0
  2
L_0_02_1
 10
7571298.33999999985
 20
5715082.04999999981
 41
0.50
 42
0.50
 43
0.50
 50
252.02
  0
INSERT
  5
C5
100
AcDbEntity
  8
odnowienie_ew
  6
CONTINUOUS
100
AcDbBlockReference
 66
0
  2
L_0_02_2
 10
7571280.37999999989
 20
5715026.70000000019
 41
0.50
 42
0.50
 43
0.50
 50
72.02
  0
INSERT
  5
C6
100
AcDbEntity
  8
odnowienie_ew
  6
CONTINUOUS
100
AcDbBlockReference
 66
0
  2
L_0_02_1
 10
7571280.37999999989
 20
5715026.70000000019
 41
0.50
 42
0.50
 43
0.50
 50
161.92
  0
INSERT
  5
C7
100
AcDbEntity
  8
odnowienie_ew
  6
CONTINUOUS
100
AcDbBlockReference
 66
0
  2
L_0_02_2
 10
7571255.87000000011
 20
5715034.70000000019
 41
0.50
 42
0.50
 43
0.50
 50
341.92
  0
INSERT
  5
C8
100
AcDbEntity
  8
odnowienie_ew
  6
CONTINUOUS
100
AcDbBlockReference
 66
0
  2
L_0_02_1
 10
7571255.87000000011
 20
5715034.70000000019
 41
0.50
 42
0.50
 43
0.50
 50
71.90
  0
INSERT
  5
C9
100
AcDbEntity
  8
odnowienie_ew
  6
CONTINUOUS
100
AcDbBlockReference
 66
0
  2
L_0_02_2
 10
7571273.90000000037
 20
5715089.84999999963
 41
0.50
 42
0.50
 43
0.50
 50
251.90
  0
MLINE
  5
CA
100
AcDbEntity
  8
odnowienie_ew
  6
L_0_02
370
18
100
AcDbMline
  2
L_0_02
340
7
 40
1.0
 70
1
 71
3
 72
4
 73
1
 10
7571273.90000000037
 20
5715089.84999999963
210
0.0
220
0.0
230
1.0
 11
7571273.90000000037
 21
5715089.84999999963
 12
0.952659211219
 22
-0.304040173792
 13
-0.455510947972
 23
0.890230181626
 74
3
 41
0.0
 41
0.25
 41
25.404504477218
 75
0
 11
7571298.33999999985
 21
5715082.04999999981
 12
-0.308639174891
 22
-0.951179194328
 13
0.889725980416
 23
0.456494994247
 74
3
 41
0.0
 41
0.25
 41
57.940927986735
 75
0
 11
7571280.37999999989
 21
5715026.70000000019
 12
-0.950642819547
 22
0.310287334004
 13
0.453572225886
 23
-0.891219521726
 74
3
 41
0.0
 41
0.25
 41
25.532554178922
 75
0
 11
7571255.87000000011
 21
5715034.70000000019
 12
0.31074185065
 22
0.950494346251
 13
-0.891720490327
 23
-0.452586529993
 74
3
 41
0.0
 41
0.25
 41
57.772438762497
 75
0
  0
INSERT
  5
CB
100
AcDbEntity
  8
odnowienie_ew
  6
CONTINUOUS
100
AcDbBlockReference
 66
0
  2
L_0_02_1
 10
7571298.33999999985
 20
5715082.04999999981
 41
0.50
 42
0.50
 43
0.50
 50
345.23
  0
INSERT
  5
CC
100
AcDbEntity
  8
odnowienie_ew
  6
CONTINUOUS
100
AcDbBlockReference
 66
0
  2
L_0_02_2
 10
7571315.70999999996
 20
5715077.46999999974
 41
0.50
 42
0.50
 43
0.50
 50
165.23
  0
INSERT
  5
CD
100
AcDbEntity
  8
odnowienie_ew
  6
CONTINUOUS
100
AcDbBlockReference
 66
0
  2
L_0_02_1
 10
7571315.70999999996
 20
5715077.46999999974
 41
0.50
 42
0.50
 43
0.50
 50
252.21
  0
INSERT
  5
CE
100
AcDbEntity
  8
odnowienie_ew
  6
CONTINUOUS
100
AcDbBlockReference
 66
0
  2
L_0_02_2
 10
7571297.62000000011
 20
5715021.08000000007
 41
0.50
 42
0.50
 43
0.50
 50
72.21
  0
INSERT
  5
CF
100
AcDbEntity
  8
odnowienie_ew
  6
CONTINUOUS
100
AcDbBlockReference
 66
0
  2
L_0_02_1
 10
7571297.62000000011
 20
5715021.08000000007
 41
0.50
 42
0.50
 43
0.50
 50
161.94
  0
INSERT
  5
D0
100
AcDbEntity
  8
odnowienie_ew
  6
CONTINUOUS
100
AcDbBlockReference
 66
0
  2
L_0_02_2
 10
7571280.37999999989
 20
5715026.70000000019
 41
0.50
 42
0.50
 43
0.50
 50
341.94
  0
INSERT
  5
D1
100
AcDbEntity
  8
odnowienie_ew
  6
CONTINUOUS
100
AcDbBlockReference
 66
0
  2
L_0_02_1
 10
7571280.37999999989
 20
5715026.70000000019
 41
0.50
 42
0.50
 43
0.50
 50
72.02
  0
INSERT
  5
D2
100
AcDbEntity
  8
odnowienie_ew
  6
CONTINUOUS
100
AcDbBlockReference
 66
0
  2
L_0_02_2
 10
7571298.33999999985
 20
5715082.04999999981
 41
0.50
 42
0.50
 43
0.50
 50
252.02
  0
MLINE
  5
D3
100
AcDbEntity
  8
odnowienie_ew
  6
L_0_02
370
18
100
AcDbMline
  2
L_0_02
340
7
 40
1.0
 70
1
 71
3
 72
4
 73
1
 10
7571298.33999999985
 20
5715082.04999999981
210
0.0
220
0.0
230
1.0
 11
7571298.33999999985
 21
5715082.04999999981
 12
0.966951840266
 22
-0.254959092024
 13
-0.479087151843
 23
0.877767338729
 74
3
 41
0.0
 41
0.25
 41
17.713666107022
 75
0
 11
7571315.70999999996
 21
5715077.46999999974
 12
-0.305467997668
 22
-0.952202343203
 13
0.876967926248
 23
0.480548911489
 74
3
 41
0.0
 41
0.25
 41
58.970606210649
 75
0
 11
7571297.62000000011
 21
5715021.08000000007
 12
-0.950758104669
 22
0.309933906513
 13
0.455221942288
 23
-0.890378000211
 74
3
 41
0.0
 41
0.25
 41
17.882898279342
 75
0
 11
7571280.37999999989
 21
5715026.70000000019
 12
0.308639174891
 22
0.951179194328
 13
-0.891135197497
 23
-0.45373787563
 74
3
 41
0.0
 41
0.25
 41
57.940927986735
 75
0
  0
INSERT
  5
D4
100
AcDbEntity
  8
odnowienie_ew
  6
CONTINUOUS
100
AcDbBlockReference
 66
0
  2
L_0_02_1
 10
7571335.12000000011
 20
5715076.12999999989
 41
0.50
 42
0.50
 43
0.50
 50
358.77
  0
INSERT
  5
D5
100
AcDbEntity
  8
odnowienie_ew
  6
CONTINUOUS
100
AcDbBlockReference
 66
0
  2
L_0_02_2
 10
7571350.0700000003
 20
5715075.80999999959
 41
0.50
 42
0.50
 43
0.50
 50
178.77
  0
INSERT
  5
D6
100
AcDbEntity
  8
odnowienie_ew
  6
CONTINUOUS
100
AcDbBlockReference
 66
0
  2
L_0_02_1
 10
7571350.0700000003
 20
5715075.80999999959
 41
0.50
 42
0.50
 43
0.50
 50
252.48
  0
INSERT
  5
D7
100
AcDbEntity
  8
odnowienie_ew
  6
CONTINUOUS
100
AcDbBlockReference
 66
0
  2
L_0_02_2
 10
7571329.50999999978
 20
5715010.6799999997
 41
0.50
 42
0.50
 43
0.50
 50
72.48
  0
INSERT
  5
D8
100
AcDbEntity
  8
odnowienie_ew
  6
CONTINUOUS
100
AcDbBlockReference
 66
0
  2
L_0_02_1
 10
7571329.50999999978
 20
5715010.6799999997
 41
0.50
 42
0.50
 43
0.50
 50
161.93
  0
INSERT
  5
D9
100
AcDbEntity
  8
odnowienie_ew
  6
CONTINUOUS
100
AcDbBlockReference
 66
0
  2
L_0_02_2
 10
7571315.0700000003
 20
5715015.38999999966
 41
0.50
 42
0.50
 43
0.50
 50
341.93
  0
INSERT
  5
DA
100
AcDbEntity
  8
odnowienie_ew
  6
CONTINUOUS
100
AcDbBlockReference
 66
0
  2
L_0_02_1
 10
7571315.0700000003
 20
5715015.38999999966
 41
0.50
 42
0.50
 43
0.50
 50
71.73
  0
INSERT
  5
DB
100
AcDbEntity
  8
odnowienie_ew
  6
CONTINUOUS
100
AcDbBlockReference
 66
0
  2
L_0_02_2
 10
7571335.12000000011
 20
5715076.12999999989
 41
0.50
 42
0.50
 43
0.50
 50
251.73
  0
MLINE
  5
DC
100
AcDbEntity
  8
odnowienie_ew
  6
L_0_02
370
18
100
AcDbMline
  2
L_0_02
340
7
 40
1.0
 70
1
 71
3
 72
4
 73
1
 10
7571335.12000000011
 20
5715076.12999999989
210
0.0
220
0.0
230
1.0
 11
7571335.12000000011
 21
5715076.12999999989
 12
0.999770998475
 22
-0.021399780589
 13
-0.577187703806
 23
0.816611507741
 74
3
 41
0.0
 41
0.25
 41
14.703424357175
 75
0
 11
7571350.0700000003
 21
5715075.80999999959
 12
-0.301033263302
 22
-0.953613639996
 13
0.812825765121
 23
0.582506888849
 74
3
 41
0.0
 41
0.25
 41
68.048100266456
 75
0
 11
7571329.50999999978
 21
5715010.6799999997
 12
-0.950704524718
 22
0.310098221021
 13
0.4572157156
 23
-0.889355828343
 74
3
 41
0.0
 41
0.25
 41
14.938735957432
 75
0
 11
7571315.0700000003
 21
5715015.38999999966
 12
0.313459224599
 22
0.949601660968
 13
-0.892321939909
 23
-0.451399552012
 74
3
 41
0.0
 41
0.25
 41
63.71366234058
 75
0
  0
INSERT
  5
DD
100
AcDbEntity
  8
odnowienie_ew
  6
CONTINUOUS
100
AcDbBlockReference
 66
0
  2
L_0_02_1
 10
7571350.0700000003
 20
5715075.80999999959
 41
0.50
 42
0.50
 43
0.50
 50
1.69
  0
INSERT
  5
DE
100
AcDbEntity
  8
odnowienie_ew
  6
CONTINUOUS
100
AcDbBlockReference
 66
0
  2
L_0_02_2
 10
7571371.78000000026
 20
5715076.45000000019
 41
0.50
 42
0.50
 43
0.50
 50
181.69
  0
INSERT
  5
DF
100
AcDbEntity
  8
odnowienie_ew
  6
CONTINUOUS
100
AcDbBlockReference
 66
0
  2
L_0_02_1
 10
7571371.78000000026
 20
5715076.45000000019
 41
0.50
 42
0.50
 43
0.50
 50
250.82
  0
INSERT
  5
E0
100
AcDbEntity
  8
odnowienie_ew
  6
CONTINUOUS
100
AcDbBlockReference
 66
0
  2
L_0_02_2
 10
7571346.91999999992
 20
5715005.0
 41
0.50
 42
0.50
 43
0.50
 50
70.82
  0
INSERT
  5
E1
100
AcDbEntity
  8
odnowienie_ew
  6
CONTINUOUS
100
AcDbBlockReference
 66
0
  2
L_0_02_1
 10
7571346.91999999992
 20
5715005.0
 41
0.50
 42
0.50
 43
0.50
 50
161.93
  0
INSERT
  5
E2
100
AcDbEntity
  8
odnowienie_ew
  6
CONTINUOUS
100
AcDbBlockReference
 66
0
  2
L_0_02_2
 10
7571329.50999999978
 20
5715010.6799999997
 41
0.50
 42
0.50
 43
0.50
 50
341.93
  0
INSERT
  5
E3
100
AcDbEntity
  8
odnowienie_ew
  6
CONTINUOUS
100
AcDbBlockReference
 66
0
  2
L_0_02_1
 10
7571329.50999999978
 20
5715010.6799999997
 41
0.50
 42
0.50
 43
0.50
 50
72.48
  0
INSERT
  5
E4
100
AcDbEntity
  8
odnowienie_ew
  6
CONTINUOUS
100
AcDbBlockReference
 66
0
  2
L_0_02_2
 10
7571350.0700000003
 20
5715075.80999999959
 41
0.50
 42
0.50
 43
0.50
 50
252.48
  0
MLINE
  5
E5
100
AcDbEntity
  8
odnowienie_ew
  6
L_0_02
370
18
100
AcDbMline
  2
L_0_02
340
7
 40
1.0
 70
1
 71
3
 72
4
 73
1
 10
7571350.0700000003
 20
5715075.80999999959
210
0.0
220
0.0
230
1.0
 11
7571350.0700000003
 21
5715075.80999999959
 12
0.999565762472
 22
0.029466701455
 13
-0.602991419952
 23
0.797747671551
 74
3
 41
0.0
 41
0.25
 41
21.469431392169
 75
0
 11
7571371.78000000026
 21
5715076.45000000019
 12
-0.328612907957
 22
-0.944464693212
 13
0.806424191338
 23
0.591337487079
 74
3
 41
0.0
 41
0.25
 41
75.401319222095
 75
0
 11
7571346.91999999992
 21
5715005.0
 12
-0.950684343985
 22
0.310160084636
 13
0.444217066304
 23
-0.895919191671
 74
3
 41
0.0
 41
0.25
 41
18.063123709564
 75
0
 11
7571329.50999999978
 21
5715010.6799999997
 12
0.301033263302
 22
0.953613639996
 13
-0.889370703849
 23
-0.457186779265
 74
3
 41
0.0
 41
0.25
 41
68.048100266456
 75
0
  0
INSERT
  5
E6
100
AcDbEntity
  8
odnowienie_ew
  6
CONTINUOUS
100
AcDbBlockReference
 66
0
  2
L_0_02_1
 10
7571315.0700000003
 20
5715015.38999999966
 41
0.50
 42
0.50
 43
0.50
 50
161.94
  0
INSERT
  5
E7
100
AcDbEntity
  8
odnowienie_ew
  6
CONTINUOUS
100
AcDbBlockReference
 66
0
  2
L_0_02_2
 10
7571297.62000000011
 20
5715021.08000000007
 41
0.50
 42
0.50
 43
0.50
 50
341.94
  0
INSERT
  5
E8
100
AcDbEntity
  8
odnowienie_ew
  6
CONTINUOUS
100
AcDbBlockReference
 66
0
  2
L_0_02_1
 10
7571297.62000000011
 20
5715021.08000000007
 41
0.50
 42
0.50
 43
0.50
 50
72.21
  0
INSERT
  5
E9
100
AcDbEntity
  8
odnowienie_ew
  6
CONTINUOUS
100
AcDbBlockReference
 66
0
  2
L_0_02_2
 10
7571315.70999999996
 20
5715077.46999999974
 41
0.50
 42
0.50
 43
0.50
 50
252.21
  0
INSERT
  5
EA
100
AcDbEntity
  8
odnowienie_ew
  6
CONTINUOUS
100
AcDbBlockReference
 66
0
  2
L_0_02_1
 10
7571315.70999999996
 20
5715077.46999999974
 41
0.50
 42
0.50
 43
0.50
 50
354.71
  0
INSERT
  5
EB
100
AcDbEntity
  8
odnowienie_ew
  6
CONTINUOUS
100
AcDbBlockReference
 66
0
  2
L_0_02_2
 10
7571328.66999999993
 20
5715076.26999999955
 41
0.50
 42
0.50
 43
0.50
 50
174.71
  0
INSERT
  5
EC
100
AcDbEntity
  8
odnowienie_ew
  6
CONTINUOUS
100
AcDbBlockReference
 66
0
  2
L_0_02_1
 10
7571328.66999999993
 20
5715076.26999999955
 41
0.50
 42
0.50
 43
0.50
 50
358.76
  0
INSERT
  5
ED
100
AcDbEntity
  8
odnowienie_ew
  6
CONTINUOUS
100
AcDbBlockReference
 66
0
  2
L_0_02_2
 10
7571335.12000000011
 20
5715076.12999999989
 41
0.50
 42
0.50
 43
0.50
 50
178.76
  0
INSERT
  5
EE
100
AcDbEntity
  8
odnowienie_ew
  6
CONTINUOUS
100
AcDbBlockReference
 66
0
  2
L_0_02_1
 10
7571335.12000000011
 20
5715076.12999999989
 41
0.50
 42
0.50
 43
0.50
 50
251.73
  0
INSERT
  5
EF
100
AcDbEntity
  8
odnowienie_ew
  6
CONTINUOUS
100
AcDbBlockReference
 66
0
  2
L_0_02_2
 10
7571315.0700000003
 20
5715015.38999999966
 41
0.50
 42
0.50
 43
0.50
 50
71.73
  0
MLINE
  5
F0
100
AcDbEntity
  8
odnowienie_ew
  6
L_0_02
370
18
100
AcDbMline
  2
L_0_02
340
7
 40
1.0
 70
1
 71
3
 72
5
 73
1
 10
7571315.0700000003
 20
5715015.38999999966
210
0.0
220
0.0
230
1.0
 11
7571315.0700000003
 21
5715015.38999999966
 12
-0.950733330442
 22
0.310009894014
 13
0.451441002328
 23
-0.892300970198
 74
3
 41
0.0
 41
0.25
 41
18.104252913458
 75
0
 11
7571297.62000000011
 21
5715021.08000000007
 12
0.305467997668
 22
0.952202343203
 13
-0.890396191103
 23
-0.455186360592
 74
3
 41
0.0
 41
0.25
 41
58.970606210649
 75
0
 11
7571315.70999999996
 21
5715077.46999999974
 12
0.995740674055
 22
-0.092198210575
 13
-0.551380874692
 23
0.834253637106
 74
3
 41
0.0
 41
0.25
 41
12.765436988418
 75
0
 11
7571328.66999999993
 21
5715076.26999999955
 12
0.999764520437
 22
-0.02170031512
 13
0.056984790723
 23
0.998375046576
 74
3
 41
0.0
 41
0.25
 41
6.201519201111
 75
0
 11
7571335.12000000011
 21
5715076.12999999989
 12
-0.313459224599
 22
-0.949601660968
 13
0.816698251082
 23
0.577064958805
 74
3
 41
0.0
 41
0.25
 41
63.71366234058
 75
0
  0
INSERT
  5
F1
100
AcDbEntity
  8
odnowienie_ew
  6
CONTINUOUS
100
AcDbBlockReference
 66
0
  2
L_0_02_1
 10
7571183.50999999978
 20
5714610.88999999966
 41
0.50
 42
0.50
 43
0.50
 50
161.92
  0
INSERT
  5
F2
100
AcDbEntity
  8
odnowienie_ew
  6
CONTINUOUS
100
AcDbBlockReference
 66
0
  2
L_0_02_2
 10
7571160.50999999978
 20
5714618.40000000037
 41
0.50
 42
0.50
 43
0.50
 50
341.92
  0
INSERT
  5
F3
100
AcDbEntity
  8
odnowienie_ew
  6
CONTINUOUS
100
AcDbBlockReference
 66
0
  2
L_0_02_1
 10
7571160.50999999978
 20
5714618.40000000037
 41
0.50
 42
0.50
 43
0.50
 50
71.65
  0
INSERT
  5
F4
100
AcDbEntity
  8
odnowienie_ew
  6
CONTINUOUS
100
AcDbBlockReference
 66
0
  2
L_0_02_2
 10
7571248.13999999966
 20
5714882.51999999955
 41
0.50
 42
0.50
 43
0.50
 50
251.65
  0
INSERT
  5
F5
100
AcDbEntity
  8
odnowienie_ew
  6
CONTINUOUS
100
AcDbBlockReference
 66
0
  2
L_0_02_1
 10
7571248.13999999966
 20
5714882.51999999955
 41
0.50
 42
0.50
 43
0.50
 50
71.65
  0
INSERT
  5
F6
100
AcDbEntity
  8
odnowienie_ew
  6
CONTINUOUS
100
AcDbBlockReference
 66
0
  2
L_0_02_2
 10
7571288.0
 20
5715002.6799999997
 41
0.50
 42
0.50
 43
0.50
 50
251.65
  0
INSERT
  5
F7
100
AcDbEntity
  8
odnowienie_ew
  6
CONTINUOUS
100
AcDbBlockReference
 66
0
  2
L_0_02_1
 10
7571288.0
 20
5715002.6799999997
 41
0.50
 42
0.50
 43
0.50
 50
352.51
  0
INSERT
  5
F8
100
AcDbEntity
  8
odnowienie_ew
  6
CONTINUOUS
100
AcDbBlockReference
 66
0
  2
L_0_02_2
 10
7571312.41000000015
 20
5714999.46999999974
 41
0.50
 42
0.50
 43
0.50
 50
172.51
  0
INSERT
  5
F9
100
AcDbEntity
  8
odnowienie_ew
  6
CONTINUOUS
100
AcDbBlockReference
 66
0
  2
L_0_02_1
 10
7571312.41000000015
 20
5714999.46999999974
 41
0.50
 42
0.50
 43
0.50
 50
251.65
  0
INSERT
  5
FA
100
AcDbEntity
  8
odnowienie_ew
  6
CONTINUOUS
100
AcDbBlockReference
 66
0
  2
L_0_02_2
 10
7571183.50999999978
 20
5714610.88999999966
 41
0.50
 42
0.50
 43
0.50
 50
71.65
  0
MLINE
  5
FB
100
AcDbEntity
  8
odnowienie_ew
  6
L_0_02
370
18
100
AcDbMline
  2
L_0_02
340
7
 40
1.0
 70
1
 71
3
 72
5
 73
1
 10
7571183.50999999978
 20
5714610.88999999966
210
0.0
220
0.0
230
1.0
 11
7571183.50999999978
 21
5714610.88999999966
 12
-0.950607945321
 22
0.310394159567
 13
0.450606972576
 23
-0.892722440776
 74
3
 41
0.0
 41
0.25
 41
23.945042880942
 75
0
 11
7571160.50999999978
 21
5714618.40000000037
 12
0.314901442821
 22
0.949124376101
 13
-0.892734696476
 23
-0.450582691311
 74
3
 41
0.0
 41
0.25
 41
278.027543649407
 75
0
 11
7571248.13999999966
 21
5714882.51999999955
 12
0.314853013069
 22
0.949140442802
 13
-0.94913240976
 23
0.314877228047
 74
3
 41
0.0
 41
0.25
 41
126.348756708202
 75
0
 11
7571288.0
 21
5715002.6799999997
 12
0.991463970142
 22
-0.130380964527
 13
-0.531076611822
 23
0.847323806095
 74
3
 41
0.0
 41
0.25
 41
24.370158407432
 75
0
 11
7571312.41000000015
 21
5714999.46999999974
 12
-0.314849812012
 22
-0.949141504664
 13
0.847322910544
 23
0.531078040656
 74
3
 41
0.0
 41
0.25
 41
409.151546650906
 75
0
  0
INSERT
  5
FC
100
AcDbEntity
  8
odnowienie_ew
  6
CONTINUOUS
100
AcDbBlockReference
 66
0
  2
L_0_02_1
 10
7571136.94000000041
 20
5714626.09999999963
 41
0.50
 42
0.50
 43
0.50
 50
161.93
  0
INSERT
  5
FD
100
AcDbEntity
  8
odnowienie_ew
  6
CONTINUOUS
100
AcDbBlockReference
 66
0
  2
L_0_02_2
 10
7571113.49000000022
 20
5714633.75
 41
0.50
 42
0.50
 43
0.50
 50
341.93
  0
INSERT
  5
FE
100
AcDbEntity
  8
odnowienie_ew
  6
CONTINUOUS
100
AcDbBlockReference
 66
0
  2
L_0_02_1
 10
7571113.49000000022
 20
5714633.75
 41
0.50
 42
0.50
 43
0.50
 50
74.54
  0
INSERT
  5
FF
100
AcDbEntity
  8
odnowienie_ew
  6
CONTINUOUS
100
AcDbBlockReference
 66
0
  2
L_0_02_2
 10
7571153.45999999996
 20
5714778.28000000026
 41
0.50
 42
0.50
 43
0.50
 50
254.54
  0
INSERT
  5
100
100
AcDbEntity
  8
odnowienie_ew
  6
CONTINUOUS
100
AcDbBlockReference
 66
0
  2
L_0_02_1
 10
7571153.45999999996
 20
5714778.28000000026
 41
0.50
 42
0.50
 43
0.50
 50
74.09
  0
INSERT
  5
101
100
AcDbEntity
  8
odnowienie_ew
  6
CONTINUOUS
100
AcDbBlockReference
 66
0
  2
L_0_02_2
 10
7571198.16999999993
 20
5714935.16000000015
 41
0.50
 42
0.50
 43
0.50
 50
254.09
  0
INSERT
  5
102
100
AcDbEntity
  8
odnowienie_ew
  6
CONTINUOUS
100
AcDbBlockReference
 66
0
  2
L_0_02_1
 10
7571198.16999999993
 20
5714935.16000000015
 41
0.50
 42
0.50
 43
0.50
 50
79.85
  0
INSERT
  5
103
100
AcDbEntity
  8
odnowienie_ew
  6
CONTINUOUS
100
AcDbBlockReference
 66
0
  2
L_0_02_2
 10
7571214.71999999974
 20
5715027.55999999959
 41
0.50
 42
0.50
 43
0.50
 50
259.85
  0
INSERT
  5
104
100
AcDbEntity
  8
odnowienie_ew
  6
CONTINUOUS
100
AcDbBlockReference
 66
0
  2
L_0_02_1
 10
7571214.71999999974
 20
5715027.55999999959
 41
0.50
 42
0.50
 43
0.50
 50
329.67
  0
INSERT
  5
105
100
AcDbEntity
  8
odnowienie_ew
  6
CONTINUOUS
100
AcDbBlockReference
 66
0
  2
L_0_02_2
 10
7571227.54000000004
 20
5715020.05999999959
 41
0.50
 42
0.50
 43
0.50
 50
149.67
  0
INSERT
  5
106
100
AcDbEntity
  8
odnowienie_ew
  6
CONTINUOUS
100
AcDbBlockReference
 66
0
  2
L_0_02_1
 10
7571227.54000000004
 20
5715020.05999999959
 41
0.50
 42
0.50
 43
0.50
 50
330.79
  0
INSERT
  5
107
100
AcDbEntity
  8
odnowienie_ew
  6
CONTINUOUS
100
AcDbBlockReference
 66
0
  2
L_0_02_2
 10
7571239.05999999959
 20
5715013.62000000011
 41
0.50
 42
0.50
 43
0.50
 50
150.79
  0
INSERT
  5
108
100
AcDbEntity
  8
odnowienie_ew
  6
CONTINUOUS
100
AcDbBlockReference
 66
0
  2
L_0_02_1
 10
7571239.05999999959
 20
5715013.62000000011
 41
0.50
 42
0.50
 43
0.50
 50
340.02
  0
INSERT
  5
109
100
AcDbEntity
  8
odnowienie_ew
  6
CONTINUOUS
100
AcDbBlockReference
 66
0
  2
L_0_02_2
 10
7571252.65000000037
 20
5715008.6799999997
 41
0.50
 42
0.50
 43
0.50
 50
160.02
  0
INSERT
  5
10A
100
AcDbEntity
  8
odnowienie_ew
  6
CONTINUOUS
100
AcDbBlockReference
 66
0
  2
L_0_02_1
 10
7571252.65000000037
 20
5715008.6799999997
 41
0.50
 42
0.50
 43
0.50
 50
347.95
  0
INSERT
  5
10B
100
AcDbEntity
  8
odnowienie_ew
  6
CONTINUOUS
100
AcDbBlockReference
 66
0
  2
L_0_02_2
 10
7571263.13999999966
 20
5715006.44000000041
 41
0.50
 42
0.50
 43
0.50
 50
167.95
  0
INSERT
  5
10C
100
AcDbEntity
  8
odnowienie_ew
  6
CONTINUOUS
100
AcDbBlockReference
 66
0
  2
L_0_02_1
 10
7571263.13999999966
 20
5715006.44000000041
 41
0.50
 42
0.50
 43
0.50
 50
251.64
  0
INSERT
  5
10D
100
AcDbEntity
  8
odnowienie_ew
  6
CONTINUOUS
100
AcDbBlockReference
 66
0
  2
L_0_02_2
 10
7571224.33000000007
 20
5714889.46999999974
 41
0.50
 42
0.50
 43
0.50
 50
71.64
  0
INSERT
  5
10E
100
AcDbEntity
  8
odnowienie_ew
  6
CONTINUOUS
100
AcDbBlockReference
 66
0
  2
L_0_02_1
 10
7571224.33000000007
 20
5714889.46999999974
 41
0.50
 42
0.50
 43
0.50
 50
251.64
  0
INSERT
  5
10F
100
AcDbEntity
  8
odnowienie_ew
  6
CONTINUOUS
100
AcDbBlockReference
 66
0
  2
L_0_02_2
 10
7571136.94000000041
 20
5714626.09999999963
 41
0.50
 42
0.50
 43
0.50
 50
71.64
  0
MLINE
  5
110
100
AcDbEntity
  8
odnowienie_ew
  6
L_0_02
370
18
100
AcDbMline
  2
L_0_02
340
7
 40
1.0
 70
1
 71
3
 72
10
 73
1
 10
7571136.94000000041
 20
5714626.09999999963
210
0.0
220
0.0
230
1.0
 11
7571136.94000000041
 21
5714626.09999999963
 12
-0.950690866708
 22
0.310140090858
 13
0.45068849342
 23
-0.892681287974
 74
3
 41
0.0
 41
0.25
 41
24.416272519666
 75
0
 11
7571113.49000000022
 21
5714633.75
 12
0.266546513451
 22
0.963822056278
 13
-0.881000339386
 23
-0.473115632803
 74
3
 41
0.0
 41
0.25
 41
149.705065936615
 75
0
 11
7571153.45999999996
 21
5714778.28000000026
 12
0.274081443887
 22
0.961706484389
 13
-0.962771641681
 23
0.270316048312
 74
3
 41
0.0
 41
0.25
 41
162.876694627095
 75
0
 11
7571198.16999999993
 21
5714935.16000000015
 12
0.176306803165
 22
0.984335263596
 13
-0.974248218534
 23
0.225478177842
 74
3
 41
0.0
 41
0.25
 41
93.620455948027
 75
0
 11
7571214.71999999974
 21
5715027.55999999959
 12
0.863143309861
 22
-0.504959034618
 13
-0.418791701159
 23
0.908082326136
 74
3
 41
0.0
 41
0.25
 41
14.602689992309
 75
0
 11
7571227.54000000004
 21
5715020.05999999959
 12
0.87286755198
 22
-0.487957207857
 13
0.496481929544
 23
0.86804705727
 74
3
 41
0.0
 41
0.25
 41
12.94787861677
 75
0
 11
7571239.05999999959
 21
5715013.62000000011
 12
0.939833800151
 22
-0.341632006833
 13
0.416143828359
 23
0.90929880354
 74
3
 41
0.0
 41
0.25
 41
14.210003458689
 75
0
 11
7571252.65000000037
 21
5715008.6799999997
 12
0.977952236169
 22
-0.208828694802
 13
0.275889470264
 23
0.961189367501
 74
3
 41
0.0
 41
0.25
 41
10.476495232926
 75
0
 11
7571263.13999999966
 21
5715006.44000000041
 12
-0.314912958472
 22
-0.949120555349
 13
0.867805692168
 23
0.496903693526
 74
3
 41
0.0
 41
0.25
 41
122.990403278004
 75
0
 11
7571224.33000000007
 21
5714889.46999999974
 12
-0.314930126857
 22
-0.949114858802
 13
0.949117707114
 23
-0.314921542677
 74
3
 41
0.0
 41
0.25
 41
277.240124148591
 75
0
  0
INSERT
  5
111
100
AcDbEntity
  8
odnowienie_ew
  6
CONTINUOUS
100
AcDbBlockReference
 66
0
  2
L_0_02_1
 10
7571224.33000000007
 20
5714889.46999999974
 41
0.50
 42
0.50
 43
0.50
 50
343.73
  0
INSERT
  5
112
100
AcDbEntity
  8
odnowienie_ew
  6
CONTINUOUS
100
AcDbBlockReference
 66
0
  2
L_0_02_2
 10
7571248.13999999966
 20
5714882.51999999955
 41
0.50
 42
0.50
 43
0.50
 50
163.73
  0
INSERT
  5
113
100
AcDbEntity
  8
odnowienie_ew
  6
CONTINUOUS
100
AcDbBlockReference
 66
0
  2
L_0_02_1
 10
7571248.13999999966
 20
5714882.51999999955
 41
0.50
 42
0.50
 43
0.50
 50
251.65
  0
INSERT
  5
114
100
AcDbEntity
  8
odnowienie_ew
  6
CONTINUOUS
100
AcDbBlockReference
 66
0
  2
L_0_02_2
 10
7571160.50999999978
 20
5714618.40000000037
 41
0.50
 42
0.50
 43
0.50
 50
71.65
  0
INSERT
  5
115
100
AcDbEntity
  8
odnowienie_ew
  6
CONTINUOUS
100
AcDbBlockReference
 66
0
  2
L_0_02_1
 10
7571160.50999999978
 20
5714618.40000000037
 41
0.50
 42
0.50
 43
0.50
 50
161.91
  0
INSERT
  5
116
100
AcDbEntity
  8
odnowienie_ew
  6
CONTINUOUS
100
AcDbBlockReference
 66
0
  2
L_0_02_2
 10
7571136.94000000041
 20
5714626.09999999963
 41
0.50
 42
0.50
 43
0.50
 50
341.91
  0
INSERT
  5
117
100
AcDbEntity
  8
odnowienie_ew
  6
CONTINUOUS
100
AcDbBlockReference
 66
0
  2
L_0_02_1
 10
7571136.94000000041
 20
5714626.09999999963
 41
0.50
 42
0.50
 43
0.50
 50
71.64
  0
INSERT
  5
118
100
AcDbEntity
  8
odnowienie_ew
  6
CONTINUOUS
100
AcDbBlockReference
 66
0
  2
L_0_02_2
 10
7571224.33000000007
 20
5714889.46999999974
 41
0.50
 42
0.50
 43
0.50
 50
251.64
  0
MLINE
  5
119
100
AcDbEntity
  8
odnowienie_ew
  6
L_0_02
370
18
100
AcDbMline
  2
L_0_02
340
7
 40
1.0
 70
1
 71
3
 72
4
 73
1
 10
7571224.33000000007
 20
5714889.46999999974
210
0.0
220
0.0
230
1.0
 11
7571224.33000000007
 21
5714889.46999999974
 12
0.959941277745
 22
-0.280201254961
 13
-0.464619412577
 23
0.885510475069
 74
3
 41
0.0
 41
0.25
 41
24.553600544741
 75
0
 11
7571248.13999999966
 21
5714882.51999999955
 12
-0.314901442821
 22
-0.949124376101
 13
0.885503454167
 23
0.464632793353
 74
3
 41
0.0
 41
0.25
 41
278.027543649407
 75
0
 11
7571160.50999999978
 21
5714618.40000000037
 12
-0.950561732957
 22
0.310535653087
 13
0.450516248768
 23
-0.892768228375
 74
3
 41
0.0
 41
0.25
 41
24.545864573728
 75
0
 11
7571136.94000000041
 21
5714626.09999999963
 12
0.314930126857
 22
0.949114858802
 13
-0.892775035963
 23
-0.450502758217
 74
3
 41
0.0
 41
0.25
 41
277.240124148591
 75
0
  0
INSERT
  5
11A
100
AcDbEntity
  8
odnowienie_ew
  6
CONTINUOUS
100
AcDbBlockReference
 66
0
  2
L_0_02_1
 10
7571224.33000000007
 20
5714889.46999999974
 41
0.50
 42
0.50
 43
0.50
 50
71.64
  0
INSERT
  5
11B
100
AcDbEntity
  8
odnowienie_ew
  6
CONTINUOUS
100
AcDbBlockReference
 66
0
  2
L_0_02_2
 10
7571263.13999999966
 20
5715006.44000000041
 41
0.50
 42
0.50
 43
0.50
 50
251.64
  0
INSERT
  5
11C
100
AcDbEntity
  8
odnowienie_ew
  6
CONTINUOUS
100
AcDbBlockReference
 66
0
  2
L_0_02_1
 10
7571263.13999999966
 20
5715006.44000000041
 41
0.50
 42
0.50
 43
0.50
 50
347.88
  0
INSERT
  5
11D
100
AcDbEntity
  8
odnowienie_ew
  6
CONTINUOUS
100
AcDbBlockReference
 66
0
  2
L_0_02_2
 10
7571269.09999999963
 20
5715005.16000000015
 41
0.50
 42
0.50
 43
0.50
 50
167.88
  0
INSERT
  5
11E
100
AcDbEntity
  8
odnowienie_ew
  6
CONTINUOUS
100
AcDbBlockReference
 66
0
  2
L_0_02_1
 10
7571269.09999999963
 20
5715005.16000000015
 41
0.50
 42
0.50
 43
0.50
 50
352.52
  0
INSERT
  5
11F
100
AcDbEntity
  8
odnowienie_ew
  6
CONTINUOUS
100
AcDbBlockReference
 66
0
  2
L_0_02_2
 10
7571288.0
 20
5715002.6799999997
 41
0.50
 42
0.50
 43
0.50
 50
172.52
  0
INSERT
  5
120
100
AcDbEntity
  8
odnowienie_ew
  6
CONTINUOUS
100
AcDbBlockReference
 66
0
  2
L_0_02_1
 10
7571288.0
 20
5715002.6799999997
 41
0.50
 42
0.50
 43
0.50
 50
251.65
  0
INSERT
  5
121
100
AcDbEntity
  8
odnowienie_ew
  6
CONTINUOUS
100
AcDbBlockReference
 66
0
  2
L_0_02_2
 10
7571248.13999999966
 20
5714882.51999999955
 41
0.50
 42
0.50
 43
0.50
 50
71.65
  0
INSERT
  5
122
100
AcDbEntity
  8
odnowienie_ew
  6
CONTINUOUS
100
AcDbBlockReference
 66
0
  2
L_0_02_1
 10
7571248.13999999966
 20
5714882.51999999955
 41
0.50
 42
0.50
 43
0.50
 50
163.73
  0
INSERT
  5
123
100
AcDbEntity
  8
odnowienie_ew
  6
CONTINUOUS
100
AcDbBlockReference
 66
0
  2
L_0_02_2
 10
7571224.33000000007
 20
5714889.46999999974
 41
0.50
 42
0.50
 43
0.50
 50
343.73
  0
MLINE
  5
124
100
AcDbEntity
  8
odnowienie_ew
  6
L_0_02
370
18
100
AcDbMline
  2
L_0_02
340
7
 40
1.0
 70
1
 71
3
 72
5
 73
1
 10
7571224.33000000007
 20
5714889.46999999974
210
0.0
220
0.0
230
1.0
 11
7571224.33000000007
 21
5714889.46999999974
 12
0.314912958472
 22
0.949120555349
 13
-0.885506272833
 23
-0.464627421461
 74
3
 41
0.0
 41
0.25
 41
122.990403278004
 75
0
 11
7571263.13999999966
 21
5715006.44000000041
 12
0.977706285229
 22
-0.209977188818
 13
-0.496393974148
 23
0.868097357691
 74
3
 41
0.0
 41
0.25
 41
5.84590026167
 75
0
 11
7571269.09999999963
 21
5715005.16000000015
 12
0.991500657849
 22
-0.130101673643
 13
0.170179256528
 23
0.985413121816
 74
3
 41
0.0
 41
0.25
 41
18.812014584411
 75
0
 11
7571288.0
 21
5715002.6799999997
 12
-0.314853013069
 22
-0.949140442802
 13
0.847248998145
 23
0.531195947973
 74
3
 41
0.0
 41
0.25
 41
126.348756708202
 75
0
 11
7571248.13999999966
 21
5714882.51999999955
 12
-0.959941277745
 22
0.280201254961
 13
0.464655384735
 23
-0.885491599868
 74
3
 41
0.0
 41
0.25
 41
24.553600544741
 75
0
  0
INSERT
  5
125
100
AcDbEntity
  8
odnowienie_ew
  6
CONTINUOUS
100
AcDbBlockReference
 66
0
  2
L_0_02_1
 10
7571515.44000000041
 20
5715127.75999999978
 41
0.50
 42
0.50
 43
0.50
 50
224.83
  0
INSERT
  5
126
100
AcDbEntity
  8
odnowienie_ew
  6
CONTINUOUS
100
AcDbBlockReference
 66
0
  2
L_0_02_2
 10
7571487.75
 20
5715100.23000000045
 41
0.50
 42
0.50
 43
0.50
 50
44.83
  0
INSERT
  5
127
100
AcDbEntity
  8
odnowienie_ew
  6
CONTINUOUS
100
AcDbBlockReference
 66
0
  2
L_0_02_1
 10
7571487.75
 20
5715100.23000000045
 41
0.50
 42
0.50
 43
0.50
 50
211.33
  0
INSERT
  5
128
100
AcDbEntity
  8
odnowienie_ew
  6
CONTINUOUS
100
AcDbBlockReference
 66
0
  2
L_0_02_2
 10
7571467.25
 20
5715087.75
 41
0.50
 42
0.50
 43
0.50
 50
31.33
  0
INSERT
  5
129
100
AcDbEntity
  8
odnowienie_ew
  6
CONTINUOUS
100
AcDbBlockReference
 66
0
  2
L_0_02_1
 10
7571467.25
 20
5715087.75
 41
0.50
 42
0.50
 43
0.50
 50
201.28
  0
INSERT
  5
12A
100
AcDbEntity
  8
odnowienie_ew
  6
CONTINUOUS
100
AcDbBlockReference
 66
0
  2
L_0_02_2
 10
7571444.78000000026
 20
5715079.0
 41
0.50
 42
0.50
 43
0.50
 50
21.28
  0
INSERT
  5
12B
100
AcDbEntity
  8
odnowienie_ew
  6
CONTINUOUS
100
AcDbBlockReference
 66
0
  2
L_0_02_1
 10
7571444.78000000026
 20
5715079.0
 41
0.50
 42
0.50
 43
0.50
 50
184.09
  0
INSERT
  5
12C
100
AcDbEntity
  8
odnowienie_ew
  6
CONTINUOUS
100
AcDbBlockReference
 66
0
  2
L_0_02_2
 10
7571431.48000000045
 20
5715078.04999999981
 41
0.50
 42
0.50
 43
0.50
 50
4.09
  0
INSERT
  5
12D
100
AcDbEntity
  8
odnowienie_ew
  6
CONTINUOUS
100
AcDbBlockReference
 66
0
  2
L_0_02_1
 10
7571431.48000000045
 20
5715078.04999999981
 41
0.50
 42
0.50
 43
0.50
 50
187.11
  0
INSERT
  5
12E
100
AcDbEntity
  8
odnowienie_ew
  6
CONTINUOUS
100
AcDbBlockReference
 66
0
  2
L_0_02_2
 10
7571413.19000000041
 20
5715075.76999999955
 41
0.50
 42
0.50
 43
0.50
 50
7.11
  0
INSERT
  5
12F
100
AcDbEntity
  8
odnowienie_ew
  6
CONTINUOUS
100
AcDbBlockReference
 66
0
  2
L_0_02_1
 10
7571413.19000000041
 20
5715075.76999999955
 41
0.50
 42
0.50
 43
0.50
 50
179.38
  0
INSERT
  5
130
100
AcDbEntity
  8
odnowienie_ew
  6
CONTINUOUS
100
AcDbBlockReference
 66
0
  2
L_0_02_2
 10
7571405.79000000004
 20
5715075.84999999963
 41
0.50
 42
0.50
 43
0.50
 50
359.38
  0
INSERT
  5
131
100
AcDbEntity
  8
odnowienie_ew
  6
CONTINUOUS
100
AcDbBlockReference
 66
0
  2
L_0_02_1
 10
7571405.79000000004
 20
5715075.84999999963
 41
0.50
 42
0.50
 43
0.50
 50
179.38
  0
INSERT
  5
132
100
AcDbEntity
  8
odnowienie_ew
  6
CONTINUOUS
100
AcDbBlockReference
 66
0
  2
L_0_02_2
 10
7571403.03000000026
 20
5715075.87999999989
 41
0.50
 42
0.50
 43
0.50
 50
359.38
  0
INSERT
  5
133
100
AcDbEntity
  8
odnowienie_ew
  6
CONTINUOUS
100
AcDbBlockReference
 66
0
  2
L_0_02_1
 10
7571403.03000000026
 20
5715075.87999999989
 41
0.50
 42
0.50
 43
0.50
 50
178.89
  0
INSERT
  5
134
100
AcDbEntity
  8
odnowienie_ew
  6
CONTINUOUS
100
AcDbBlockReference
 66
0
  2
L_0_02_2
 10
7571398.38999999966
 20
5715075.96999999974
 41
0.50
 42
0.50
 43
0.50
 50
358.89
  0
INSERT
  5
135
100
AcDbEntity
  8
odnowienie_ew
  6
CONTINUOUS
100
AcDbBlockReference
 66
0
  2
L_0_02_1
 10
7571398.38999999966
 20
5715075.96999999974
 41
0.50
 42
0.50
 43
0.50
 50
179.05
  0
INSERT
  5
136
100
AcDbEntity
  8
odnowienie_ew
  6
CONTINUOUS
100
AcDbBlockReference
 66
0
  2
L_0_02_2
 10
7571392.95999999996
 20
5715076.05999999959
 41
0.50
 42
0.50
 43
0.50
 50
359.05
  0
INSERT
  5
137
100
AcDbEntity
  8
odnowienie_ew
  6
CONTINUOUS
100
AcDbBlockReference
 66
0
  2
L_0_02_1
 10
7571392.95999999996
 20
5715076.05999999959
 41
0.50
 42
0.50
 43
0.50
 50
178.93
  0
INSERT
  5
138
100
AcDbEntity
  8
odnowienie_ew
  6
CONTINUOUS
100
AcDbBlockReference
 66
0
  2
L_0_02_2
 10
7571383.3200000003
 20
5715076.24000000022
 41
0.50
 42
0.50
 43
0.50
 50
358.93
  0
INSERT
  5
139
100
AcDbEntity
  8
odnowienie_ew
  6
CONTINUOUS
100
AcDbBlockReference
 66
0
  2
L_0_02_1
 10
7571383.3200000003
 20
5715076.24000000022
 41
0.50
 42
0.50
 43
0.50
 50
178.96
  0
INSERT
  5
13A
100
AcDbEntity
  8
odnowienie_ew
  6
CONTINUOUS
100
AcDbBlockReference
 66
0
  2
L_0_02_2
 10
7571371.78000000026
 20
5715076.45000000019
 41
0.50
 42
0.50
 43
0.50
 50
358.96
  0
INSERT
  5
13B
100
AcDbEntity
  8
odnowienie_ew
  6
CONTINUOUS
100
AcDbBlockReference
 66
0
  2
L_0_02_1
 10
7571371.78000000026
 20
5715076.45000000019
 41
0.50
 42
0.50
 43
0.50
 50
181.69
  0
INSERT
  5
13C
100
AcDbEntity
  8
odnowienie_ew
  6
CONTINUOUS
100
AcDbBlockReference
 66
0
  2
L_0_02_2
 10
7571350.0700000003
 20
5715075.80999999959
 41
0.50
 42
0.50
 43
0.50
 50
1.69
  0
INSERT
  5
13D
100
AcDbEntity
  8
odnowienie_ew
  6
CONTINUOUS
100
AcDbBlockReference
 66
0
  2
L_0_02_1
 10
7571350.0700000003
 20
5715075.80999999959
 41
0.50
 42
0.50
 43
0.50
 50
178.77
  0
INSERT
  5
13E
100
AcDbEntity
  8
odnowienie_ew
  6
CONTINUOUS
100
AcDbBlockReference
 66
0
  2
L_0_02_2
 10
7571335.12000000011
 20
5715076.12999999989
 41
0.50
 42
0.50
 43
0.50
 50
358.77
  0
INSERT
  5
13F
100
AcDbEntity
  8
odnowienie_ew
  6
CONTINUOUS
100
AcDbBlockReference
 66
0
  2
L_0_02_1
 10
7571335.12000000011
 20
5715076.12999999989
 41
0.50
 42
0.50
 43
0.50
 50
178.76
  0
INSERT
  5
140
100
AcDbEntity
  8
odnowienie_ew
  6
CONTINUOUS
100
AcDbBlockReference
 66
0
  2
L_0_02_2
 10
7571328.66999999993
 20
5715076.26999999955
 41
0.50
 42
0.50
 43
0.50
 50
358.76
  0
INSERT
  5
141
100
AcDbEntity
  8
odnowienie_ew
  6
CONTINUOUS
100
AcDbBlockReference
 66
0
  2
L_0_02_1
 10
7571328.66999999993
 20
5715076.26999999955
 41
0.50
 42
0.50
 43
0.50
 50
174.71
  0
INSERT
  5
142
100
AcDbEntity
  8
odnowienie_ew
  6
CONTINUOUS
100
AcDbBlockReference
 66
0
  2
L_0_02_2
 10
7571315.70999999996
 20
5715077.46999999974
 41
0.50
 42
0.50
 43
0.50
 50
354.71
  0
INSERT
  5
143
100
AcDbEntity
  8
odnowienie_ew
  6
CONTINUOUS
100
AcDbBlockReference
 66
0
  2
L_0_02_1
 10
7571315.70999999996
 20
5715077.46999999974
 41
0.50
 42
0.50
 43
0.50
 50
165.23
  0
INSERT
  5
144
100
AcDbEntity
  8
odnowienie_ew
  6
CONTINUOUS
100
AcDbBlockReference
 66
0
  2
L_0_02_2
 10
7571298.33999999985
 20
5715082.04999999981
 41
0.50
 42
0.50
 43
0.50
 50
345.23
  0
INSERT
  5
145
100
AcDbEntity
  8
odnowienie_ew
  6
CONTINUOUS
100
AcDbBlockReference
 66
0
  2
L_0_02_1
 10
7571298.33999999985
 20
5715082.04999999981
 41
0.50
 42
0.50
 43
0.50
 50
162.30
  0
INSERT
  5
146
100
AcDbEntity
  8
odnowienie_ew
  6
CONTINUOUS
100
AcDbBlockReference
 66
0
  2
L_0_02_2
 10
7571273.90000000037
 20
5715089.84999999963
 41
0.50
 42
0.50
 43
0.50
 50
342.30
  0
INSERT
  5
147
100
AcDbEntity
  8
odnowienie_ew
  6
CONTINUOUS
100
AcDbBlockReference
 66
0
  2
L_0_02_1
 10
7571273.90000000037
 20
5715089.84999999963
 41
0.50
 42
0.50
 43
0.50
 50
156.85
  0
INSERT
  5
148
100
AcDbEntity
  8
odnowienie_ew
  6
CONTINUOUS
100
AcDbBlockReference
 66
0
  2
L_0_02_2
 10
7571257.25
 20
5715096.96999999974
 41
0.50
 42
0.50
 43
0.50
 50
336.85
  0
INSERT
  5
149
100
AcDbEntity
  8
odnowienie_ew
  6
CONTINUOUS
100
AcDbBlockReference
 66
0
  2
L_0_02_1
 10
7571257.25
 20
5715096.96999999974
 41
0.50
 42
0.50
 43
0.50
 50
156.85
  0
INSERT
  5
14A
100
AcDbEntity
  8
odnowienie_ew
  6
CONTINUOUS
100
AcDbBlockReference
 66
0
  2
L_0_02_2
 10
7571241.55999999959
 20
5715103.6799999997
 41
0.50
 42
0.50
 43
0.50
 50
336.85
  0
INSERT
  5
14B
100
AcDbEntity
  8
odnowienie_ew
  6
CONTINUOUS
100
AcDbBlockReference
 66
0
  2
L_0_02_1
 10
7571241.55999999959
 20
5715103.6799999997
 41
0.50
 42
0.50
 43
0.50
 50
155.47
  0
INSERT
  5
14C
100
AcDbEntity
  8
odnowienie_ew
  6
CONTINUOUS
100
AcDbBlockReference
 66
0
  2
L_0_02_2
 10
7571228.51999999955
 20
5715109.62999999989
 41
0.50
 42
0.50
 43
0.50
 50
335.47
  0
INSERT
  5
14D
100
AcDbEntity
  8
odnowienie_ew
  6
CONTINUOUS
100
AcDbBlockReference
 66
0
  2
L_0_02_1
 10
7571228.51999999955
 20
5715109.62999999989
 41
0.50
 42
0.50
 43
0.50
 50
155.41
  0
INSERT
  5
14E
100
AcDbEntity
  8
odnowienie_ew
  6
CONTINUOUS
100
AcDbBlockReference
 66
0
  2
L_0_02_2
 10
7571225.21999999974
 20
5715111.13999999966
 41
0.50
 42
0.50
 43
0.50
 50
335.41
  0
INSERT
  5
14F
100
AcDbEntity
  8
odnowienie_ew
  6
CONTINUOUS
100
AcDbBlockReference
 66
0
  2
L_0_02_1
 10
7571225.21999999974
 20
5715111.13999999966
 41
0.50
 42
0.50
 43
0.50
 50
79.44
  0
INSERT
  5
150
100
AcDbEntity
  8
odnowienie_ew
  6
CONTINUOUS
100
AcDbBlockReference
 66
0
  2
L_0_02_2
 10
7571228.91000000015
 20
5715130.9299999997
 41
0.50
 42
0.50
 43
0.50
 50
259.44
  0
INSERT
  5
151
100
AcDbEntity
  8
odnowienie_ew
  6
CONTINUOUS
100
AcDbBlockReference
 66
0
  2
L_0_02_1
 10
7571228.91000000015
 20
5715130.9299999997
 41
0.50
 42
0.50
 43
0.50
 50
79.46
  0
INSERT
  5
152
100
AcDbEntity
  8
odnowienie_ew
  6
CONTINUOUS
100
AcDbBlockReference
 66
0
  2
L_0_02_2
 10
7571232.73000000045
 20
5715151.45999999996
 41
0.50
 42
0.50
 43
0.50
 50
259.46
  0
INSERT
  5
153
100
AcDbEntity
  8
odnowienie_ew
  6
CONTINUOUS
100
AcDbBlockReference
 66
0
  2
L_0_02_1
 10
7571232.73000000045
 20
5715151.45999999996
 41
0.50
 42
0.50
 43
0.50
 50
79.43
  0
INSERT
  5
154
100
AcDbEntity
  8
odnowienie_ew
  6
CONTINUOUS
100
AcDbBlockReference
 66
0
  2
L_0_02_2
 10
7571237.24000000022
 20
5715175.62999999989
 41
0.50
 42
0.50
 43
0.50
 50
259.43
  0
INSERT
  5
155
100
AcDbEntity
  8
odnowienie_ew
  6
CONTINUOUS
100
AcDbBlockReference
 66
0
  2
L_0_02_1
 10
7571237.24000000022
 20
5715175.62999999989
 41
0.50
 42
0.50
 43
0.50
 50
353.96
  0
INSERT
  5
156
100
AcDbEntity
  8
odnowienie_ew
  6
CONTINUOUS
100
AcDbBlockReference
 66
0
  2
L_0_02_2
 10
7571317.45000000019
 20
5715167.15000000037
 41
0.50
 42
0.50
 43
0.50
 50
173.96
  0
INSERT
  5
157
100
AcDbEntity
  8
odnowienie_ew
  6
CONTINUOUS
100
AcDbBlockReference
 66
0
  2
L_0_02_1
 10
7571317.45000000019
 20
5715167.15000000037
 41
0.50
 42
0.50
 43
0.50
 50
354.42
  0
INSERT
  5
158
100
AcDbEntity
  8
odnowienie_ew
  6
CONTINUOUS
100
AcDbBlockReference
 66
0
  2
L_0_02_2
 10
7571372.53000000026
 20
5715161.76999999955
 41
0.50
 42
0.50
 43
0.50
 50
174.42
  0
INSERT
  5
159
100
AcDbEntity
  8
odnowienie_ew
  6
CONTINUOUS
100
AcDbBlockReference
 66
0
  2
L_0_02_1
 10
7571372.53000000026
 20
5715161.76999999955
 41
0.50
 42
0.50
 43
0.50
 50
13.51
  0
INSERT
  5
15A
100
AcDbEntity
  8
odnowienie_ew
  6
CONTINUOUS
100
AcDbBlockReference
 66
0
  2
L_0_02_2
 10
7571405.87999999989
 20
5715169.78000000026
 41
0.50
 42
0.50
 43
0.50
 50
193.51
  0
INSERT
  5
15B
100
AcDbEntity
  8
odnowienie_ew
  6
CONTINUOUS
100
AcDbBlockReference
 66
0
  2
L_0_02_1
 10
7571405.87999999989
 20
5715169.78000000026
 41
0.50
 42
0.50
 43
0.50
 50
35.38
  0
INSERT
  5
15C
100
AcDbEntity
  8
odnowienie_ew
  6
CONTINUOUS
100
AcDbBlockReference
 66
0
  2
L_0_02_2
 10
7571431.69000000041
 20
5715188.11000000034
 41
0.50
 42
0.50
 43
0.50
 50
215.38
  0
INSERT
  5
15D
100
AcDbEntity
  8
odnowienie_ew
  6
CONTINUOUS
100
AcDbBlockReference
 66
0
  2
L_0_02_1
 10
7571431.69000000041
 20
5715188.11000000034
 41
0.50
 42
0.50
 43
0.50
 50
46.02
  0
INSERT
  5
15E
100
AcDbEntity
  8
odnowienie_ew
  6
CONTINUOUS
100
AcDbBlockReference
 66
0
  2
L_0_02_2
 10
7571457.4299999997
 20
5715214.78000000026
 41
0.50
 42
0.50
 43
0.50
 50
226.02
  0
INSERT
  5
15F
100
AcDbEntity
  8
odnowienie_ew
  6
CONTINUOUS
100
AcDbBlockReference
 66
0
  2
L_0_02_1
 10
7571457.4299999997
 20
5715214.78000000026
 41
0.50
 42
0.50
 43
0.50
 50
59.07
  0
INSERT
  5
160
100
AcDbEntity
  8
odnowienie_ew
  6
CONTINUOUS
100
AcDbBlockReference
 66
0
  2
L_0_02_2
 10
7571474.25
 20
5715242.84999999963
 41
0.50
 42
0.50
 43
0.50
 50
239.07
  0
INSERT
  5
161
100
AcDbEntity
  8
odnowienie_ew
  6
CONTINUOUS
100
AcDbBlockReference
 66
0
  2
L_0_02_1
 10
7571474.25
 20
5715242.84999999963
 41
0.50
 42
0.50
 43
0.50
 50
78.82
  0
INSERT
  5
162
100
AcDbEntity
  8
odnowienie_ew
  6
CONTINUOUS
100
AcDbBlockReference
 66
0
  2
L_0_02_2
 10
7571480.12999999989
 20
5715272.59999999963
 41
0.50
 42
0.50
 43
0.50
 50
258.82
  0
INSERT
  5
163
100
AcDbEntity
  8
odnowienie_ew
  6
CONTINUOUS
100
AcDbBlockReference
 66
0
  2
L_0_02_1
 10
7571480.12999999989
 20
5715272.59999999963
 41
0.50
 42
0.50
 43
0.50
 50
343.67
  0
INSERT
  5
164
100
AcDbEntity
  8
odnowienie_ew
  6
CONTINUOUS
100
AcDbBlockReference
 66
0
  2
L_0_02_2
 10
7571522.99000000022
 20
5715260.04000000004
 41
0.50
 42
0.50
 43
0.50
 50
163.67
  0
INSERT
  5
165
100
AcDbEntity
  8
odnowienie_ew
  6
CONTINUOUS
100
AcDbBlockReference
 66
0
  2
L_0_02_1
 10
7571522.99000000022
 20
5715260.04000000004
 41
0.50
 42
0.50
 43
0.50
 50
344.00
  0
INSERT
  5
166
100
AcDbEntity
  8
odnowienie_ew
  6
CONTINUOUS
100
AcDbBlockReference
 66
0
  2
L_0_02_2
 10
7571556.11000000034
 20
5715250.54000000004
 41
0.50
 42
0.50
 43
0.50
 50
164.00
  0
INSERT
  5
167
100
AcDbEntity
  8
odnowienie_ew
  6
CONTINUOUS
100
AcDbBlockReference
 66
0
  2
L_0_02_1
 10
7571556.11000000034
 20
5715250.54000000004
 41
0.50
 42
0.50
 43
0.50
 50
251.67
  0
INSERT
  5
168
100
AcDbEntity
  8
odnowienie_ew
  6
CONTINUOUS
100
AcDbBlockReference
 66
0
  2
L_0_02_2
 10
7571515.44000000041
 20
5715127.75999999978
 41
0.50
 42
0.50
 43
0.50
 50
71.67
  0
MLINE
  5
169
100
AcDbEntity
  8
odnowienie_ew
  6
L_0_02
370
18
100
AcDbMline
  2
L_0_02
340
7
 40
1.0
 70
1
 71
3
 72
34
 73
1
 10
7571515.44000000041
 20
5715127.75999999978
210
0.0
220
0.0
230
1.0
 11
7571515.44000000041
 21
5715127.75999999978
 12
-0.709152646896
 22
-0.705054978992
 13
0.85038391646
 23
-0.526162707369
 74
3
 41
0.0
 41
0.25
 41
38.796600363998
 75
0
 11
7571487.75
 21
5715100.23000000045
 12
-0.854166370073
 22
-0.519999819458
 13
0.616803907071
 23
-0.787116852965
 74
3
 41
0.0
 41
0.25
 41
23.750008333564
 75
0
 11
7571467.25
 21
5715087.75
 12
-0.931841140942
 22
-0.36286648791
 13
0.443138321158
 23
-0.896453249378
 74
3
 41
0.0
 41
0.25
 41
23.863552205934
 75
0
 11
7571444.78000000026
 21
5715079.0
 12
-0.99745869983
 22
-0.071247050003
 13
0.219522338176
 23
-0.975607473855
 74
3
 41
0.0
 41
0.25
 41
13.083885405065
 75
0
 11
7571431.48000000045
 21
5715078.04999999981
 12
-0.992319554972
 22
-0.123700852137
 13
0.097507814249
 23
-0.995234759321
 74
3
 41
0.0
 41
0.25
 41
18.181562603386
 75
0
 11
7571413.19000000041
 21
5715075.76999999955
 12
-0.999941568306
 22
0.010810179126
 13
0.056573843647
 23
-0.998398417574
 74
3
 41
0.0
 41
0.25
 41
7.150432420171
 75
0
 11
7571405.79000000004
 21
5715075.84999999963
 12
-0.999940931509
 22
0.010868923264
 13
-0.0108395512
 23
-0.999941250339
 74
3
 41
0.0
 41
0.25
 41
2.510163038442
 75
0
 11
7571403.03000000026
 21
5715075.87999999989
 12
-0.999811939954
 22
0.019392903973
 13
-0.015131051075
 23
-0.999885519094
 74
3
 41
0.0
 41
0.25
 41
4.390872763339
 75
0
 11
7571398.38999999966
 21
5715075.96999999974
 12
-0.99986266985
 22
0.016572309419
 13
-0.017982624585
 23
-0.999838299533
 74
3
 41
0.0
 41
0.25
 41
5.180745804835
 75
0
 11
7571392.95999999996
 21
5715076.05999999959
 12
-0.999825720059
 22
0.018668945047
 13
-0.017620636918
 23
-0.999844744525
 74
3
 41
0.0
 41
0.25
 41
9.391680351151
 75
0
 11
7571383.3200000003
 21
5715076.24000000022
 12
-0.999834465268
 22
0.018194561323
 13
-0.018431753704
 23
-0.999830120798
 74
3
 41
0.0
 41
0.25
 41
11.29191058711
 75
0
 11
7571371.78000000026
 21
5715076.45000000019
 12
-0.999565762472
 22
-0.029466701455
 13
0.005637671158
 23
-0.999984108206
 74
3
 41
0.0
 41
0.25
 41
21.469431392169
 75
0
 11
7571350.0700000003
 21
5715075.80999999959
 12
-0.999770998475
 22
0.021399780589
 13
0.004034765609
 23
-0.9999918603
 74
3
 41
0.0
 41
0.25
 41
14.703424357175
 75
0
 11
7571335.12000000011
 21
5715076.12999999989
 12
-0.999764520437
 22
0.02170031512
 13
-0.021550048098
 23
-0.999767770748
 74
3
 41
0.0
 41
0.25
 41
6.201519201111
 75
0
 11
7571328.66999999993
 21
5715076.26999999955
 12
-0.995740674055
 22
0.092198210575
 13
-0.056984790723
 23
-0.998375046576
 74
3
 41
0.0
 41
0.25
 41
12.765436988418
 75
0
 11
7571315.70999999996
 21
5715077.46999999974
 12
-0.966951840266
 22
0.254959092024
 13
-0.174174474091
 23
-0.984714807736
 74
3
 41
0.0
 41
0.25
 41
17.713666107022
 75
0
 11
7571298.33999999985
 21
5715082.04999999981
 12
-0.952659211219
 22
0.304040173792
 13
-0.279590977335
 23
-0.960119203741
 74
3
 41
0.0
 41
0.25
 41
25.404504477218
 75
0
 11
7571273.90000000037
 21
5715089.84999999963
 12
-0.919458936095
 22
0.393186043541
 13
-0.349008114664
 23
-0.937119702012
 74
3
 41
0.0
 41
0.25
 41
17.858475916377
 75
0
 11
7571257.25
 21
5715096.96999999974
 12
-0.919447865938
 22
0.393211929908
 13
-0.393198986763
 23
-0.919453401108
 74
3
 41
0.0
 41
0.25
 41
16.814589066613
 75
0
 11
7571241.55999999959
 21
5715103.6799999997
 12
-0.909768204507
 22
0.415116627068
 13
-0.404193255717
 23
-0.914673609564
 74
3
 41
0.0
 41
0.25
 41
14.083321317936
 75
0
 11
7571228.51999999955
 21
5715109.62999999989
 12
-0.90932557021
 22
0.416085336634
 13
-0.415601040779
 23
-0.909547016324
 74
3
 41
0.0
 41
0.25
 41
3.379063239749
 75
0
 11
7571225.21999999974
 21
5715111.13999999966
 12
0.183298701749
 22
0.983057264831
 13
-0.887613065884
 23
-0.460589888374
 74
3
 41
0.0
 41
0.25
 41
19.881075480572
 75
0
 11
7571228.91000000015
 21
5715130.9299999997
 12
0.182929444153
 22
0.983126044036
 13
-0.983091671771
 23
0.183114076181
 74
3
 41
0.0
 41
0.25
 41
20.632368161034
 75
0
 11
7571232.73000000045
 21
5715151.45999999996
 12
0.18342898892
 22
0.983032962837
 13
-0.983079535166
 23
0.183179222449
 74
3
 41
0.0
 41
0.25
 41
24.337171451682
 75
0
 11
7571237.24000000022
 21
5715175.62999999989
 12
0.994457795658
 22
-0.105136542909
 13
-0.597593057499
 23
0.801799562004
 74
3
 41
0.0
 41
0.25
 41
80.407017673516
 75
0
 11
7571317.45000000019
 21
5715167.15000000037
 12
0.995263553678
 22
-0.097213469855
 13
0.101175808511
 23
0.994868562058
 74
3
 41
0.0
 41
0.25
 41
55.09212500453
 75
0
 11
7571372.53000000026
 21
5715161.76999999955
 12
0.972347590078
 22
0.233538356741
 13
-0.069118767661
 23
0.997608438195
 74
3
 41
0.0
 41
0.25
 41
34.048434366404
 75
0
 11
7571405.87999999989
 21
5715169.78000000026
 12
0.815309912618
 22
0.579024823636
 13
-0.413799394105
 23
0.91036809118
 74
3
 41
0.0
 41
0.25
 41
31.406673862389
 75
0
 11
7571431.69000000041
 21
5715188.11000000034
 12
0.69445005607
 22
0.71954090893
 13
-0.652088963777
 23
0.758142455822
 74
3
 41
0.0
 41
0.25
 41
36.81530048387
 75
0
 11
7571457.4299999997
 21
5715214.78000000026
 12
0.51400133419
 22
0.857789384669
 13
-0.793809264927
 23
0.608166795309
 74
3
 41
0.0
 41
0.25
 41
32.473650468346
 75
0
 11
7571474.25
 21
5715242.84999999963
 12
0.193896125822
 22
0.981022065191
 13
-0.933232941521
 23
0.359271870399
 74
3
 41
0.0
 41
0.25
 41
30.075515659238
 75
0
 11
7571480.12999999989
 21
5715272.59999999963
 12
0.959643130232
 22
-0.281220665311
 13
-0.518673903825
 23
0.854972152465
 74
3
 41
0.0
 41
0.25
 41
44.412436118269
 75
0
 11
7571522.99000000022
 21
5715260.04000000004
 12
0.961238678077
 22
-0.275717615993
 13
0.278470283403
 23
0.960444845507
 74
3
 41
0.0
 41
0.25
 41
34.20554236995
 75
0
 11
7571556.11000000034
 21
5715250.54000000004
 12
-0.314441222787
 22
-0.949276944528
 13
0.884303522945
 23
0.466912496413
 74
3
 41
0.0
 41
0.25
 41
129.090547780106
 75
0
  0
INSERT
  5
16A
100
AcDbEntity
  8
odnowienie_ew
  6
CONTINUOUS
100
AcDbBlockReference
 66
0
  2
L_0_02_1
 10
7571357.95000000019
 20
5715001.70999999996
 41
0.50
 42
0.50
 43
0.50
 50
355.03
  0
INSERT
  5
16B
100
AcDbEntity
  8
odnowienie_ew
  6
CONTINUOUS
100
AcDbBlockReference
 66
0
  2
L_0_02_2
 10
7571368.05999999959
 20
5715000.83000000007
 41
0.50
 42
0.50
 43
0.50
 50
175.03
  0
INSERT
  5
16C
100
AcDbEntity
  8
odnowienie_ew
  6
CONTINUOUS
100
AcDbBlockReference
 66
0
  2
L_0_02_1
 10
7571368.05999999959
 20
5715000.83000000007
 41
0.50
 42
0.50
 43
0.50
 50
355.27
  0
INSERT
  5
16D
100
AcDbEntity
  8
odnowienie_ew
  6
CONTINUOUS
100
AcDbBlockReference
 66
0
  2
L_0_02_2
 10
7571372.88999999966
 20
5715000.4299999997
 41
0.50
 42
0.50
 43
0.50
 50
175.27
  0
INSERT
  5
16E
100
AcDbEntity
  8
odnowienie_ew
  6
CONTINUOUS
100
AcDbBlockReference
 66
0
  2
L_0_02_1
 10
7571372.88999999966
 20
5715000.4299999997
 41
0.50
 42
0.50
 43
0.50
 50
355.04
  0
INSERT
  5
16F
100
AcDbEntity
  8
odnowienie_ew
  6
CONTINUOUS
100
AcDbBlockReference
 66
0
  2
L_0_02_2
 10
7571380.26999999955
 20
5714999.79000000004
 41
0.50
 42
0.50
 43
0.50
 50
175.04
  0
INSERT
  5
170
100
AcDbEntity
  8
odnowienie_ew
  6
CONTINUOUS
100
AcDbBlockReference
 66
0
  2
L_0_02_1
 10
7571380.26999999955
 20
5714999.79000000004
 41
0.50
 42
0.50
 43
0.50
 50
355.11
  0
INSERT
  5
171
100
AcDbEntity
  8
odnowienie_ew
  6
CONTINUOUS
100
AcDbBlockReference
 66
0
  2
L_0_02_2
 10
7571387.63999999966
 20
5714999.16000000015
 41
0.50
 42
0.50
 43
0.50
 50
175.11
  0
INSERT
  5
172
100
AcDbEntity
  8
odnowienie_ew
  6
CONTINUOUS
100
AcDbBlockReference
 66
0
  2
L_0_02_1
 10
7571387.63999999966
 20
5714999.16000000015
 41
0.50
 42
0.50
 43
0.50
 50
355.08
  0
INSERT
  5
173
100
AcDbEntity
  8
odnowienie_ew
  6
CONTINUOUS
100
AcDbBlockReference
 66
0
  2
L_0_02_2
 10
7571405.51999999955
 20
5714997.62000000011
 41
0.50
 42
0.50
 43
0.50
 50
175.08
  0
INSERT
  5
174
100
AcDbEntity
  8
odnowienie_ew
  6
CONTINUOUS
100
AcDbBlockReference
 66
0
  2
L_0_02_1
 10
7571405.51999999955
 20
5714997.62000000011
 41
0.50
 42
0.50
 43
0.50
 50
355.07
  0
INSERT
  5
175
100
AcDbEntity
  8
odnowienie_ew
  6
CONTINUOUS
100
AcDbBlockReference
 66
0
  2
L_0_02_2
 10
7571417.91999999993
 20
5714996.54999999981
 41
0.50
 42
0.50
 43
0.50
 50
175.07
  0
INSERT
  5
176
100
AcDbEntity
  8
odnowienie_ew
  6
CONTINUOUS
100
AcDbBlockReference
 66
0
  2
L_0_02_1
 10
7571417.91999999993
 20
5714996.54999999981
 41
0.50
 42
0.50
 43
0.50
 50
355.09
  0
INSERT
  5
177
100
AcDbEntity
  8
odnowienie_ew
  6
CONTINUOUS
100
AcDbBlockReference
 66
0
  2
L_0_02_2
 10
7571436.88999999966
 20
5714994.91999999993
 41
0.50
 42
0.50
 43
0.50
 50
175.09
  0
INSERT
  5
178
100
AcDbEntity
  8
odnowienie_ew
  6
CONTINUOUS
100
AcDbBlockReference
 66
0
  2
L_0_02_1
 10
7571436.88999999966
 20
5714994.91999999993
 41
0.50
 42
0.50
 43
0.50
 50
355.08
  0
INSERT
  5
179
100
AcDbEntity
  8
odnowienie_ew
  6
CONTINUOUS
100
AcDbBlockReference
 66
0
  2
L_0_02_2
 10
7571453.50999999978
 20
5714993.49000000022
 41
0.50
 42
0.50
 43
0.50
 50
175.08
  0
INSERT
  5
17A
100
AcDbEntity
  8
odnowienie_ew
  6
CONTINUOUS
100
AcDbBlockReference
 66
0
  2
L_0_02_1
 10
7571453.50999999978
 20
5714993.49000000022
 41
0.50
 42
0.50
 43
0.50
 50
355.01
  0
INSERT
  5
17B
100
AcDbEntity
  8
odnowienie_ew
  6
CONTINUOUS
100
AcDbBlockReference
 66
0
  2
L_0_02_2
 10
7571470.46999999974
 20
5714992.00999999978
 41
0.50
 42
0.50
 43
0.50
 50
175.01
  0
INSERT
  5
17C
100
AcDbEntity
  8
odnowienie_ew
  6
CONTINUOUS
100
AcDbBlockReference
 66
0
  2
L_0_02_1
 10
7571470.46999999974
 20
5714992.00999999978
 41
0.50
 42
0.50
 43
0.50
 50
251.67
  0
INSERT
  5
17D
100
AcDbEntity
  8
odnowienie_ew
  6
CONTINUOUS
100
AcDbBlockReference
 66
0
  2
L_0_02_2
 10
7571468.23000000045
 20
5714985.25
 41
0.50
 42
0.50
 43
0.50
 50
71.67
  0
INSERT
  5
17E
100
AcDbEntity
  8
odnowienie_ew
  6
CONTINUOUS
100
AcDbBlockReference
 66
0
  2
L_0_02_1
 10
7571468.23000000045
 20
5714985.25
 41
0.50
 42
0.50
 43
0.50
 50
175.23
  0
INSERT
  5
17F
100
AcDbEntity
  8
odnowienie_ew
  6
CONTINUOUS
100
AcDbBlockReference
 66
0
  2
L_0_02_2
 10
7571451.3200000003
 20
5714986.66000000015
 41
0.50
 42
0.50
 43
0.50
 50
355.23
  0
INSERT
  5
180
100
AcDbEntity
  8
odnowienie_ew
  6
CONTINUOUS
100
AcDbBlockReference
 66
0
  2
L_0_02_1
 10
7571451.3200000003
 20
5714986.66000000015
 41
0.50
 42
0.50
 43
0.50
 50
175.23
  0
INSERT
  5
181
100
AcDbEntity
  8
odnowienie_ew
  6
CONTINUOUS
100
AcDbBlockReference
 66
0
  2
L_0_02_2
 10
7571434.65000000037
 20
5714988.04999999981
 41
0.50
 42
0.50
 43
0.50
 50
355.23
  0
INSERT
  5
182
100
AcDbEntity
  8
odnowienie_ew
  6
CONTINUOUS
100
AcDbBlockReference
 66
0
  2
L_0_02_1
 10
7571434.65000000037
 20
5714988.04999999981
 41
0.50
 42
0.50
 43
0.50
 50
175.27
  0
INSERT
  5
183
100
AcDbEntity
  8
odnowienie_ew
  6
CONTINUOUS
100
AcDbBlockReference
 66
0
  2
L_0_02_2
 10
7571415.66000000015
 20
5714989.62000000011
 41
0.50
 42
0.50
 43
0.50
 50
355.27
  0
INSERT
  5
184
100
AcDbEntity
  8
odnowienie_ew
  6
CONTINUOUS
100
AcDbBlockReference
 66
0
  2
L_0_02_1
 10
7571415.66000000015
 20
5714989.62000000011
 41
0.50
 42
0.50
 43
0.50
 50
175.07
  0
INSERT
  5
185
100
AcDbEntity
  8
odnowienie_ew
  6
CONTINUOUS
100
AcDbBlockReference
 66
0
  2
L_0_02_2
 10
7571386.33000000007
 20
5714992.15000000037
 41
0.50
 42
0.50
 43
0.50
 50
355.07
  0
INSERT
  5
186
100
AcDbEntity
  8
odnowienie_ew
  6
CONTINUOUS
100
AcDbBlockReference
 66
0
  2
L_0_02_1
 10
7571386.33000000007
 20
5714992.15000000037
 41
0.50
 42
0.50
 43
0.50
 50
174.53
  0
INSERT
  5
187
100
AcDbEntity
  8
odnowienie_ew
  6
CONTINUOUS
100
AcDbBlockReference
 66
0
  2
L_0_02_2
 10
7571368.04999999981
 20
5714993.90000000037
 41
0.50
 42
0.50
 43
0.50
 50
354.53
  0
INSERT
  5
188
100
AcDbEntity
  8
odnowienie_ew
  6
CONTINUOUS
100
AcDbBlockReference
 66
0
  2
L_0_02_1
 10
7571368.04999999981
 20
5714993.90000000037
 41
0.50
 42
0.50
 43
0.50
 50
174.60
  0
INSERT
  5
189
100
AcDbEntity
  8
odnowienie_ew
  6
CONTINUOUS
100
AcDbBlockReference
 66
0
  2
L_0_02_2
 10
7571353.55999999959
 20
5714995.26999999955
 41
0.50
 42
0.50
 43
0.50
 50
354.60
  0
INSERT
  5
18A
100
AcDbEntity
  8
odnowienie_ew
  6
CONTINUOUS
100
AcDbBlockReference
 66
0
  2
L_0_02_1
 10
7571353.55999999959
 20
5714995.26999999955
 41
0.50
 42
0.50
 43
0.50
 50
174.55
  0
INSERT
  5
18B
100
AcDbEntity
  8
odnowienie_ew
  6
CONTINUOUS
100
AcDbBlockReference
 66
0
  2
L_0_02_2
 10
7571345.91000000015
 20
5714996.0
 41
0.50
 42
0.50
 43
0.50
 50
354.55
  0
INSERT
  5
18C
100
AcDbEntity
  8
odnowienie_ew
  6
CONTINUOUS
100
AcDbBlockReference
 66
0
  2
L_0_02_1
 10
7571345.91000000015
 20
5714996.0
 41
0.50
 42
0.50
 43
0.50
 50
174.60
  0
INSERT
  5
18D
100
AcDbEntity
  8
odnowienie_ew
  6
CONTINUOUS
100
AcDbBlockReference
 66
0
  2
L_0_02_2
 10
7571339.99000000022
 20
5714996.55999999959
 41
0.50
 42
0.50
 43
0.50
 50
354.60
  0
INSERT
  5
18E
100
AcDbEntity
  8
odnowienie_ew
  6
CONTINUOUS
100
AcDbBlockReference
 66
0
  2
L_0_02_1
 10
7571339.99000000022
 20
5714996.55999999959
 41
0.50
 42
0.50
 43
0.50
 50
174.48
  0
INSERT
  5
18F
100
AcDbEntity
  8
odnowienie_ew
  6
CONTINUOUS
100
AcDbBlockReference
 66
0
  2
L_0_02_2
 10
7571332.63999999966
 20
5714997.26999999955
 41
0.50
 42
0.50
 43
0.50
 50
354.48
  0
INSERT
  5
190
100
AcDbEntity
  8
odnowienie_ew
  6
CONTINUOUS
100
AcDbBlockReference
 66
0
  2
L_0_02_1
 10
7571332.63999999966
 20
5714997.26999999955
 41
0.50
 42
0.50
 43
0.50
 50
174.59
  0
INSERT
  5
191
100
AcDbEntity
  8
odnowienie_ew
  6
CONTINUOUS
100
AcDbBlockReference
 66
0
  2
L_0_02_2
 10
7571326.51999999955
 20
5714997.84999999963
 41
0.50
 42
0.50
 43
0.50
 50
354.59
  0
INSERT
  5
192
100
AcDbEntity
  8
odnowienie_ew
  6
CONTINUOUS
100
AcDbBlockReference
 66
0
  2
L_0_02_1
 10
7571326.51999999955
 20
5714997.84999999963
 41
0.50
 42
0.50
 43
0.50
 50
173.45
  0
INSERT
  5
193
100
AcDbEntity
  8
odnowienie_ew
  6
CONTINUOUS
100
AcDbBlockReference
 66
0
  2
L_0_02_2
 10
7571312.41000000015
 20
5714999.46999999974
 41
0.50
 42
0.50
 43
0.50
 50
353.45
  0
INSERT
  5
194
100
AcDbEntity
  8
odnowienie_ew
  6
CONTINUOUS
100
AcDbBlockReference
 66
0
  2
L_0_02_1
 10
7571312.41000000015
 20
5714999.46999999974
 41
0.50
 42
0.50
 43
0.50
 50
172.51
  0
INSERT
  5
195
100
AcDbEntity
  8
odnowienie_ew
  6
CONTINUOUS
100
AcDbBlockReference
 66
0
  2
L_0_02_2
 10
7571288.0
 20
5715002.6799999997
 41
0.50
 42
0.50
 43
0.50
 50
352.51
  0
INSERT
  5
196
100
AcDbEntity
  8
odnowienie_ew
  6
CONTINUOUS
100
AcDbBlockReference
 66
0
  2
L_0_02_1
 10
7571288.0
 20
5715002.6799999997
 41
0.50
 42
0.50
 43
0.50
 50
172.52
  0
INSERT
  5
197
100
AcDbEntity
  8
odnowienie_ew
  6
CONTINUOUS
100
AcDbBlockReference
 66
0
  2
L_0_02_2
 10
7571269.09999999963
 20
5715005.16000000015
 41
0.50
 42
0.50
 43
0.50
 50
352.52
  0
INSERT
  5
198
100
AcDbEntity
  8
odnowienie_ew
  6
CONTINUOUS
100
AcDbBlockReference
 66
0
  2
L_0_02_1
 10
7571269.09999999963
 20
5715005.16000000015
 41
0.50
 42
0.50
 43
0.50
 50
167.88
  0
INSERT
  5
199
100
AcDbEntity
  8
odnowienie_ew
  6
CONTINUOUS
100
AcDbBlockReference
 66
0
  2
L_0_02_2
 10
7571263.13999999966
 20
5715006.44000000041
 41
0.50
 42
0.50
 43
0.50
 50
347.88
  0
INSERT
  5
19A
100
AcDbEntity
  8
odnowienie_ew
  6
CONTINUOUS
100
AcDbBlockReference
 66
0
  2
L_0_02_1
 10
7571263.13999999966
 20
5715006.44000000041
 41
0.50
 42
0.50
 43
0.50
 50
167.95
  0
INSERT
  5
19B
100
AcDbEntity
  8
odnowienie_ew
  6
CONTINUOUS
100
AcDbBlockReference
 66
0
  2
L_0_02_2
 10
7571252.65000000037
 20
5715008.6799999997
 41
0.50
 42
0.50
 43
0.50
 50
347.95
  0
INSERT
  5
19C
100
AcDbEntity
  8
odnowienie_ew
  6
CONTINUOUS
100
AcDbBlockReference
 66
0
  2
L_0_02_1
 10
7571252.65000000037
 20
5715008.6799999997
 41
0.50
 42
0.50
 43
0.50
 50
160.02
  0
INSERT
  5
19D
100
AcDbEntity
  8
odnowienie_ew
  6
CONTINUOUS
100
AcDbBlockReference
 66
0
  2
L_0_02_2
 10
7571239.05999999959
 20
5715013.62000000011
 41
0.50
 42
0.50
 43
0.50
 50
340.02
  0
INSERT
  5
19E
100
AcDbEntity
  8
odnowienie_ew
  6
CONTINUOUS
100
AcDbBlockReference
 66
0
  2
L_0_02_1
 10
7571239.05999999959
 20
5715013.62000000011
 41
0.50
 42
0.50
 43
0.50
 50
150.79
  0
INSERT
  5
19F
100
AcDbEntity
  8
odnowienie_ew
  6
CONTINUOUS
100
AcDbBlockReference
 66
0
  2
L_0_02_2
 10
7571227.54000000004
 20
5715020.05999999959
 41
0.50
 42
0.50
 43
0.50
 50
330.79
  0
INSERT
  5
1A0
100
AcDbEntity
  8
odnowienie_ew
  6
CONTINUOUS
100
AcDbBlockReference
 66
0
  2
L_0_02_1
 10
7571227.54000000004
 20
5715020.05999999959
 41
0.50
 42
0.50
 43
0.50
 50
149.67
  0
INSERT
  5
1A1
100
AcDbEntity
  8
odnowienie_ew
  6
CONTINUOUS
100
AcDbBlockReference
 66
0
  2
L_0_02_2
 10
7571214.71999999974
 20
5715027.55999999959
 41
0.50
 42
0.50
 43
0.50
 50
329.67
  0
INSERT
  5
1A2
100
AcDbEntity
  8
odnowienie_ew
  6
CONTINUOUS
100
AcDbBlockReference
 66
0
  2
L_0_02_1
 10
7571214.71999999974
 20
5715027.55999999959
 41
0.50
 42
0.50
 43
0.50
 50
79.85
  0
INSERT
  5
1A3
100
AcDbEntity
  8
odnowienie_ew
  6
CONTINUOUS
100
AcDbBlockReference
 66
0
  2
L_0_02_2
 10
7571216.41999999992
 20
5715037.05999999959
 41
0.50
 42
0.50
 43
0.50
 50
259.85
  0
INSERT
  5
1A4
100
AcDbEntity
  8
odnowienie_ew
  6
CONTINUOUS
100
AcDbBlockReference
 66
0
  2
L_0_02_1
 10
7571216.41999999992
 20
5715037.05999999959
 41
0.50
 42
0.50
 43
0.50
 50
328.15
  0
INSERT
  5
1A5
100
AcDbEntity
  8
odnowienie_ew
  6
CONTINUOUS
100
AcDbBlockReference
 66
0
  2
L_0_02_2
 10
7571238.54000000004
 20
5715023.3200000003
 41
0.50
 42
0.50
 43
0.50
 50
148.15
  0
INSERT
  5
1A6
100
AcDbEntity
  8
odnowienie_ew
  6
CONTINUOUS
100
AcDbBlockReference
 66
0
  2
L_0_02_1
 10
7571238.54000000004
 20
5715023.3200000003
 41
0.50
 42
0.50
 43
0.50
 50
337.99
  0
INSERT
  5
1A7
100
AcDbEntity
  8
odnowienie_ew
  6
CONTINUOUS
100
AcDbBlockReference
 66
0
  2
L_0_02_2
 10
7571258.62999999989
 20
5715015.20000000019
 41
0.50
 42
0.50
 43
0.50
 50
157.99
  0
INSERT
  5
1A8
100
AcDbEntity
  8
odnowienie_ew
  6
CONTINUOUS
100
AcDbBlockReference
 66
0
  2
L_0_02_1
 10
7571258.62999999989
 20
5715015.20000000019
 41
0.50
 42
0.50
 43
0.50
 50
348.53
  0
INSERT
  5
1A9
100
AcDbEntity
  8
odnowienie_ew
  6
CONTINUOUS
100
AcDbBlockReference
 66
0
  2
L_0_02_2
 10
7571265.58000000007
 20
5715013.79000000004
 41
0.50
 42
0.50
 43
0.50
 50
168.53
  0
INSERT
  5
1AA
100
AcDbEntity
  8
odnowienie_ew
  6
CONTINUOUS
100
AcDbBlockReference
 66
0
  2
L_0_02_1
 10
7571265.58000000007
 20
5715013.79000000004
 41
0.50
 42
0.50
 43
0.50
 50
348.55
  0
INSERT
  5
1AB
100
AcDbEntity
  8
odnowienie_ew
  6
CONTINUOUS
100
AcDbBlockReference
 66
0
  2
L_0_02_2
 10
7571281.78000000026
 20
5715010.50999999978
 41
0.50
 42
0.50
 43
0.50
 50
168.55
  0
INSERT
  5
1AC
100
AcDbEntity
  8
odnowienie_ew
  6
CONTINUOUS
100
AcDbBlockReference
 66
0
  2
L_0_02_1
 10
7571281.78000000026
 20
5715010.50999999978
 41
0.50
 42
0.50
 43
0.50
 50
352.72
  0
INSERT
  5
1AD
100
AcDbEntity
  8
odnowienie_ew
  6
CONTINUOUS
100
AcDbBlockReference
 66
0
  2
L_0_02_2
 10
7571290.24000000022
 20
5715009.4299999997
 41
0.50
 42
0.50
 43
0.50
 50
172.72
  0
INSERT
  5
1AE
100
AcDbEntity
  8
odnowienie_ew
  6
CONTINUOUS
100
AcDbBlockReference
 66
0
  2
L_0_02_1
 10
7571290.24000000022
 20
5715009.4299999997
 41
0.50
 42
0.50
 43
0.50
 50
352.70
  0
INSERT
  5
1AF
100
AcDbEntity
  8
odnowienie_ew
  6
CONTINUOUS
100
AcDbBlockReference
 66
0
  2
L_0_02_2
 10
7571311.46999999974
 20
5715006.70999999996
 41
0.50
 42
0.50
 43
0.50
 50
172.70
  0
INSERT
  5
1B0
100
AcDbEntity
  8
odnowienie_ew
  6
CONTINUOUS
100
AcDbBlockReference
 66
0
  2
L_0_02_1
 10
7571311.46999999974
 20
5715006.70999999996
 41
0.50
 42
0.50
 43
0.50
 50
353.82
  0
INSERT
  5
1B1
100
AcDbEntity
  8
odnowienie_ew
  6
CONTINUOUS
100
AcDbBlockReference
 66
0
  2
L_0_02_2
 10
7571314.70000000019
 20
5715006.36000000034
 41
0.50
 42
0.50
 43
0.50
 50
173.82
  0
INSERT
  5
1B2
100
AcDbEntity
  8
odnowienie_ew
  6
CONTINUOUS
100
AcDbBlockReference
 66
0
  2
L_0_02_1
 10
7571314.70000000019
 20
5715006.36000000034
 41
0.50
 42
0.50
 43
0.50
 50
353.86
  0
INSERT
  5
1B3
100
AcDbEntity
  8
odnowienie_ew
  6
CONTINUOUS
100
AcDbBlockReference
 66
0
  2
L_0_02_2
 10
7571337.29000000004
 20
5715003.9299999997
 41
0.50
 42
0.50
 43
0.50
 50
173.86
  0
INSERT
  5
1B4
100
AcDbEntity
  8
odnowienie_ew
  6
CONTINUOUS
100
AcDbBlockReference
 66
0
  2
L_0_02_1
 10
7571337.29000000004
 20
5715003.9299999997
 41
0.50
 42
0.50
 43
0.50
 50
353.86
  0
INSERT
  5
1B5
100
AcDbEntity
  8
odnowienie_ew
  6
CONTINUOUS
100
AcDbBlockReference
 66
0
  2
L_0_02_2
 10
7571356.54000000004
 20
5715001.86000000034
 41
0.50
 42
0.50
 43
0.50
 50
173.86
  0
INSERT
  5
1B6
100
AcDbEntity
  8
odnowienie_ew
  6
CONTINUOUS
100
AcDbBlockReference
 66
0
  2
L_0_02_1
 10
7571356.54000000004
 20
5715001.86000000034
 41
0.50
 42
0.50
 43
0.50
 50
353.93
  0
INSERT
  5
1B7
100
AcDbEntity
  8
odnowienie_ew
  6
CONTINUOUS
100
AcDbBlockReference
 66
0
  2
L_0_02_2
 10
7571357.95000000019
 20
5715001.70999999996
 41
0.50
 42
0.50
 43
0.50
 50
173.93
  0
MLINE
  5
1B8
100
AcDbEntity
  8
odnowienie_ew
  6
L_0_02
370
18
100
AcDbMline
  2
L_0_02
340
7
 40
1.0
 70
1
 71
3
 72
39
 73
1
 10
7571357.95000000019
 20
5715001.70999999996
210
0.0
220
0.0
230
1.0
 11
7571357.95000000019
 21
5715001.70999999996
 12
0.996233189491
 22
-0.086714659416
 13
0.096254774356
 23
0.995356729225
 74
3
 41
0.0
 41
0.25
 41
9.898226445431
 75
0
 11
7571368.05999999959
 21
5715000.83000000007
 12
0.996588316154
 22
-0.08253319396
 13
0.084624112975
 23
0.996412946274
 74
3
 41
0.0
 41
0.25
 41
4.596534844713
 75
0
 11
7571372.88999999966
 21
5715000.4299999997
 12
0.996260822817
 22
-0.086396602477
 13
0.084465056941
 23
0.996426441919
 74
3
 41
0.0
 41
0.25
 41
7.157698697836
 75
0
 11
7571380.26999999955
 21
5714999.79000000004
 12
0.996366342571
 22
-0.08517107133
 13
0.085783853128
 23
0.99631377113
 74
3
 41
0.0
 41
0.25
 41
7.146877719789
 75
0
 11
7571387.63999999966
 21
5714999.16000000015
 12
0.996311342874
 22
-0.085812050787
 13
0.085491565481
 23
0.996338894268
 74
3
 41
0.0
 41
0.25
 41
17.696197368694
 75
0
 11
7571405.51999999955
 21
5714997.62000000011
 12
0.996297653142
 22
-0.085970845897
 13
0.085891448615
 23
0.996304501172
 74
3
 41
0.0
 41
0.25
 41
12.196079704464
 75
0
 11
7571417.91999999993
 21
5714996.54999999981
 12
0.996328751252
 22
-0.08560969238
 13
0.085790270548
 23
0.996313218561
 74
3
 41
0.0
 41
0.25
 41
18.789900209553
 75
0
 11
7571436.88999999966
 21
5714994.91999999993
 12
0.996318906409
 22
-0.085724189883
 13
0.085666941273
 23
0.996323830475
 74
3
 41
0.0
 41
0.25
 41
16.431405816143
 75
0
 11
7571453.50999999978
 21
5714993.49000000022
 12
0.996214092663
 22
-0.086933776981
 13
0.086328999339
 23
0.996266683109
 74
3
 41
0.0
 41
0.25
 41
16.774453001493
 75
0
 11
7571470.46999999974
 21
5714992.00999999978
 12
-0.314542219502
 22
-0.949243484123
 13
0.835425853429
 23
0.549603169044
 74
3
 41
0.0
 41
0.25
 41
6.871460523924
 75
0
 11
7571468.23000000045
 21
5714985.25
 12
-0.996541692768
 22
0.08309425115
 13
0.5512117958
 23
-0.83436536132
 74
3
 41
0.0
 41
0.25
 41
16.718682918997
 75
0
 11
7571451.3200000003
 21
5714986.66000000015
 12
-0.996541634222
 22
0.083094953284
 13
-0.083094602217
 23
-0.996541663496
 74
3
 41
0.0
 41
0.25
 41
16.477851027451
 75
0
 11
7571434.65000000037
 21
5714988.04999999981
 12
-0.996599835203
 22
0.082393983231
 13
-0.082744473374
 23
-0.996570796344
 74
3
 41
0.0
 41
0.25
 41
18.804789424431
 75
0
 11
7571415.66000000015
 21
5714989.62000000011
 12
-0.996300257158
 22
0.085940663173
 13
-0.084167456488
 23
-0.996451624149
 74
3
 41
0.0
 41
0.25
 41
29.188916420373
 75
0
 11
7571386.33000000007
 21
5714992.15000000037
 12
-0.995448851419
 22
0.095297346278
 13
-0.090620004637
 23
-0.995885543002
 74
3
 41
0.0
 41
0.25
 41
18.113575360194
 75
0
 11
7571368.04999999981
 21
5714993.90000000037
 12
-0.995560086517
 22
0.094128179275
 13
-0.094712779106
 23
-0.995504640609
 74
3
 41
0.0
 41
0.25
 41
14.304621259388
 75
0
 11
7571353.55999999959
 21
5714995.26999999955
 12
-0.995477910216
 22
0.094993316988
 13
-0.094560757058
 23
-0.995519092346
 74
3
 41
0.0
 41
0.25
 41
7.434751134038
 75
0
 11
7571345.91000000015
 21
5714996.0
 12
-0.995555735121
 22
0.094174191092
 13
-0.094583762044
 23
-0.995516906917
 74
3
 41
0.0
 41
0.25
 41
5.696427498815
 75
0
 11
7571339.99000000022
 21
5714996.55999999959
 12
-0.995366751992
 22
0.09615107399
 13
-0.095162679454
 23
-0.995461734292
 74
3
 41
0.0
 41
0.25
 41
7.134212890225
 75
0
 11
7571332.63999999966
 21
5714997.26999999955
 12
-0.995539232056
 22
0.094348489323
 13
-0.095249820697
 23
-0.995453400043
 74
3
 41
0.0
 41
0.25
 41
5.897422224108
 75
0
 11
7571326.51999999955
 21
5714997.84999999963
 12
-0.993473533231
 22
0.114062872007
 13
-0.104210799156
 23
-0.99455523192
 74
3
 41
0.0
 41
0.25
 41
13.952693405954
 75
0
 11
7571312.41000000015
 21
5714999.46999999974
 12
-0.991463970142
 22
0.130380964527
 13
-0.122226048332
 23
-0.992502288717
 74
3
 41
0.0
 41
0.25
 41
24.370158407432
 75
0
 11
7571288.0
 21
5715002.6799999997
 12
-0.991500657849
 22
0.130101673643
 13
-0.130241320377
 23
-0.99148232383
 74
3
 41
0.0
 41
0.25
 41
18.812014584411
 75
0
 11
7571269.09999999963
 21
5715005.16000000015
 12
-0.977706285229
 22
0.209977188818
 13
-0.170179256528
 23
-0.985413121816
 74
3
 41
0.0
 41
0.25
 41
5.84590026167
 75
0
 11
7571263.13999999966
 21
5715006.44000000041
 12
-0.977952236169
 22
0.208828694802
 13
-0.20940297792
 23
-0.977829429317
 74
3
 41
0.0
 41
0.25
 41
10.476495232926
 75
0
 11
7571252.65000000037
 21
5715008.6799999997
 12
-0.939833800151
 22
0.341632006833
 13
-0.275889470264
 23
-0.961189367501
 74
3
 41
0.0
 41
0.25
 41
14.210003458689
 75
0
 11
7571239.05999999959
 21
5715013.62000000011
 12
-0.87286755198
 22
0.487957207857
 13
-0.416143828359
 23
-0.90929880354
 74
3
 41
0.0
 41
0.25
 41
12.94787861677
 75
0
 11
7571227.54000000004
 21
5715020.05999999959
 12
-0.863143309861
 22
0.504959034618
 13
-0.496481929544
 23
-0.86804705727
 74
3
 41
0.0
 41
0.25
 41
14.602689992309
 75
0
 11
7571214.71999999974
 21
5715027.55999999959
 12
0.176149252524
 22
0.98436346988
 13
-0.908048808247
 23
-0.418864371654
 74
3
 41
0.0
 41
0.25
 41
9.400906693189
 75
0
 11
7571216.41999999992
 21
5715037.05999999959
 12
0.849462115056
 22
-0.527649613934
 13
-0.406797786703
 23
0.913518232294
 74
3
 41
0.0
 41
0.25
 41
25.790007680212
 75
0
 11
7571238.54000000004
 21
5715023.3200000003
 12
0.927133946389
 22
-0.374730096806
 13
0.452858160945
 23
0.891582573891
 74
3
 41
0.0
 41
0.25
 41
21.418929368933
 75
0
 11
7571258.62999999989
 21
5715015.20000000019
 12
0.980034571515
 22
-0.19882715769
 13
0.287995833444
 23
0.957631661924
 74
3
 41
0.0
 41
0.25
 41
6.841586564585
 75
0
 11
7571265.58000000007
 21
5715013.79000000004
 12
0.980112524151
 22
-0.198442535768
 13
0.198634850553
 23
0.980073566701
 74
3
 41
0.0
 41
0.25
 41
16.278714408802
 75
0
 11
7571281.78000000026
 21
5715010.50999999978
 12
0.991949779603
 22
-0.126631886767
 13
0.162644935982
 23
0.986684663304
 74
3
 41
0.0
 41
0.25
 41
8.27865757312
 75
0
 11
7571290.24000000022
 21
5715009.4299999997
 12
0.991892238513
 22
-0.127081812933
 13
0.126856853112
 23
0.991921034568
 74
3
 41
0.0
 41
0.25
 41
21.153534754288
 75
0
 11
7571311.46999999974
 21
5715006.70999999996
 12
0.994180348751
 22
-0.107728520633
 13
0.117410740775
 23
0.993083439571
 74
3
 41
0.0
 41
0.25
 41
2.998907509091
 75
0
 11
7571314.70000000019
 21
5715006.36000000034
 12
0.994264108377
 22
-0.106952712882
 13
0.107340624927
 23
0.994222304236
 74
3
 41
0.0
 41
0.25
 41
22.470321300465
 75
0
 11
7571337.29000000004
 21
5715003.9299999997
 12
0.99426804652
 22
-0.106916096398
 13
0.106934404658
 23
0.994266077617
 74
3
 41
0.0
 41
0.25
 41
19.110976214989
 75
0
 11
7571356.54000000004
 21
5715001.86000000034
 12
0.994388913153
 22
-0.105786054842
 13
0.106351092791
 23
0.994328640371
 74
3
 41
0.0
 41
0.25
 41
1.167956275959
 75
0
  0
INSERT
  5
1B9
100
AcDbEntity
  8
odnowienie_ew
  6
CONTINUOUS
100
AcDbBlockReference
 66
0
  2
L_0_02_1
 10
7571357.53000000026
 20
5715001.75999999978
 41
0.50
 42
0.50
 43
0.50
 50
174.23
  0
INSERT
  5
1BA
100
AcDbEntity
  8
odnowienie_ew
  6
CONTINUOUS
100
AcDbBlockReference
 66
0
  2
L_0_02_2
 10
7571356.54000000004
 20
5715001.86000000034
 41
0.50
 42
0.50
 43
0.50
 50
354.23
  0
INSERT
  5
1BB
100
AcDbEntity
  8
odnowienie_ew
  6
CONTINUOUS
100
AcDbBlockReference
 66
0
  2
L_0_02_1
 10
7571356.54000000004
 20
5715001.86000000034
 41
0.50
 42
0.50
 43
0.50
 50
161.92
  0
INSERT
  5
1BC
100
AcDbEntity
  8
odnowienie_ew
  6
CONTINUOUS
100
AcDbBlockReference
 66
0
  2
L_0_02_2
 10
7571346.91999999992
 20
5715005.0
 41
0.50
 42
0.50
 43
0.50
 50
341.92
  0
INSERT
  5
1BD
100
AcDbEntity
  8
odnowienie_ew
  6
CONTINUOUS
100
AcDbBlockReference
 66
0
  2
L_0_02_1
 10
7571346.91999999992
 20
5715005.0
 41
0.50
 42
0.50
 43
0.50
 50
70.82
  0
INSERT
  5
1BE
100
AcDbEntity
  8
odnowienie_ew
  6
CONTINUOUS
100
AcDbBlockReference
 66
0
  2
L_0_02_2
 10
7571371.78000000026
 20
5715076.45000000019
 41
0.50
 42
0.50
 43
0.50
 50
250.82
  0
INSERT
  5
1BF
100
AcDbEntity
  8
odnowienie_ew
  6
CONTINUOUS
100
AcDbBlockReference
 66
0
  2
L_0_02_1
 10
7571371.78000000026
 20
5715076.45000000019
 41
0.50
 42
0.50
 43
0.50
 50
358.96
  0
INSERT
  5
1C0
100
AcDbEntity
  8
odnowienie_ew
  6
CONTINUOUS
100
AcDbBlockReference
 66
0
  2
L_0_02_2
 10
7571383.3200000003
 20
5715076.24000000022
 41
0.50
 42
0.50
 43
0.50
 50
178.96
  0
INSERT
  5
1C1
100
AcDbEntity
  8
odnowienie_ew
  6
CONTINUOUS
100
AcDbBlockReference
 66
0
  2
L_0_02_1
 10
7571383.3200000003
 20
5715076.24000000022
 41
0.50
 42
0.50
 43
0.50
 50
250.90
  0
INSERT
  5
1C2
100
AcDbEntity
  8
odnowienie_ew
  6
CONTINUOUS
100
AcDbBlockReference
 66
0
  2
L_0_02_2
 10
7571357.53000000026
 20
5715001.75999999978
 41
0.50
 42
0.50
 43
0.50
 50
70.90
  0
MLINE
  5
1C3
100
AcDbEntity
  8
odnowienie_ew
  6
L_0_02
370
18
100
AcDbMline
  2
L_0_02
340
7
 40
1.0
 70
1
 71
3
 72
5
 73
1
 10
7571357.53000000026
 20
5715001.75999999978
210
0.0
220
0.0
230
1.0
 11
7571357.53000000026
 21
5715001.75999999978
 12
-0.994937188969
 22
0.100498706495
 13
0.538276700349
 23
-0.842768173261
 74
3
 41
0.0
 41
0.25
 41
0.745037688007
 75
0
 11
7571356.54000000004
 21
5715001.86000000034
 12
-0.95064115457
 22
0.310292435031
 13
-0.206586241446
 23
-0.978428395359
 74
3
 41
0.0
 41
0.25
 41
9.869486152965
 75
0
 11
7571346.91999999992
 21
5715005.0
 12
0.328612907957
 22
0.944464693212
 13
-0.895950111246
 23
-0.444154700705
 74
3
 41
0.0
 41
0.25
 41
75.401319222095
 75
0
 11
7571371.78000000026
 21
5715076.45000000019
 12
0.999834465268
 22
-0.018194561323
 13
-0.571951644859
 23
0.820287337427
 74
3
 41
0.0
 41
0.25
 41
11.29191058711
 75
0
 11
7571383.3200000003
 21
5715076.24000000022
 12
-0.327206429529
 22
-0.944952883733
 13
0.819861350684
 23
0.572562106373
 74
3
 41
0.0
 41
0.25
 41
78.568744598404
 75
0
  0
POLYLINE
  5
1C4
100
AcDbEntity
  8
uzytkowanie_2022
  6
ByLayer
370
35
100
AcDb2dPolyline
 66
1
 70
128
  0
VERTEX
  5
1C5
100
AcDbEntity
  8
uzytkowanie_2022
100
AcDbVertex
100
AcDb2dVertex
 10
7571337.29600000009
 20
5715003.90799999982
  0
VERTEX
  5
1C6
100
AcDbEntity
  8
uzytkowanie_2022
100
AcDbVertex
100
AcDb2dVertex
 10
7571265.58000000007
 20
5715013.79000000004
  0
SEQEND
  5
1C7
100
AcDbEntity
  8
uzytkowanie_2022
  0
POLYLINE
  5
1C8
100
AcDbEntity
  8
uzytkowanie_2022
  6
ByLayer
370
35
100
AcDb2dPolyline
 66
1
 70
128
  0
VERTEX
  5
1C9
100
AcDbEntity
  8
uzytkowanie_2022
100
AcDbVertex
100
AcDb2dVertex
 10
7571276.98008120805
 20
5715016.25560155138
  0
VERTEX
  5
1CA
100
AcDbEntity
  8
uzytkowanie_2022
100
AcDbVertex
100
AcDb2dVertex
 10
7571358.65000000037
 20
5715005.0
  0
SEQEND
  5
1CB
100
AcDbEntity
  8
uzytkowanie_2022
  0
POLYLINE
  5
1CC
100
AcDbEntity
  8
uzytkowanie_2022
  6
ByLayer
370
35
100
AcDb2dPolyline
 66
1
 70
128
  0
VERTEX
  5
1CD
100
AcDbEntity
  8
uzytkowanie_2022
100
AcDbVertex
100
AcDb2dVertex
 10
7571298.33999999985
 20
5715082.04999999981
  0
VERTEX
  5
1CE
100
AcDbEntity
  8
uzytkowanie_2022
100
AcDbVertex
100
AcDb2dVertex
 10
7571280.37999999989
 20
5715026.70000000019
  0
VERTEX
  5
1CF
100
AcDbEntity
  8
uzytkowanie_2022
100
AcDbVertex
100
AcDb2dVertex
 10
7571276.98000000045
 20
5715016.25999999978
  0
SEQEND
  5
1D0
100
AcDbEntity
  8
uzytkowanie_2022
  0
POLYLINE
  5
1D1
100
AcDbEntity
  8
uzytkowanie_2022
  6
ByLayer
 62
7
370
35
100
AcDb2dPolyline
 66
1
 70
128
  0
VERTEX
  5
1D2
100
AcDbEntity
  8
uzytkowanie_2022
100
AcDbVertex
100
AcDb2dVertex
 10
7571286.39807221852
 20
5715045.24678715412
  0
VERTEX
  5
1D3
100
AcDbEntity
  8
uzytkowanie_2022
100
AcDbVertex
100
AcDb2dVertex
 10
7571368.66079083085
 20
5715033.90506789833
  0
SEQEND
  5
1D4
100
AcDbEntity
  8
uzytkowanie_2022
  0
POLYLINE
  5
1D5
100
AcDbEntity
  8
uzytkowanie_2022
  6
ByLayer
370
35
100
AcDb2dPolyline
 66
1
 70
129
  0
VERTEX
  5
1D6
100
AcDbEntity
  8
uzytkowanie_2022
100
AcDbVertex
100
AcDb2dVertex
 10
7571276.98008120805
 20
5715016.25560155138
  0
VERTEX
  5
1D7
100
AcDbEntity
  8
uzytkowanie_2022
100
AcDbVertex
100
AcDb2dVertex
 10
7571298.33999999985
 20
5715082.04999999981
  0
VERTEX
  5
1D8
100
AcDbEntity
  8
uzytkowanie_2022
100
AcDbVertex
100
AcDb2dVertex
 10
7571315.70999999996
 20
5715077.46999999974
  0
VERTEX
  5
1D9
100
AcDbEntity
  8
uzytkowanie_2022
100
AcDbVertex
100
AcDb2dVertex
 10
7571367.95000000019
 20
5715065.44000000041
  0
VERTEX
  5
1DA
100
AcDbEntity
  8
uzytkowanie_2022
100
AcDbVertex
100
AcDb2dVertex
 10
7571369.15799999982
 20
5715065.10800000001
  0
VERTEX
  5
1DB
100
AcDbEntity
  8
uzytkowanie_2022
100
AcDbVertex
100
AcDb2dVertex
 10
7571375.61699999962
 20
5715064.15199999977
  0
VERTEX
  5
1DC
100
AcDbEntity
  8
uzytkowanie_2022
100
AcDbVertex
100
AcDb2dVertex
 10
7571379.29999999981
 20
5715064.62999999989
  0
VERTEX
  5
1DD
100
AcDbEntity
  8
uzytkowanie_2022
100
AcDbVertex
100
AcDb2dVertex
 10
7571358.65092503931
 20
5715004.99716544803
  0
SEQEND
  5
1DE
100
AcDbEntity
  8
uzytkowanie_2022
  0
POINT
  5
1DF
100
AcDbEntity
  8
odnowienie_ew
100
AcDbPoint
 62
0
 10
7571357.53000000026
 20
5715001.75999999978
  0
POINT
  5
1E0
100
AcDbEntity
  8
uzytkowanie_2022
100
AcDbPoint
 62
0
 10
7571266.85914842412
 20
5715017.64955401048
  0
POINT
  5
1E1
100
AcDbEntity
  8
uzytkowanie_2022
100
AcDbPoint
 62
0
 10
7571276.98000000045
 20
5715016.25999999978
  0
POINT
  5
1E2
100
AcDbEntity
  8
uzytkowanie_2022
100
AcDbPoint
 62
0
 10
7571358.65000000037
 20
5715005.0
  0
POINT
  5
1E3
100
AcDbEntity
  8
uzytkowanie_2022
100
AcDbPoint
 62
0
 10
7571368.66079083085
 20
5715033.90506789833
  0
POINT
  5
1E4
100
AcDbEntity
  8
uzytkowanie_2022
100
AcDbPoint
 62
0
 10
7571286.39807221852
 20
5715045.24678715412
  0
POINT
  5
1E5
100
AcDbEntity
  8
0
100
AcDbPoint
 62
0
 10
7571326.48000000045
 20
5714557.90000000037
  0
POINT
  5
1E6
100
AcDbEntity
  8
0
100
AcDbPoint
 62
0
 10
7571462.20000000019
 20
5714967.40000000037
  0
POINT
  5
1E7
100
AcDbEntity
  8
0
100
AcDbPoint
 62
0
 10
7571456.48000000045
 20
5714969.25999999978
  0
POINT
  5
1E8
100
AcDbEntity
  8
0
100
AcDbPoint
 62
0
 10
7571455.25999999978
 20
5714965.45999999996
  0
POINT
  5
1E9
100
AcDbEntity
  8
0
100
AcDbPoint
 62
0
 10
7571364.50999999978
 20
5714682.87999999989
  0
POINT
  5
1EA
100
AcDbEntity
  8
0
100
AcDbPoint
 62
0
 10
7571325.5
 20
5714564.53000000026
  0
POINT
  5
1EB
100
AcDbEntity
  8
0
100
AcDbPoint
 62
0
 10
7571305.41000000015
 20
5714571.08999999985
  0
POINT
  5
1EC
100
AcDbEntity
  8
0
100
AcDbPoint
 62
0
 10
7571279.12999999989
 20
5714579.66999999993
  0
POINT
  5
1ED
100
AcDbEntity
  8
0
100
AcDbPoint
 62
0
 10
7571258.21999999974
 20
5714586.5
  0
POINT
  5
1EE
100
AcDbEntity
  8
0
100
AcDbPoint
 62
0
 10
7571240.29999999981
 20
5714592.34999999963
  0
POINT
  5
1EF
100
AcDbEntity
  8
0
100
AcDbPoint
 62
0
 10
7571221.91000000015
 20
5714598.34999999963
  0
POINT
  5
1F0
100
AcDbEntity
  8
0
100
AcDbPoint
 62
0
 10
7571214.78000000026
 20
5714600.6799999997
  0
POINT
  5
1F1
100
AcDbEntity
  8
0
100
AcDbPoint
 62
0
 10
7571209.36000000034
 20
5714602.45000000019
  0
POINT
  5
1F2
100
AcDbEntity
  8
0
100
AcDbPoint
 62
0
 10
7571202.33000000007
 20
5714604.74000000022
  0
POINT
  5
1F3
100
AcDbEntity
  8
0
100
AcDbPoint
 62
0
 10
7571196.8200000003
 20
5714606.54000000004
  0
POINT
  5
1F4
100
AcDbEntity
  8
0
100
AcDbPoint
 62
0
 10
7571183.50999999978
 20
5714610.88999999966
  0
POINT
  5
1F5
100
AcDbEntity
  8
0
100
AcDbPoint
 62
0
 10
7571160.50999999978
 20
5714618.40000000037
  0
POINT
  5
1F6
100
AcDbEntity
  8
0
100
AcDbPoint
 62
0
 10
7571136.94000000041
 20
5714626.09999999963
  0
POINT
  5
1F7
100
AcDbEntity
  8
0
100
AcDbPoint
 62
0
 10
7571113.49000000022
 20
5714633.75
  0
POINT
  5
1F8
100
AcDbEntity
  8
0
100
AcDbPoint
 62
0
 10
7571111.88999999966
 20
5714627.96999999974
  0
POINT
  5
1F9
100
AcDbEntity
  8
0
100
AcDbPoint
 62
0
 10
7571117.58999999985
 20
5714626.11000000034
  0
POINT
  5
1FA
100
AcDbEntity
  8
0
100
AcDbPoint
 62
0
 10
7571159.41000000015
 20
5714612.45999999996
  0
POINT
  5
1FB
100
AcDbEntity
  8
0
100
AcDbPoint
 62
0
 10
7571195.74000000022
 20
5714600.58000000007
  0
POINT
  5
1FC
100
AcDbEntity
  8
0
100
AcDbPoint
 62
0
 10
7571292.40000000037
 20
5714569.03000000026
  0
POINT
  5
1FD
100
AcDbEntity
  8
0
100
AcDbPoint
 62
0
 10
7571303.80999999959
 20
5714565.29999999981
  0
POINT
  5
1FE
100
AcDbEntity
  8
0
100
AcDbPoint
 62
0
 10
7571313.79000000004
 20
5714562.04000000004
  0
POINT
  5
1FF
100
AcDbEntity
  8
0
100
AcDbPoint
 62
0
 10
7571326.51999999955
 20
5714997.84999999963
  0
POINT
  5
200
100
AcDbEntity
  8
0
100
AcDbPoint
 62
0
 10
7571312.41000000015
 20
5714999.46999999974
  0
POINT
  5
201
100
AcDbEntity
  8
0
100
AcDbPoint
 62
0
 10
7571332.63999999966
 20
5714997.26999999955
  0
POINT
  5
202
100
AcDbEntity
  8
0
100
AcDbPoint
 62
0
 10
7571339.99000000022
 20
5714996.55999999959
  0
POINT
  5
203
100
AcDbEntity
  8
0
100
AcDbPoint
 62
0
 10
7571216.41999999992
 20
5715037.05999999959
  0
POINT
  5
204
100
AcDbEntity
  8
0
100
AcDbPoint
 62
0
 10
7571238.54000000004
 20
5715023.3200000003
  0
POINT
  5
205
100
AcDbEntity
  8
0
100
AcDbPoint
 62
0
 10
7571258.62999999989
 20
5715015.20000000019
  0
POINT
  5
206
100
AcDbEntity
  8
0
100
AcDbPoint
 62
0
 10
7571265.58000000007
 20
5715013.79000000004
  0
POINT
  5
207
100
AcDbEntity
  8
0
100
AcDbPoint
 62
0
 10
7571269.62999999989
 20
5715026.00999999978
  0
POINT
  5
208
100
AcDbEntity
  8
0
100
AcDbPoint
 62
0
 10
7571217.49000000022
 20
5715043.00999999978
  0
POINT
  5
209
100
AcDbEntity
  8
0
100
AcDbPoint
 62
0
 10
7571290.24000000022
 20
5715009.4299999997
  0
POINT
  5
20A
100
AcDbEntity
  8
0
100
AcDbPoint
 62
0
 10
7571293.19000000041
 20
5715018.3200000003
  0
POINT
  5
20B
100
AcDbEntity
  8
0
100
AcDbPoint
 62
0
 10
7571281.78000000026
 20
5715010.50999999978
  0
POINT
  5
20C
100
AcDbEntity
  8
0
100
AcDbPoint
 62
0
 10
7571337.29000000004
 20
5715003.9299999997
  0
POINT
  5
20D
100
AcDbEntity
  8
0
100
AcDbPoint
 62
0
 10
7571311.46999999974
 20
5715006.70999999996
  0
POINT
  5
20E
100
AcDbEntity
  8
0
100
AcDbPoint
 62
0
 10
7571314.70000000019
 20
5715006.36000000034
  0
POINT
  5
20F
100
AcDbEntity
  8
0
100
AcDbPoint
 62
0
 10
7571297.62000000011
 20
5715021.08000000007
  0
POINT
  5
210
100
AcDbEntity
  8
0
100
AcDbPoint
 62
0
 10
7571280.37999999989
 20
5715026.70000000019
  0
POINT
  5
211
100
AcDbEntity
  8
0
100
AcDbPoint
 62
0
 10
7571255.87000000011
 20
5715034.70000000019
  0
POINT
  5
212
100
AcDbEntity
  8
0
100
AcDbPoint
 62
0
 10
7571238.58000000007
 20
5715040.33999999985
  0
POINT
  5
213
100
AcDbEntity
  8
0
100
AcDbPoint
 62
0
 10
7571226.96999999974
 20
5715044.12000000011
  0
POINT
  5
214
100
AcDbEntity
  8
0
100
AcDbPoint
 62
0
 10
7571218.15000000037
 20
5715047.0
  0
POINT
  5
215
100
AcDbEntity
  8
0
100
AcDbPoint
 62
0
 10
7571356.54000000004
 20
5715001.86000000034
  0
POINT
  5
216
100
AcDbEntity
  8
0
100
AcDbPoint
 62
0
 10
7571346.91999999992
 20
5715005.0
  0
POINT
  5
217
100
AcDbEntity
  8
0
100
AcDbPoint
 62
0
 10
7571329.50999999978
 20
5715010.6799999997
  0
POINT
  5
218
100
AcDbEntity
  8
0
100
AcDbPoint
 62
0
 10
7571315.0700000003
 20
5715015.38999999966
  0
POINT
  5
219
100
AcDbEntity
  8
0
100
AcDbPoint
 62
0
 10
7571273.90000000037
 20
5715089.84999999963
  0
POINT
  5
21A
100
AcDbEntity
  8
0
100
AcDbPoint
 62
0
 10
7571257.25
 20
5715096.96999999974
  0
POINT
  5
21B
100
AcDbEntity
  8
0
100
AcDbPoint
 62
0
 10
7571298.33999999985
 20
5715082.04999999981
  0
POINT
  5
21C
100
AcDbEntity
  8
0
100
AcDbPoint
 62
0
 10
7571315.70999999996
 20
5715077.46999999974
  0
POINT
  5
21D
100
AcDbEntity
  8
0
100
AcDbPoint
 62
0
 10
7571350.0700000003
 20
5715075.80999999959
  0
POINT
  5
21E
100
AcDbEntity
  8
0
100
AcDbPoint
 62
0
 10
7571335.12000000011
 20
5715076.12999999989
  0
POINT
  5
21F
100
AcDbEntity
  8
0
100
AcDbPoint
 62
0
 10
7571371.78000000026
 20
5715076.45000000019
  0
POINT
  5
220
100
AcDbEntity
  8
0
100
AcDbPoint
 62
0
 10
7571328.66999999993
 20
5715076.26999999955
  0
POINT
  5
221
100
AcDbEntity
  8
0
100
AcDbPoint
 62
0
 10
7571288.0
 20
5715002.6799999997
  0
POINT
  5
222
100
AcDbEntity
  8
0
100
AcDbPoint
 62
0
 10
7571248.13999999966
 20
5714882.51999999955
  0
POINT
  5
223
100
AcDbEntity
  8
0
100
AcDbPoint
 62
0
 10
7571224.33000000007
 20
5714889.46999999974
  0
POINT
  5
224
100
AcDbEntity
  8
0
100
AcDbPoint
 62
0
 10
7571263.13999999966
 20
5715006.44000000041
  0
POINT
  5
225
100
AcDbEntity
  8
0
100
AcDbPoint
 62
0
 10
7571252.65000000037
 20
5715008.6799999997
  0
POINT
  5
226
100
AcDbEntity
  8
0
100
AcDbPoint
 62
0
 10
7571239.05999999959
 20
5715013.62000000011
  0
POINT
  5
227
100
AcDbEntity
  8
0
100
AcDbPoint
 62
0
 10
7571227.54000000004
 20
5715020.05999999959
  0
POINT
  5
228
100
AcDbEntity
  8
0
100
AcDbPoint
 62
0
 10
7571214.71999999974
 20
5715027.55999999959
  0
POINT
  5
229
100
AcDbEntity
  8
0
100
AcDbPoint
 62
0
 10
7571198.16999999993
 20
5714935.16000000015
  0
POINT
  5
22A
100
AcDbEntity
  8
0
100
AcDbPoint
 62
0
 10
7571153.45999999996
 20
5714778.28000000026
  0
POINT
  5
22B
100
AcDbEntity
  8
0
100
AcDbPoint
 62
0
 10
7571269.09999999963
 20
5715005.16000000015
  0
POINT
  5
22C
100
AcDbEntity
  8
0
100
AcDbPoint
 62
0
 10
7571515.44000000041
 20
5715127.75999999978
  0
POINT
  5
22D
100
AcDbEntity
  8
0
100
AcDbPoint
 62
0
 10
7571556.11000000034
 20
5715250.54000000004
  0
POINT
  5
22E
100
AcDbEntity
  8
0
100
AcDbPoint
 62
0
 10
7571522.99000000022
 20
5715260.04000000004
  0
POINT
  5
22F
100
AcDbEntity
  8
0
100
AcDbPoint
 62
0
 10
7571480.12999999989
 20
5715272.59999999963
  0
POINT
  5
230
100
AcDbEntity
  8
0
100
AcDbPoint
 62
0
 10
7571474.25
 20
5715242.84999999963
  0
POINT
  5
231
100
AcDbEntity
  8
0
100
AcDbPoint
 62
0
 10
7571457.4299999997
 20
5715214.78000000026
  0
POINT
  5
232
100
AcDbEntity
  8
0
100
AcDbPoint
 62
0
 10
7571431.69000000041
 20
5715188.11000000034
  0
POINT
  5
233
100
AcDbEntity
  8
0
100
AcDbPoint
 62
0
 10
7571405.87999999989
 20
5715169.78000000026
  0
POINT
  5
234
100
AcDbEntity
  8
0
100
AcDbPoint
 62
0
 10
7571372.53000000026
 20
5715161.76999999955
  0
POINT
  5
235
100
AcDbEntity
  8
0
100
AcDbPoint
 62
0
 10
7571317.45000000019
 20
5715167.15000000037
  0
POINT
  5
236
100
AcDbEntity
  8
0
100
AcDbPoint
 62
0
 10
7571237.24000000022
 20
5715175.62999999989
  0
POINT
  5
237
100
AcDbEntity
  8
0
100
AcDbPoint
 62
0
 10
7571232.73000000045
 20
5715151.45999999996
  0
POINT
  5
238
100
AcDbEntity
  8
0
100
AcDbPoint
 62
0
 10
7571228.91000000015
 20
5715130.9299999997
  0
POINT
  5
239
100
AcDbEntity
  8
0
100
AcDbPoint
 62
0
 10
7571225.21999999974
 20
5715111.13999999966
  0
POINT
  5
23A
100
AcDbEntity
  8
0
100
AcDbPoint
 62
0
 10
7571228.51999999955
 20
5715109.62999999989
  0
POINT
  5
23B
100
AcDbEntity
  8
0
100
AcDbPoint
 62
0
 10
7571241.55999999959
 20
5715103.6799999997
  0
POINT
  5
23C
100
AcDbEntity
  8
0
100
AcDbPoint
 62
0
 10
7571383.3200000003
 20
5715076.24000000022
  0
POINT
  5
23D
100
AcDbEntity
  8
0
100
AcDbPoint
 62
0
 10
7571392.95999999996
 20
5715076.05999999959
  0
POINT
  5
23E
100
AcDbEntity
  8
0
100
AcDbPoint
 62
0
 10
7571398.38999999966
 20
5715075.96999999974
  0
POINT
  5
23F
100
AcDbEntity
  8
0
100
AcDbPoint
 62
0
 10
7571403.03000000026
 20
5715075.87999999989
  0
POINT
  5
240
100
AcDbEntity
  8
0
100
AcDbPoint
 62
0
 10
7571405.79000000004
 20
5715075.84999999963
  0
POINT
  5
241
100
AcDbEntity
  8
0
100
AcDbPoint
 62
0
 10
7571413.19000000041
 20
5715075.76999999955
  0
POINT
  5
242
100
AcDbEntity
  8
0
100
AcDbPoint
 62
0
 10
7571431.48000000045
 20
5715078.04999999981
  0
POINT
  5
243
100
AcDbEntity
  8
0
100
AcDbPoint
 62
0
 10
7571444.78000000026
 20
5715079.0
  0
POINT
  5
244
100
AcDbEntity
  8
0
100
AcDbPoint
 62
0
 10
7571467.25
 20
5715087.75
  0
POINT
  5
245
100
AcDbEntity
  8
0
100
AcDbPoint
 62
0
 10
7571487.75
 20
5715100.23000000045
  0
POINT
  5
246
100
AcDbEntity
  8
0
100
AcDbPoint
 62
0
 10
7571345.91000000015
 20
5714996.0
  0
POINT
  5
247
100
AcDbEntity
  8
0
100
AcDbPoint
 62
0
 10
7571353.55999999959
 20
5714995.26999999955
  0
POINT
  5
248
100
AcDbEntity
  8
0
100
AcDbPoint
 62
0
 10
7571368.04999999981
 20
5714993.90000000037
  0
POINT
  5
249
100
AcDbEntity
  8
0
100
AcDbPoint
 62
0
 10
7571386.33000000007
 20
5714992.15000000037
  0
POINT
  5
24A
100
AcDbEntity
  8
0
100
AcDbPoint
 62
0
 10
7571415.66000000015
 20
5714989.62000000011
  0
POINT
  5
24B
100
AcDbEntity
  8
0
100
AcDbPoint
 62
0
 10
7571434.65000000037
 20
5714988.04999999981
  0
POINT
  5
24C
100
AcDbEntity
  8
0
100
AcDbPoint
 62
0
 10
7571451.3200000003
 20
5714986.66000000015
  0
POINT
  5
24D
100
AcDbEntity
  8
0
100
AcDbPoint
 62
0
 10
7571468.23000000045
 20
5714985.25
  0
POINT
  5
24E
100
AcDbEntity
  8
0
100
AcDbPoint
 62
0
 10
7571470.46999999974
 20
5714992.00999999978
  0
POINT
  5
24F
100
AcDbEntity
  8
0
100
AcDbPoint
 62
0
 10
7571453.50999999978
 20
5714993.49000000022
  0
POINT
  5
250
100
AcDbEntity
  8
0
100
AcDbPoint
 62
0
 10
7571436.88999999966
 20
5714994.91999999993
  0
POINT
  5
251
100
AcDbEntity
  8
0
100
AcDbPoint
 62
0
 10
7571417.91999999993
 20
5714996.54999999981
  0
POINT
  5
252
100
AcDbEntity
  8
0
100
AcDbPoint
 62
0
 10
7571405.51999999955
 20
5714997.62000000011
  0
POINT
  5
253
100
AcDbEntity
  8
0
100
AcDbPoint
 62
0
 10
7571387.63999999966
 20
5714999.16000000015
  0
POINT
  5
254
100
AcDbEntity
  8
0
100
AcDbPoint
 62
0
 10
7571380.26999999955
 20
5714999.79000000004
  0
POINT
  5
255
100
AcDbEntity
  8
0
100
AcDbPoint
 62
0
 10
7571372.88999999966
 20
5715000.4299999997
  0
POINT
  5
256
100
AcDbEntity
  8
0
100
AcDbPoint
 62
0
 10
7571368.05999999959
 20
5715000.83000000007
  0
POINT
  5
257
100
AcDbEntity
  8
0
100
AcDbPoint
 62
0
 10
7571379.29999999981
 20
5715064.62999999989
  0
POINT
  5
258
100
AcDbEntity
  8
0
100
AcDbPoint
 62
0
 10
7571375.61699999962
 20
5715064.15199999977
  0
POINT
  5
259
100
AcDbEntity
  8
0
100
AcDbPoint
 62
0
 10
7571369.15799999982
 20
5715065.10800000001
  0
POINT
  5
25A
100
AcDbEntity
  8
0
100
AcDbPoint
 62
0
 10
7571367.95000000019
 20
5715065.44000000041
  0
TEXT
  5
25B
100
AcDbEntity
  8
odnowienie_ew
370
25
100
AcDbText
 39
0.25
 10
7571361.72750000004
 20
5714673.3049999997
 40
1.25
  1
8-246
 50
0.00
 41
0.66
  7
STANDARD
 72
1
 11
7571363.29000000004
 21
5714673.9299999997
100
AcDbText
 73
2
  0
TEXT
  5
25C
100
AcDbEntity
  8
odnowienie_ew
370
25
100
AcDbText
 39
0.25
 10
7571253.17250000034
 20
5714802.78500000015
 40
1.25
  1
8-96/10
 50
0.00
 41
0.66
  7
STANDARD
 72
1
 11
7571255.36000000034
 21
5714803.41000000015
100
AcDbText
 73
2
  0
TEXT
  5
25D
100
AcDbEntity
  8
odnowienie_ew
370
25
100
AcDbText
 39
0.25
 10
7571262.5549999997
 20
5714800.84499999974
 40
1.25
  1
8-96/4
 50
0.00
 41
0.66
  7
STANDARD
 72
1
 11
7571264.4299999997
 21
5714801.46999999974
100
AcDbText
 73
2
  0
TEXT
  5
25E
100
AcDbEntity
  8
odnowienie_ew
370
25
100
AcDbText
 39
0.25
 10
7571268.95500000007
 20
5714799.48500000034
 40
1.25
  1
8-96/3
 50
0.00
 41
0.66
  7
STANDARD
 72
1
 11
7571270.83000000007
 21
5714800.11000000034
100
AcDbText
 73
2
  0
TEXT
  5
25F
100
AcDbEntity
  8
odnowienie_ew
370
25
100
AcDbText
 39
0.25
 10
7571248.16500000004
 20
5715026.53500000015
 40
1.25
  1
8-93/1
 50
0.00
 41
0.66
  7
STANDARD
 72
1
 11
7571250.04000000004
 21
5715027.16000000015
100
AcDbText
 73
2
  0
TEXT
  5
260
100
AcDbEntity
  8
odnowienie_ew
370
25
100
AcDbText
 39
0.25
 10
7571277.16500000004
 20
5715016.75499999989
 40
1.25
  1
8-94/1
 50
0.00
 41
0.66
  7
STANDARD
 72
1
 11
7571279.04000000004
 21
5715017.37999999989
100
AcDbText
 73
2
  0
TEXT
  5
261
100
AcDbEntity
  8
odnowienie_ew
370
25
100
AcDbText
 39
0.25
 10
7571305.57500000019
 20
5715008.82500000019
 40
1.25
  1
8-95/1
 50
0.00
 41
0.66
  7
STANDARD
 72
1
 11
7571307.45000000019
 21
5715009.45000000019
100
AcDbText
 73
2
  0
TEXT
  5
262
100
AcDbEntity
  8
odnowienie_ew
370
25
100
AcDbText
 39
0.25
 10
7571284.53249999974
 20
5715022.95500000007
 40
1.25
  1
8-242/1
 50
0.00
 41
0.66
  7
STANDARD
 72
1
 11
7571286.71999999974
 21
5715023.58000000007
100
AcDbText
 73
2
  0
TEXT
  5
263
100
AcDbEntity
  8
odnowienie_ew
370
25
100
AcDbText
 39
0.25
 10
7571254.3499999987
 20
5715062.37499999907
 40
1.25
  1
8-80
 50
0.00
 41
0.66
  7
STANDARD
 72
1
 11
7571255.5999999987
 21
5715062.99999999907
100
AcDbText
 73
2
  0
TEXT
  5
264
100
AcDbEntity
  8
odnowienie_ew
370
25
100
AcDbText
 39
0.25
 10
7571277.24999999814
 20
5715055.4749999987
 40
1.25
  1
8-81
 50
0.00
 41
0.66
  7
STANDARD
 72
1
 11
7571278.49999999814
 21
5715056.0999999987
100
AcDbText
 73
2
  0
TEXT
  5
265
100
AcDbEntity
  8
odnowienie_ew
370
25
100
AcDbText
 39
0.25
 10
7571296.32499999832
 20
5715045.9749999987
 40
1.25
  1
8-82/1
 50
0.00
 41
0.66
  7
STANDARD
 72
1
 11
7571298.19999999832
 21
5715046.5999999987
100
AcDbText
 73
2
  0
TEXT
  5
266
100
AcDbEntity
  8
odnowienie_ew
370
25
100
AcDbText
 39
0.25
 10
7571330.3499999987
 20
5715040.27499999851
 40
1.25
  1
8-84
 50
0.00
 41
0.66
  7
STANDARD
 72
1
 11
7571331.5999999987
 21
5715040.89999999851
100
AcDbText
 73
2
  0
TEXT
  5
267
100
AcDbEntity
  8
odnowienie_ew
370
25
100
AcDbText
 39
0.25
 10
7571348.14999999851
 20
5715037.57499999832
 40
1.25
  1
8-85
 50
0.00
 41
0.66
  7
STANDARD
 72
1
 11
7571349.39999999851
 21
5715038.19999999832
100
AcDbText
 73
2
  0
TEXT
  5
268
100
AcDbEntity
  8
odnowienie_ew
370
25
100
AcDbText
 39
0.25
 10
7571314.74999999814
 20
5715042.4749999987
 40
1.25
  1
8-83
 50
0.00
 41
0.66
  7
STANDARD
 72
1
 11
7571315.99999999814
 21
5715043.0999999987
100
AcDbText
 73
2
  0
TEXT
  5
269
100
AcDbEntity
  8
odnowienie_ew
370
25
100
AcDbText
 39
0.25
 10
7571250.09499999974
 20
5714852.3049999997
 40
1.25
  1
8-95/2
 50
0.00
 41
0.66
  7
STANDARD
 72
1
 11
7571251.96999999974
 21
5714852.9299999997
100
AcDbText
 73
2
  0
TEXT
  5
26A
100
AcDbEntity
  8
odnowienie_ew
370
25
100
AcDbText
 39
0.25
 10
7571200.06500000041
 20
5714881.54499999993
 40
1.25
  1
8-93/2
 50
0.00
 41
0.66
  7
STANDARD
 72
1
 11
7571201.94000000041
 21
5714882.16999999993
100
AcDbText
 73
2
  0
TEXT
  5
26B
100
AcDbEntity
  8
odnowienie_ew
370
25
100
AcDbText
 39
0.25
 10
7571190.875
 20
5714755.14499999955
 40
1.25
  1
8-94/3
 50
0.00
 41
0.66
  7
STANDARD
 72
1
 11
7571192.75
 21
5714755.76999999955
100
AcDbText
 73
2
  0
TEXT
  5
26C
100
AcDbEntity
  8
odnowienie_ew
370
25
100
AcDbText
 39
0.25
 10
7571254.20500000007
 20
5714947.15500000026
 40
1.25
  1
8-94/4
 50
0.00
 41
0.66
  7
STANDARD
 72
1
 11
7571256.08000000007
 21
5714947.78000000026
100
AcDbText
 73
2
  0
TEXT
  5
26D
100
AcDbEntity
  8
odnowienie_ew
370
25
100
AcDbText
 39
0.25
 10
7571457.96750000026
 20
5715165.75499999989
 40
1.25
  1
8-240
 50
0.00
 41
0.66
  7
STANDARD
 72
1
 11
7571459.53000000026
 21
5715166.37999999989
100
AcDbText
 73
2
  0
TEXT
  5
26E
100
AcDbEntity
  8
odnowienie_ew
370
25
100
AcDbText
 39
0.25
 10
7571321.62750000041
 20
5715001.74500000011
 40
1.25
  1
8-244
 50
0.00
 41
0.66
  7
STANDARD
 72
1
 11
7571323.19000000041
 21
5715002.37000000011
100
AcDbText
 73
2
  0
ENDSEC
  0
SECTION
  2
OBJECTS
  0
DICTIONARY
  5
26F
330
0
100
AcDbDictionary
280
0
281
1
  3
ACAD_GROUP
350
270
  3
ACAD_LAYOUT
350
271
  3
ACAD_MLINESTYLE
350
272
  3
ACAD_PLOTSETTINGS
350
273
  3
ACAD_PLOTSTYLENAME
350
274
  3
ACAD_WIPEOUT_VARS
350
275
  0
DICTIONARY
  5
270
102
{ACAD_REACTORS
330
26F
102
}
330
26F
100
AcDbDictionary
280
0
281
1
  0
DICTIONARY
  5
271
102
{ACAD_REACTORS
330
26F
102
}
330
26F
100
AcDbDictionary
280
0
281
1
  3
Layout
350
1C
  3
Model
350
1A
  0
DICTIONARY
  5
272
102
{ACAD_REACTORS
330
26F
102
}
330
26F
100
AcDbDictionary
280
0
281
1
  3
Standard
350
276
  3
L_0_02
350
7
  0
DICTIONARY
  5
273
102
{ACAD_REACTORS
330
26F
102
}
330
26F
100
AcDbDictionary
280
0
281
1
  0
ACDBDICTIONARYWDFLT
  5
274
102
{ACAD_REACTORS
330
26F
102
}
330
26F
100
AcDbDictionary
281
1
  3
Normal
350
C
100
AcDbDictionaryWithDefault
340
C
  0
WIPEOUTVARIABLES
  5
275
102
{ACAD_REACTORS
330
26F
102
}
330
26F
100
AcDbWipeoutVariables
 70
0
  0
LAYOUT
  5
1C
100
AcDbPlotSettings
  1

  2

  4

  6

 40
0.0
 41
0.0
 42
0.0
 43
0.0
 44
0.0
 45
0.0
 46
0.0
 47
0.0
 48
0.0
 49
0.0
140
0.0
141
0.0
142
1.0
143
1.0
 70
688
 72
1
 73
0
 74
5
  7

 75
0
147
1.0
148
0.0
149
0.0
100
AcDbLayout
  1
Layout
 70
1
 71
1
 10
0.0
 20
0.0
 11
420.0
 21
297.0
 12
0.0
 22
0.0
 32
0.0
 14
100000000000000000000.0
 24
100000000000000000000.0
 34
100000000000000000000.0
 15
-100000000000000000000.0
 25
-100000000000000000000.0
 35
-100000000000000000000.0
146
0.0
 13
0.0
 23
0.0
 33
0.0
 16
1.0
 26
0.0
 36
0.0
 17
0.0
 27
1.0
 37
0.0
 76
0
330
1B
  0
LAYOUT
  5
1A
100
AcDbPlotSettings
  1

  2

  4

  6

 40
0.0
 41
0.0
 42
0.0
 43
0.0
 44
0.0
 45
0.0
 46
0.0
 47
0.0
 48
0.0
 49
0.0
140
0.0
141
0.0
142
1.0
143
1.0
 70
1712
 72
1
 73
0
 74
0
  7

 75
0
147
1.0
148
0.0
149
0.0
100
AcDbLayout
  1
Model
 70
1
 71
0
 10
0.0
 20
0.0
 11
12.0
 21
9.0
 12
0.0
 22
0.0
 32
0.0
 14
0.0
 24
0.0
 34
0.0
 15
0.0
 25
0.0
 35
0.0
146
0.0
 13
0.0
 23
0.0
 33
0.0
 16
1.0
 26
0.0
 36
0.0
 17
0.0
 27
1.0
 37
0.0
 76
0
330
19
  0
MLINESTYLE
  5
276
102
{ACAD_REACTORS
330
272
102
}
330
272
100
AcDbMlineStyle
  2
Standard
 70
0
  3

 62
256
 51
90.0
 52
90.0
  2
Standard
 71
2
 49
0.5
 62
256
  6
ByLayer
 49
-0.5
 62
256
  6
ByLayer
  0
MLINESTYLE
  5
7
100
AcDbMlineStyle
  2
L_0_02
 70
0
  3

 51
90.0
 52
90.0
 71
1
 49
0.0
 62
256
  6
CONTINUOUS
  0
ACDBPLACEHOLDER
  5
C
  0
ENDSEC
  0
EOF
