  0
SECTION
  2
HEADER
  9
$ACADVER
  1
AC1018
  9
$HANDSEED
  5
FFFFFF
  9
$EXTMAX
 10
7566215.87000000011
 20
5728294.62999999989
 30
1000000.00
  9
$EXTMIN
 10
7566081.04000000004
 20
5727604.84999999963
 30
0.00
  9
$LIMMIN
 10
7566081.04000000004
 20
5727604.84999999963
  9
$LIMMAX
 10
7566215.87000000011
 20
5728294.62999999989
  9
$DIMASZ
 40
2.5
  9
$DIMGAP
 40
0.625
  9
$INSUNITS
 70
6
  9
$MEASUREMENT
 70
1
  9
$DIMEXO
 40
0.625
  9
$DIMTXT
 40
2.5
  9
$DIMSTYLE
  2
Standard
  9
$PLIMMIN
 10
0.0
 20
0.0
  9
$PLIMMAX
 10
210.0
 20
297.0
  9
$DIMEXE
 40
1.25
  9
$TEXTSIZE
 40
2.5
  9
$TEXTSTYLE
  7
Standard
  9
$LWDISPLAY
290
1
  9
$TDCREATE
 40
45772.615873704
  9
$TDUCREATE
 40
45772.532540370
  9
$TDUPDATE
 40
45772.615873704
  9
$TDUUPDATE
 40
45772.532540370
  9
$TDINDWG
 40
0.0
  9
$TDUSRTIMER
 40
0.0
  9
$USRTIMER
 70
1
  0
ENDSEC
  0
SECTION
  2
TABLES
  0
TABLE
  2
VPORT
  5
1
100
AcDbSymbolTable
 70
1
  0
VPORT
  5
2
100
AcDbSymbolTableRecord
100
AcDbViewportTableRecord
  2
*ACTIVE
 70
0
 10
0.0
 20
0.0
 11
1.0
 21
1.0
 12
7566148.455
 22
5727949.740
 13
0.0
 23
0.0
 14
1.0
 24
1.0
 15
0.0
 25
0.0
 16
0.0
 26
0.0
 36
1.0
 17
0.0
 27
0.0
 37
0.0
 40
689.780
 41
0.195
 42
50.0
 43
0.0
 44
0.0
 50
0.0
 51
0.0
 71
0
 72
100
 73
1
 74
1
 75
0
 76
0
 77
0
 78
0
  0
ENDTAB
  0
TABLE
  2
LTYPE
  5
3
100
AcDbSymbolTable
 70
3
  0
LTYPE
  5
4
100
AcDbSymbolTableRecord
100
AcDbLinetypeTableRecord
  2
ByBlock
 70
0
  3

 72
65
 73
0
 40
0.0
  0
LTYPE
  5
5
100
AcDbSymbolTableRecord
100
AcDbLinetypeTableRecord
  2
ByLayer
 70
0
  3

 72
65
 73
0
 40
0.0
  0
LTYPE
  5
6
100
AcDbSymbolTableRecord
100
AcDbLinetypeTableRecord
  2
CONTINUOUS
 70
0
  3
Solid line
 72
65
 73
0
 40
0.0
  0
ENDTAB
  0
TABLE
  2
LAYER
  5
7
100
AcDbSymbolTable
 70
3
  0
LAYER
  5
8
100
AcDbSymbolTableRecord
100
AcDbLayerTableRecord
  2
0
 70
0
420
0
  6
CONTINUOUS
370
18
390
9
  0
LAYER
  5
A
100
AcDbSymbolTableRecord
100
AcDbLayerTableRecord
  2
budynek_obrys
 70
0
420
255
  6
CONTINUOUS
370
25
390
9
  0
LAYER
  5
B
100
AcDbSymbolTableRecord
100
AcDbLayerTableRecord
  2
Osie
 70
0
420
16711680
  6
CONTINUOUS
370
18
390
9
  0
ENDTAB
  0
TABLE
  2
STYLE
  5
C
100
AcDbSymbolTable
 70
2
  0
STYLE
  5
D
100
AcDbSymbolTableRecord
100
AcDbTextStyleTableRecord
  2
STANDARD
 70
0
 40
0.0
 41
1.0
 50
0.0
 71
0
  3
simplex.shx
  4

  0
STYLE
  5
E
100
AcDbSymbolTableRecord
100
AcDbTextStyleTableRecord
  2
STANDARD_ITALIC
 70
0
 40
0.0
 41
1.0
 50
15.0
 71
0
  3
simplex.shx
  4

  0
ENDTAB
  0
TABLE
  2
VIEW
  5
F
100
AcDbSymbolTable
 70
0
  0
ENDTAB
  0
TABLE
  2
UCS
  5
10
100
AcDbSymbolTable
 70
0
  0
ENDTAB
  0
TABLE
  2
APPID
  5
11
100
AcDbSymbolTable
 70
1
  0
APPID
  5
12
100
AcDbSymbolTableRecord
100
AcDbRegAppTableRecord
  2
ACAD
 70
0
  0
ENDTAB
  0
TABLE
  2
DIMSTYLE
  5
13
100
AcDbSymbolTable
 70
1
100
AcDbDimStyleTable
  0
DIMSTYLE
105
14
100
AcDbSymbolTableRecord
100
AcDbDimStyleTableRecord
  2
Standard
 70
0
340
D
  0
ENDTAB
  0
TABLE
  2
BLOCK_RECORD
  5
15
100
AcDbSymbolTable
 70
2
  0
BLOCK_RECORD
  5
16
100
AcDbSymbolTableRecord
100
AcDbBlockTableRecord
  2
*Model_Space
340
17
  0
BLOCK_RECORD
  5
18
100
AcDbSymbolTableRecord
100
AcDbBlockTableRecord
  2
*Paper_Space
340
19
  0
ENDTAB
  0
ENDSEC
  0
SECTION
  2
BLOCKS
  0
BLOCK
  5
1A
100
AcDbEntity
  8
0
100
AcDbBlockBegin
  2
*Model_Space
 70
0
 10
0.0
 20
0.0
 30
0.0
  3
*Model_Space
  1

  0
ENDBLK
  5
1B
100
AcDbEntity
  8
0
100
AcDbBlockEnd
  0
BLOCK
  5
1C
100
AcDbEntity
 67
1
  8
0
100
AcDbBlockBegin
  2
*Paper_Space
 70
0
 10
0.0
 20
0.0
 30
0.0
  3
*Paper_Space
  1

  0
ENDBLK
  5
1D
100
AcDbEntity
 67
1
  8
0
100
AcDbBlockEnd
  0
ENDSEC
  0
SECTION
  2
ENTITIES
  0
POLYLINE
  5
1E
100
AcDbEntity
  8
budynek_obrys
  6
CONTINUOUS
370
25
100
AcDb2dPolyline
 66
1
 70
128
  0
VERTEX
  5
1F
100
AcDbEntity
  8
budynek_obrys
100
AcDbVertex
100
AcDb2dVertex
 10
7566199.07217974309
 20
5727701.50254203938
  0
VERTEX
  5
20
100
AcDbEntity
  8
budynek_obrys
100
AcDbVertex
100
AcDb2dVertex
 10
7566179.99052498024
 20
5727699.37807083502
  0
SEQEND
  5
21
100
AcDbEntity
  8
budynek_obrys
  0
POLYLINE
  5
22
100
AcDbEntity
  8
budynek_obrys
  6
CONTINUOUS
370
25
100
AcDb2dPolyline
 66
1
 70
128
  0
VERTEX
  5
23
100
AcDbEntity
  8
budynek_obrys
100
AcDbVertex
100
AcDb2dVertex
 10
7566179.99052498024
 20
5727699.37807083502
  0
VERTEX
  5
24
100
AcDbEntity
  8
budynek_obrys
100
AcDbVertex
100
AcDb2dVertex
 10
7566182.23671068065
 20
5727679.2031962676
  0
SEQEND
  5
25
100
AcDbEntity
  8
budynek_obrys
  0
POLYLINE
  5
26
100
AcDbEntity
  8
budynek_obrys
  6
CONTINUOUS
370
25
100
AcDb2dPolyline
 66
1
 70
128
  0
VERTEX
  5
27
100
AcDbEntity
  8
budynek_obrys
100
AcDbVertex
100
AcDb2dVertex
 10
7566182.23671068065
 20
5727679.2031962676
  0
VERTEX
  5
28
100
AcDbEntity
  8
budynek_obrys
100
AcDbVertex
100
AcDb2dVertex
 10
7566201.3183654435
 20
5727681.32766747195
  0
SEQEND
  5
29
100
AcDbEntity
  8
budynek_obrys
  0
POLYLINE
  5
2A
100
AcDbEntity
  8
budynek_obrys
  6
CONTINUOUS
370
25
100
AcDb2dPolyline
 66
1
 70
128
  0
VERTEX
  5
2B
100
AcDbEntity
  8
budynek_obrys
100
AcDbVertex
100
AcDb2dVertex
 10
7566201.3183654435
 20
5727681.32766747195
  0
VERTEX
  5
2C
100
AcDbEntity
  8
budynek_obrys
100
AcDbVertex
100
AcDb2dVertex
 10
7566199.07217974309
 20
5727701.50254203938
  0
SEQEND
  5
2D
100
AcDbEntity
  8
budynek_obrys
  0
POLYLINE
  5
2E
100
AcDbEntity
  8
Osie
  6
CONTINUOUS
370
18
100
AcDb2dPolyline
 66
1
 70
128
  0
VERTEX
  5
2F
100
AcDbEntity
  8
Osie
100
AcDbVertex
100
AcDb2dVertex
 10
7566201.21861627605
 20
5727681.31693601701
  0
VERTEX
  5
30
100
AcDbEntity
  8
Osie
100
AcDbVertex
100
AcDb2dVertex
 10
7566198.97261627577
 20
5727701.49193601683
  0
SEQEND
  5
31
100
AcDbEntity
  8
Osie
  0
POLYLINE
  5
32
100
AcDbEntity
  8
Osie
  6
CONTINUOUS
370
18
100
AcDb2dPolyline
 66
1
 70
128
  0
VERTEX
  5
33
100
AcDbEntity
  8
Osie
100
AcDbVertex
100
AcDb2dVertex
 10
7566180.09038372152
 20
5727699.38906398136
  0
VERTEX
  5
34
100
AcDbEntity
  8
Osie
100
AcDbVertex
100
AcDb2dVertex
 10
7566182.33638372086
 20
5727679.21406398155
  0
SEQEND
  5
35
100
AcDbEntity
  8
Osie
  0
POLYLINE
  5
36
100
AcDbEntity
  8
Osie
  6
CONTINUOUS
370
18
100
AcDb2dPolyline
 66
1
 70
128
  0
VERTEX
  5
37
100
AcDbEntity
  8
Osie
100
AcDbVertex
100
AcDb2dVertex
 10
7566194.26213929523
 20
5727680.54252123181
  0
VERTEX
  5
38
100
AcDbEntity
  8
Osie
100
AcDbVertex
100
AcDb2dVertex
 10
7566192.01613932103
 20
5727700.71752123442
  0
SEQEND
  5
39
100
AcDbEntity
  8
Osie
  0
POLYLINE
  5
3A
100
AcDbEntity
  8
Osie
  6
CONTINUOUS
370
18
100
AcDb2dPolyline
 66
1
 70
128
  0
VERTEX
  5
3B
100
AcDbEntity
  8
Osie
100
AcDbVertex
100
AcDb2dVertex
 10
7566199.08860207349
 20
5727701.35392509308
  0
VERTEX
  5
3C
100
AcDbEntity
  8
Osie
100
AcDbVertex
100
AcDb2dVertex
 10
7566180.00760207418
 20
5727699.22892509773
  0
SEQEND
  5
3D
100
AcDbEntity
  8
Osie
  0
POLYLINE
  5
3E
100
AcDbEntity
  8
Osie
  6
CONTINUOUS
370
18
100
AcDb2dPolyline
 66
1
 70
128
  0
VERTEX
  5
3F
100
AcDbEntity
  8
Osie
100
AcDbVertex
100
AcDb2dVertex
 10
7566199.64240247104
 20
5727696.38483644277
  0
VERTEX
  5
40
100
AcDbEntity
  8
Osie
100
AcDbVertex
100
AcDb2dVertex
 10
7566180.56140245497
 20
5727694.25983659644
  0
SEQEND
  5
41
100
AcDbEntity
  8
Osie
  0
POLYLINE
  5
42
100
AcDbEntity
  8
Osie
  6
CONTINUOUS
370
18
100
AcDb2dPolyline
 66
1
 70
128
  0
VERTEX
  5
43
100
AcDbEntity
  8
Osie
100
AcDbVertex
100
AcDb2dVertex
 10
7566200.19540247228
 20
5727691.41583643761
  0
VERTEX
  5
44
100
AcDbEntity
  8
Osie
100
AcDbVertex
100
AcDb2dVertex
 10
7566181.11440245435
 20
5727689.2908365922
  0
SEQEND
  5
45
100
AcDbEntity
  8
Osie
  0
POLYLINE
  5
46
100
AcDbEntity
  8
Osie
  6
CONTINUOUS
370
18
100
AcDb2dPolyline
 66
1
 70
128
  0
VERTEX
  5
47
100
AcDbEntity
  8
Osie
100
AcDbVertex
100
AcDb2dVertex
 10
7566200.74840247259
 20
5727686.44683643337
  0
VERTEX
  5
48
100
AcDbEntity
  8
Osie
100
AcDbVertex
100
AcDb2dVertex
 10
7566181.66740245558
 20
5727684.32183658797
  0
SEQEND
  5
49
100
AcDbEntity
  8
Osie
  0
POLYLINE
  5
4A
100
AcDbEntity
  8
Osie
  6
CONTINUOUS
370
18
100
AcDb2dPolyline
 66
1
 70
128
  0
VERTEX
  5
4B
100
AcDbEntity
  8
Osie
100
AcDbVertex
100
AcDb2dVertex
 10
7566201.30140247289
 20
5727681.47783642914
  0
VERTEX
  5
4C
100
AcDbEntity
  8
Osie
100
AcDbVertex
100
AcDb2dVertex
 10
7566182.22040245589
 20
5727679.35283658281
  0
SEQEND
  5
4D
100
AcDbEntity
  8
Osie
  0
POINT
  5
4E
100
AcDbEntity
  8
0
100
AcDbPoint
 62
256
 10
7566201.3183654435
 20
5727681.32766747195
  0
POINT
  5
4F
100
AcDbEntity
  8
0
100
AcDbPoint
 62
256
 10
7566199.07217974309
 20
5727701.50254203938
  0
POINT
  5
50
100
AcDbEntity
  8
0
100
AcDbPoint
 62
256
 10
7566179.99052498024
 20
5727699.37807083502
  0
POINT
  5
51
100
AcDbEntity
  8
0
100
AcDbPoint
 62
256
 10
7566182.23671068065
 20
5727679.2031962676
  0
TEXT
  5
52
100
AcDbEntity
  8
budynek_obrys
370
50
100
AcDbText
 10
7566187.49004433956
 20
5727700.72851045802
 40
1.00
  1
-19.199-
 50
-354.00
 41
0.66
  7
STANDARD
 72
1
 11
7566189.51393095124
 21
5727700.60606008675
100
AcDbText
 73
1
  0
TEXT
  5
53
100
AcDbEntity
  8
budynek_obrys
370
50
100
AcDbText
 10
7566181.4018218508
 20
5727691.33194157388
 40
1.00
  1
-20.300-
 50
-84.00
 41
0.66
  7
STANDARD
 72
1
 11
7566181.27937147953
 21
5727689.3080549622
100
AcDbText
 73
1
  0
TEXT
  5
54
100
AcDbEntity
  8
budynek_obrys
370
50
100
AcDbText
 10
7566189.73623003997
 20
5727680.5536358906
 40
1.00
  1
-19.199-
 50
-354.00
 41
0.66
  7
STANDARD
 72
1
 11
7566191.76011665165
 21
5727680.43118551932
100
AcDbText
 73
1
  0
TEXT
  5
55
100
AcDbEntity
  8
budynek_obrys
370
50
100
AcDbText
 10
7566200.48347661365
 20
5727693.45641277824
 40
1.00
  1
-20.300-
 50
-84.00
 41
0.66
  7
STANDARD
 72
1
 11
7566200.36102624238
 21
5727691.43252616655
100
AcDbText
 73
1
  0
TEXT
  5
56
100
AcDbEntity
  8
budynek_obrys
370
50
100
AcDbText
 10
7566189.25599948037
 20
5727691.79667458124
 40
1.00
  1
-27.940-
 50
-40.20
 41
0.66
  7
STANDARD
 72
1
 11
7566190.56843897514
 21
5727690.25116052944
100
AcDbText
 73
1
  0
TEXT
  5
57
100
AcDbEntity
  8
budynek_obrys
370
50
100
AcDbText
 10
7566189.28856723849
 20
5727688.87847374007
 40
1.00
  1
-27.941-
 50
-307.10
 41
0.66
  7
STANDARD
 72
1
 11
7566190.76084452402
 21
5727690.27257226873
100
AcDbText
 73
1
  0
TEXT
  5
58
100
AcDbEntity
  8
Osie
370
35
100
AcDbText
 10
7566179.7226741612
 20
5727700.58489525691
 40
0.70
  1
A
 50
-83.60
 41
0.66
  7
STANDARD
 72
1
 11
7566180.08999999613
 21
5727700.44999999739
100
AcDbText
 73
2
  0
TEXT
  5
59
100
AcDbEntity
  8
Osie
370
35
100
AcDbText
 10
7566181.92267416138
 20
5727677.97489525657
 40
0.70
  1
A
 50
-83.60
 41
0.66
  7
STANDARD
 72
1
 11
7566182.28999999631
 21
5727677.83999999706
100
AcDbText
 73
2
  0
TEXT
  5
5A
100
AcDbEntity
  8
Osie
370
35
100
AcDbText
 10
7566191.50267416146
 20
5727701.33489525691
 40
0.70
  1
B
 50
-83.60
 41
0.66
  7
STANDARD
 72
1
 11
7566191.86999999639
 21
5727701.19999999739
100
AcDbText
 73
2
  0
TEXT
  5
5B
100
AcDbEntity
  8
Osie
370
35
100
AcDbText
 10
7566194.03267416172
 20
5727679.81489525642
 40
0.70
  1
B
 50
-83.60
 41
0.66
  7
STANDARD
 72
1
 11
7566194.39999999665
 21
5727679.67999999691
100
AcDbText
 73
2
  0
TEXT
  5
5C
100
AcDbEntity
  8
Osie
370
35
100
AcDbText
 10
7566198.39267416112
 20
5727702.33489525691
 40
0.70
  1
C
 50
-83.60
 41
0.66
  7
STANDARD
 72
1
 11
7566198.75999999605
 21
5727702.19999999739
100
AcDbText
 73
2
  0
TEXT
  5
5D
100
AcDbEntity
  8
Osie
370
35
100
AcDbText
 10
7566201.08267416153
 20
5727680.43489525653
 40
0.70
  1
C
 50
-83.60
 41
0.66
  7
STANDARD
 72
1
 11
7566201.44999999646
 21
5727680.29999999702
100
AcDbText
 73
2
  0
TEXT
  5
5E
100
AcDbEntity
  8
Osie
370
35
100
AcDbText
 10
7566178.63510473631
 20
5727698.88267416228
 40
0.70
  1
1
 50
-353.60
 41
0.66
  7
STANDARD
 72
1
 11
7566178.76999999583
 21
5727699.24999999721
100
AcDbText
 73
2
  0
TEXT
  5
5F
100
AcDbEntity
  8
Osie
370
35
100
AcDbText
 10
7566200.99510473665
 20
5727701.41267416254
 40
0.70
  1
1
 50
-353.60
 41
0.66
  7
STANDARD
 72
1
 11
7566201.12999999616
 21
5727701.77999999747
100
AcDbText
 73
2
  0
TEXT
  5
60
100
AcDbEntity
  8
Osie
370
35
100
AcDbText
 10
7566179.12510473654
 20
5727693.84267416224
 40
0.70
  1
2
 50
-353.60
 41
0.66
  7
STANDARD
 72
1
 11
7566179.25999999605
 21
5727694.20999999717
100
AcDbText
 73
2
  0
TEXT
  5
61
100
AcDbEntity
  8
Osie
370
35
100
AcDbText
 10
7566201.77510473691
 20
5727696.3026741622
 40
0.70
  1
2
 50
-353.60
 41
0.66
  7
STANDARD
 72
1
 11
7566201.90999999642
 21
5727696.66999999713
100
AcDbText
 73
2
  0
TEXT
  5
62
100
AcDbEntity
  8
Osie
370
35
100
AcDbText
 10
7566179.28510473669
 20
5727688.86267416179
 40
0.70
  1
3
 50
-353.60
 41
0.66
  7
STANDARD
 72
1
 11
7566179.4199999962
 21
5727689.22999999672
100
AcDbText
 73
2
  0
TEXT
  5
63
100
AcDbEntity
  8
Osie
370
35
100
AcDbText
 10
7566202.35510473698
 20
5727691.19267416187
 40
0.70
  1
3
 50
-353.60
 41
0.66
  7
STANDARD
 72
1
 11
7566202.4899999965
 21
5727691.5599999968
100
AcDbText
 73
2
  0
TEXT
  5
64
100
AcDbEntity
  8
Osie
370
35
100
AcDbText
 10
7566180.28510473669
 20
5727684.00267416239
 40
0.70
  1
4
 50
-353.60
 41
0.66
  7
STANDARD
 72
1
 11
7566180.4199999962
 21
5727684.36999999732
100
AcDbText
 73
2
  0
TEXT
  5
65
100
AcDbEntity
  8
Osie
370
35
100
AcDbText
 10
7566202.48510473687
 20
5727686.46267416235
 40
0.70
  1
4
 50
-353.60
 41
0.66
  7
STANDARD
 72
1
 11
7566202.61999999639
 21
5727686.82999999728
100
AcDbText
 73
2
  0
TEXT
  5
66
100
AcDbEntity
  8
Osie
370
35
100
AcDbText
 10
7566180.44510473684
 20
5727678.8026741622
 40
0.70
  1
5
 50
-353.60
 41
0.66
  7
STANDARD
 72
1
 11
7566180.57999999635
 21
5727679.16999999713
100
AcDbText
 73
2
  0
TEXT
  5
67
100
AcDbEntity
  8
Osie
370
35
100
AcDbText
 10
7566202.87510473654
 20
5727681.19267416187
 40
0.70
  1
5
 50
-353.60
 41
0.66
  7
STANDARD
 72
1
 11
7566203.00999999605
 21
5727681.5599999968
100
AcDbText
 73
2
  0
TEXT
  5
68
100
AcDbEntity
  8
Osie
370
18
100
AcDbText
 10
7566185.33546133526
 20
5727699.99479365908
 40
0.36
  1
-12.000-
 50
-353.60
 41
0.66
  7
STANDARD
 72
1
 11
7566186.06435050908
 21
5727699.95579914004
100
AcDbText
 73
1
  0
TEXT
  5
69
100
AcDbEntity
  8
Osie
370
18
100
AcDbText
 10
7566194.86590372771
 20
5727701.05743257236
 40
0.36
  1
-6.999-
 50
-353.70
 41
0.66
  7
STANDARD
 72
1
 11
7566195.50526724663
 21
5727701.00728987344
100
AcDbText
 73
1
  0
TEXT
  5
6A
100
AcDbEntity
  8
Osie
370
18
100
AcDbText
 10
7566192.31082586292
 20
5727698.71759955212
 40
0.36
  1
-5.000-
 50
-83.60
 41
0.66
  7
STANDARD
 72
1
 11
7566192.2617991399
 21
5727698.07814949099
100
AcDbText
 73
1
  0
TEXT
  5
6B
100
AcDbEntity
  8
Osie
370
18
100
AcDbText
 10
7566192.86382586416
 20
5727693.74859955255
 40
0.36
  1
-5.000-
 50
-83.60
 41
0.66
  7
STANDARD
 72
1
 11
7566192.81479914114
 21
5727693.10914949141
100
AcDbText
 73
1
  0
TEXT
  5
6C
100
AcDbEntity
  8
Osie
370
18
100
AcDbText
 10
7566193.41682586353
 20
5727688.77959955297
 40
0.36
  1
-5.000-
 50
-83.60
 41
0.66
  7
STANDARD
 72
1
 11
7566193.36779914051
 21
5727688.14014949184
100
AcDbText
 73
1
  0
TEXT
  5
6D
100
AcDbEntity
  8
Osie
370
18
100
AcDbText
 10
7566193.96982586291
 20
5727683.81059955247
 40
0.36
  1
-5.000-
 50
-83.60
 41
0.66
  7
STANDARD
 72
1
 11
7566193.92079913989
 21
5727683.17114949133
100
AcDbText
 73
1
  0
ENDSEC
  0
SECTION
  2
OBJECTS
  0
DICTIONARY
  5
6E
330
0
100
AcDbDictionary
280
0
281
1
  3
ACAD_GROUP
350
6F
  3
ACAD_LAYOUT
350
70
  3
ACAD_MLINESTYLE
350
71
  3
ACAD_PLOTSETTINGS
350
72
  3
ACAD_PLOTSTYLENAME
350
73
  0
DICTIONARY
  5
6F
102
{ACAD_REACTORS
330
6E
102
}
330
6E
100
AcDbDictionary
280
0
281
1
  0
DICTIONARY
  5
70
102
{ACAD_REACTORS
330
6E
102
}
330
6E
100
AcDbDictionary
280
0
281
1
  3
Layout
350
19
  3
Model
350
17
  0
DICTIONARY
  5
71
102
{ACAD_REACTORS
330
6E
102
}
330
6E
100
AcDbDictionary
280
0
281
1
  3
Standard
350
74
  0
DICTIONARY
  5
72
102
{ACAD_REACTORS
330
6E
102
}
330
6E
100
AcDbDictionary
280
0
281
1
  0
ACDBDICTIONARYWDFLT
  5
73
102
{ACAD_REACTORS
330
6E
102
}
330
6E
100
AcDbDictionary
281
1
  3
Normal
350
9
100
AcDbDictionaryWithDefault
340
9
  0
LAYOUT
  5
19
100
AcDbPlotSettings
  1

  2

  4

  6

 40
0.0
 41
0.0
 42
0.0
 43
0.0
 44
0.0
 45
0.0
 46
0.0
 47
0.0
 48
0.0
 49
0.0
140
0.0
141
0.0
142
1.0
143
1.0
 70
688
 72
1
 73
0
 74
5
  7

 75
0
147
1.0
148
0.0
149
0.0
100
AcDbLayout
  1
Layout
 70
1
 71
1
 10
0.0
 20
0.0
 11
420.0
 21
297.0
 12
0.0
 22
0.0
 32
0.0
 14
100000000000000000000.0
 24
100000000000000000000.0
 34
100000000000000000000.0
 15
-100000000000000000000.0
 25
-100000000000000000000.0
 35
-100000000000000000000.0
146
0.0
 13
0.0
 23
0.0
 33
0.0
 16
1.0
 26
0.0
 36
0.0
 17
0.0
 27
1.0
 37
0.0
 76
0
330
18
  0
LAYOUT
  5
17
100
AcDbPlotSettings
  1

  2

  4

  6

 40
0.0
 41
0.0
 42
0.0
 43
0.0
 44
0.0
 45
0.0
 46
0.0
 47
0.0
 48
0.0
 49
0.0
140
0.0
141
0.0
142
1.0
143
1.0
 70
1712
 72
1
 73
0
 74
0
  7

 75
0
147
1.0
148
0.0
149
0.0
100
AcDbLayout
  1
Model
 70
1
 71
0
 10
0.0
 20
0.0
 11
12.0
 21
9.0
 12
0.0
 22
0.0
 32
0.0
 14
0.0
 24
0.0
 34
0.0
 15
0.0
 25
0.0
 35
0.0
146
0.0
 13
0.0
 23
0.0
 33
0.0
 16
1.0
 26
0.0
 36
0.0
 17
0.0
 27
1.0
 37
0.0
 76
0
330
16
  0
MLINESTYLE
  5
74
102
{ACAD_REACTORS
330
71
102
}
330
71
100
AcDbMlineStyle
  2
Standard
 70
0
  3

 62
256
 51
90.0
 52
90.0
  2
Standard
 71
2
 49
0.5
 62
256
  6
ByLayer
 49
-0.5
 62
256
  6
ByLayer
  0
ACDBPLACEHOLDER
  5
9
  0
ENDSEC
  0
EOF
