  0
SECTION
  2
HEADER
  9
$ACADVER
  1
AC1018
  9
$HANDSEED
  5
FFFFFF
  9
$EXTMAX
 10
7567365.69000000041
 20
5717726.13999999966
 30
1000000.00
  9
$EXTMIN
 10
7567250.90500000026
 20
5717612.43099999987
 30
0.00
  9
$LIMMIN
 10
7567250.90500000026
 20
5717612.43099999987
  9
$LIMMAX
 10
7567365.69000000041
 20
5717726.13999999966
  9
$DIMASZ
 40
2.5
  9
$DIMGAP
 40
0.625
  9
$INSUNITS
 70
6
  9
$DIMEXO
 40
0.625
  9
$DIMTXT
 40
2.5
  9
$DIMSTYLE
  2
Standard
  9
$PLIMMIN
 10
0.0
 20
0.0
  9
$PLIMMAX
 10
210.0
 20
297.0
  9
$DIMEXE
 40
1.25
  9
$TEXTSIZE
 40
2.5
  9
$TEXTSTYLE
  7
Standard
  9
$LWDISPLAY
290
1
  9
$TDCREATE
 40
44301.568997164
  9
$TDUCREATE
 40
44301.485663831
  9
$TDUPDATE
 40
44301.568997164
  9
$TDUUPDATE
 40
44301.485663831
  9
$TDINDWG
 40
0.0
  9
$TDUSRTIMER
 40
0.0
  9
$USRTIMER
 70
1
  0
ENDSEC
  0
SECTION
  2
TABLES
  0
TABLE
  2
VPORT
  5
1
100
AcDbSymbolTable
 70
1
  0
VPORT
  5
2
100
AcDbSymbolTableRecord
100
AcDbViewportTableRecord
  2
*ACTIVE
 70
0
 10
0.0
 20
0.0
 11
1.0
 21
1.0
 12
7567308.298
 22
5717669.285
 13
0.0
 23
0.0
 14
1.0
 24
1.0
 15
0.0
 25
0.0
 16
0.0
 26
0.0
 36
1.0
 17
0.0
 27
0.0
 37
0.0
 40
113.709
 41
1.009
 42
50.0
 43
0.0
 44
0.0
 50
0.0
 51
0.0
 71
0
 72
100
 73
1
 74
1
 75
0
 76
0
 77
0
 78
0
  0
ENDTAB
  0
TABLE
  2
LTYPE
  5
3
100
AcDbSymbolTable
 70
3
  0
LTYPE
  5
4
100
AcDbSymbolTableRecord
100
AcDbLinetypeTableRecord
  2
ByBlock
 70
0
  3

 72
65
 73
0
 40
0.0
  0
LTYPE
  5
5
100
AcDbSymbolTableRecord
100
AcDbLinetypeTableRecord
  2
ByLayer
 70
0
  3

 72
65
 73
0
 40
0.0
  0
LTYPE
  5
6
100
AcDbSymbolTableRecord
100
AcDbLinetypeTableRecord
  2
CONTINUOUS
 70
0
  3
Solid line
 72
65
 73
0
 40
0.0
  0
LTYPE
  5
7
100
AcDbSymbolTableRecord
100
AcDbLinetypeTableRecord
  2
L_0_03
 70
0
  3
Uzytek_gruntowy
 72
65
 73
2
 40
0.2
 49
0.1
 74
0
 49
-0.1
 74
0
  0
LTYPE
  5
8
100
AcDbSymbolTableRecord
100
AcDbLinetypeTableRecord
  2
L_0_DD
 70
0
  3
Granica_gminy5000_dla_MZ2015
 72
65
 73
8
 40
0.29
 49
0.15
 74
0
 49
-0.035
 74
0
 49
0.0
 74
0
 49
-0.035
 74
0
 49
0.0
 74
0
 49
-0.035
 74
0
 49
0.0
 74
0
 49
-0.035
 74
0
  0
ENDTAB
  0
TABLE
  2
LAYER
  5
9
100
AcDbSymbolTable
 70
8
  0
LAYER
  5
A
100
AcDbSymbolTableRecord
100
AcDbLayerTableRecord
  2
0
 70
0
420
0
  6
CONTINUOUS
370
18
390
B
  0
LAYER
  5
C
100
AcDbSymbolTableRecord
100
AcDbLayerTableRecord
  2
GRANICA_USTALENIE_L_0
 70
0
420
0
  6
CONTINUOUS
370
18
390
B
  0
LAYER
  5
D
100
AcDbSymbolTableRecord
100
AcDbLayerTableRecord
  2
linia_pomocnicza2
 70
0
420
0
  6
CONTINUOUS
370
18
390
B
  0
LAYER
  5
E
100
AcDbSymbolTableRecord
100
AcDbLayerTableRecord
  2
linie_pomocnicze
 70
0
420
13762770
  6
CONTINUOUS
370
18
390
B
  0
LAYER
  5
F
100
AcDbSymbolTableRecord
100
AcDbLayerTableRecord
  2
Obrys_budynku
 70
0
420
255
  6
CONTINUOUS
370
25
390
B
  0
LAYER
  5
10
100
AcDbSymbolTableRecord
100
AcDbLayerTableRecord
  2
osie_projektowe
 70
0
420
16711680
  6
L_0_DD
370
18
390
B
  0
LAYER
  5
11
100
AcDbSymbolTableRecord
100
AcDbLayerTableRecord
  2
PKT_OBRYS
 70
0
420
0
  6
CONTINUOUS
370
18
390
B
  0
LAYER
  5
12
100
AcDbSymbolTableRecord
100
AcDbLayerTableRecord
  2
pkt_pomocnicze
 70
0
420
0
  6
CONTINUOUS
370
18
390
B
  0
ENDTAB
  0
TABLE
  2
STYLE
  5
13
100
AcDbSymbolTable
 70
2
  0
STYLE
  5
14
100
AcDbSymbolTableRecord
100
AcDbTextStyleTableRecord
  2
STANDARD
 70
0
 40
0.0
 41
1.0
 50
0.0
 71
0
  3
simplex.shx
  4

  0
STYLE
  5
15
100
AcDbSymbolTableRecord
100
AcDbTextStyleTableRecord
  2
STANDARD_ITALIC
 70
0
 40
0.0
 41
1.0
 50
15.0
 71
0
  3
simplex.shx
  4

  0
ENDTAB
  0
TABLE
  2
VIEW
  5
16
100
AcDbSymbolTable
 70
0
  0
ENDTAB
  0
TABLE
  2
UCS
  5
17
100
AcDbSymbolTable
 70
0
  0
ENDTAB
  0
TABLE
  2
APPID
  5
18
100
AcDbSymbolTable
 70
1
  0
APPID
  5
19
100
AcDbSymbolTableRecord
100
AcDbRegAppTableRecord
  2
ACAD
 70
0
  0
ENDTAB
  0
TABLE
  2
DIMSTYLE
  5
1A
100
AcDbSymbolTable
 70
1
100
AcDbDimStyleTable
  0
DIMSTYLE
105
1B
100
AcDbSymbolTableRecord
100
AcDbDimStyleTableRecord
  2
Standard
 70
0
340
14
  0
ENDTAB
  0
TABLE
  2
BLOCK_RECORD
  5
1C
100
AcDbSymbolTable
 70
3
  0
BLOCK_RECORD
  5
1D
100
AcDbSymbolTableRecord
100
AcDbBlockTableRecord
  2
*Model_Space
340
1E
  0
BLOCK_RECORD
  5
1F
100
AcDbSymbolTableRecord
100
AcDbBlockTableRecord
  2
*Paper_Space
340
20
  0
BLOCK_RECORD
  5
21
100
AcDbSymbolTableRecord
100
AcDbBlockTableRecord
  2
pikieta
340
22
  0
ENDTAB
  0
ENDSEC
  0
SECTION
  2
BLOCKS
  0
BLOCK
  5
23
100
AcDbEntity
  8
0
100
AcDbBlockBegin
  2
*Model_Space
 70
0
 10
0.0
 20
0.0
 30
0.0
  3
*Model_Space
  1

  0
ENDBLK
  5
24
100
AcDbEntity
  8
0
100
AcDbBlockEnd
  0
BLOCK
  5
25
100
AcDbEntity
 67
1
  8
0
100
AcDbBlockBegin
  2
*Paper_Space
 70
0
 10
0.0
 20
0.0
 30
0.0
  3
*Paper_Space
  1

  0
ENDBLK
  5
26
100
AcDbEntity
 67
1
  8
0
100
AcDbBlockEnd
  0
BLOCK
  5
22
100
AcDbEntity
  8
0
100
AcDbBlockBegin
 62
0
370
13
  2
pikieta
 70
0
 10
0
 20
0
 30
0
  3
pikieta
  0
POINT
  5
27
100
AcDbEntity
  8
0
100
AcDbPoint
 62
0
 10
0.0
 20
0.0
 30
0.00
  0
ENDBLK
  5
28
100
AcDbEntity
  8
0
100
AcDbBlockEnd
  0
ENDSEC
  0
SECTION
  2
ENTITIES
  0
POLYLINE
  5
29
100
AcDbEntity
  8
GRANICA_USTALENIE_L_0
  6
CONTINUOUS
420
536870911
370
18
100
AcDb2dPolyline
 66
1
 70
128
  0
VERTEX
  5
2A
100
AcDbEntity
  8
GRANICA_USTALENIE_L_0
100
AcDbVertex
100
AcDb2dVertex
 10
7567268.54999999981
 20
5717623.48000000045
  0
VERTEX
  5
2B
100
AcDbEntity
  8
GRANICA_USTALENIE_L_0
100
AcDbVertex
100
AcDb2dVertex
 10
7567286.62000000011
 20
5717645.08999999985
  0
SEQEND
  5
2C
100
AcDbEntity
  8
GRANICA_USTALENIE_L_0
  0
POLYLINE
  5
2D
100
AcDbEntity
  8
GRANICA_USTALENIE_L_0
  6
CONTINUOUS
420
536870911
370
18
100
AcDb2dPolyline
 66
1
 70
128
  0
VERTEX
  5
2E
100
AcDbEntity
  8
GRANICA_USTALENIE_L_0
100
AcDbVertex
100
AcDb2dVertex
 10
7567276.41999999993
 20
5717652.41999999993
  0
VERTEX
  5
2F
100
AcDbEntity
  8
GRANICA_USTALENIE_L_0
100
AcDbVertex
100
AcDb2dVertex
 10
7567261.21999999974
 20
5717633.69000000041
  0
SEQEND
  5
30
100
AcDbEntity
  8
GRANICA_USTALENIE_L_0
  0
POLYLINE
  5
31
100
AcDbEntity
  8
GRANICA_USTALENIE_L_0
  6
CONTINUOUS
420
536870911
370
18
100
AcDb2dPolyline
 66
1
 70
128
  0
VERTEX
  5
32
100
AcDbEntity
  8
GRANICA_USTALENIE_L_0
100
AcDbVertex
100
AcDb2dVertex
 10
7567286.62000000011
 20
5717645.08999999985
  0
VERTEX
  5
33
100
AcDbEntity
  8
GRANICA_USTALENIE_L_0
100
AcDbVertex
100
AcDb2dVertex
 10
7567337.95999999996
 20
5717706.46999999974
  0
SEQEND
  5
34
100
AcDbEntity
  8
GRANICA_USTALENIE_L_0
  0
POLYLINE
  5
35
100
AcDbEntity
  8
GRANICA_USTALENIE_L_0
  6
CONTINUOUS
420
536870911
370
18
100
AcDb2dPolyline
 66
1
 70
128
  0
VERTEX
  5
36
100
AcDbEntity
  8
GRANICA_USTALENIE_L_0
100
AcDbVertex
100
AcDb2dVertex
 10
7567268.54999999981
 20
5717623.48000000045
  0
VERTEX
  5
37
100
AcDbEntity
  8
GRANICA_USTALENIE_L_0
100
AcDbVertex
100
AcDb2dVertex
 10
7567261.21999999974
 20
5717633.69000000041
  0
SEQEND
  5
38
100
AcDbEntity
  8
GRANICA_USTALENIE_L_0
  0
POLYLINE
  5
39
100
AcDbEntity
  8
GRANICA_USTALENIE_L_0
  6
CONTINUOUS
420
536870911
370
18
100
AcDb2dPolyline
 66
1
 70
128
  0
VERTEX
  5
3A
100
AcDbEntity
  8
GRANICA_USTALENIE_L_0
100
AcDbVertex
100
AcDb2dVertex
 10
7567261.21999999974
 20
5717633.69000000041
  0
VERTEX
  5
3B
100
AcDbEntity
  8
GRANICA_USTALENIE_L_0
100
AcDbVertex
100
AcDb2dVertex
 10
7567250.90469492879
 20
5717648.05824894737
  0
SEQEND
  5
3C
100
AcDbEntity
  8
GRANICA_USTALENIE_L_0
  0
POLYLINE
  5
3D
100
AcDbEntity
  8
GRANICA_USTALENIE_L_0
  6
CONTINUOUS
370
18
100
AcDb2dPolyline
 66
1
 70
128
  0
VERTEX
  5
3E
100
AcDbEntity
  8
GRANICA_USTALENIE_L_0
100
AcDbVertex
100
AcDb2dVertex
 10
7567337.95999999996
 20
5717706.46999999974
  0
VERTEX
  5
3F
100
AcDbEntity
  8
GRANICA_USTALENIE_L_0
100
AcDbVertex
100
AcDb2dVertex
 10
7567326.80999999959
 20
5717714.50999999978
  0
SEQEND
  5
40
100
AcDbEntity
  8
GRANICA_USTALENIE_L_0
  0
POLYLINE
  5
41
100
AcDbEntity
  8
GRANICA_USTALENIE_L_0
  6
CONTINUOUS
420
536870911
370
18
100
AcDb2dPolyline
 66
1
 70
128
  0
VERTEX
  5
42
100
AcDbEntity
  8
GRANICA_USTALENIE_L_0
100
AcDbVertex
100
AcDb2dVertex
 10
7567326.80999999959
 20
5717714.50999999978
  0
VERTEX
  5
43
100
AcDbEntity
  8
GRANICA_USTALENIE_L_0
100
AcDbVertex
100
AcDb2dVertex
 10
7567314.24983442016
 20
5717723.56683688331
  0
SEQEND
  5
44
100
AcDbEntity
  8
GRANICA_USTALENIE_L_0
  0
POLYLINE
  5
45
100
AcDbEntity
  8
GRANICA_USTALENIE_L_0
  6
CONTINUOUS
420
536870911
370
18
100
AcDb2dPolyline
 66
1
 70
128
  0
VERTEX
  5
46
100
AcDbEntity
  8
GRANICA_USTALENIE_L_0
100
AcDbVertex
100
AcDb2dVertex
 10
7567268.54999999981
 20
5717623.48000000045
  0
VERTEX
  5
47
100
AcDbEntity
  8
GRANICA_USTALENIE_L_0
100
AcDbVertex
100
AcDb2dVertex
 10
7567280.45014143456
 20
5717612.4314018134
  0
SEQEND
  5
48
100
AcDbEntity
  8
GRANICA_USTALENIE_L_0
  0
POLYLINE
  5
49
100
AcDbEntity
  8
GRANICA_USTALENIE_L_0
  6
CONTINUOUS
420
536870911
370
18
100
AcDb2dPolyline
 66
1
 70
128
  0
VERTEX
  5
4A
100
AcDbEntity
  8
GRANICA_USTALENIE_L_0
100
AcDbVertex
100
AcDb2dVertex
 10
7567286.62000000011
 20
5717645.08999999985
  0
VERTEX
  5
4B
100
AcDbEntity
  8
GRANICA_USTALENIE_L_0
100
AcDbVertex
100
AcDb2dVertex
 10
7567297.17977930885
 20
5717637.50145271234
  0
SEQEND
  5
4C
100
AcDbEntity
  8
GRANICA_USTALENIE_L_0
  0
POLYLINE
  5
4D
100
AcDbEntity
  8
GRANICA_USTALENIE_L_0
  6
CONTINUOUS
420
536870911
370
18
100
AcDb2dPolyline
 66
1
 70
128
  0
VERTEX
  5
4E
100
AcDbEntity
  8
GRANICA_USTALENIE_L_0
100
AcDbVertex
100
AcDb2dVertex
 10
7567276.41999999993
 20
5717652.41999999993
  0
VERTEX
  5
4F
100
AcDbEntity
  8
GRANICA_USTALENIE_L_0
100
AcDbVertex
100
AcDb2dVertex
 10
7567260.09954949189
 20
5717664.1483237464
  0
SEQEND
  5
50
100
AcDbEntity
  8
GRANICA_USTALENIE_L_0
  0
POLYLINE
  5
51
100
AcDbEntity
  8
GRANICA_USTALENIE_L_0
  6
CONTINUOUS
420
536870911
370
18
100
AcDb2dPolyline
 66
1
 70
128
  0
VERTEX
  5
52
100
AcDbEntity
  8
GRANICA_USTALENIE_L_0
100
AcDbVertex
100
AcDb2dVertex
 10
7567337.95999999996
 20
5717706.46999999974
  0
VERTEX
  5
53
100
AcDbEntity
  8
GRANICA_USTALENIE_L_0
100
AcDbVertex
100
AcDb2dVertex
 10
7567351.9617656488
 20
5717695.94706251193
  0
SEQEND
  5
54
100
AcDbEntity
  8
GRANICA_USTALENIE_L_0
  0
POLYLINE
  5
55
100
AcDbEntity
  8
GRANICA_USTALENIE_L_0
  6
CONTINUOUS
370
18
100
AcDb2dPolyline
 66
1
 70
128
  0
VERTEX
  5
56
100
AcDbEntity
  8
GRANICA_USTALENIE_L_0
100
AcDbVertex
100
AcDb2dVertex
 10
7567276.41999999993
 20
5717652.41999999993
  0
VERTEX
  5
57
100
AcDbEntity
  8
GRANICA_USTALENIE_L_0
100
AcDbVertex
100
AcDb2dVertex
 10
7567326.80999999959
 20
5717714.50999999978
  0
SEQEND
  5
58
100
AcDbEntity
  8
GRANICA_USTALENIE_L_0
  0
POLYLINE
  5
59
100
AcDbEntity
  8
linia_pomocnicza2
  6
CONTINUOUS
370
18
100
AcDb2dPolyline
 66
1
 70
128
  0
VERTEX
  5
5A
100
AcDbEntity
  8
linia_pomocnicza2
100
AcDbVertex
100
AcDb2dVertex
 10
7567277.58499999996
 20
5717651.47499999963
  0
VERTEX
  5
5B
100
AcDbEntity
  8
linia_pomocnicza2
100
AcDbVertex
100
AcDb2dVertex
 10
7567327.97499999963
 20
5717713.56500000041
  0
SEQEND
  5
5C
100
AcDbEntity
  8
linia_pomocnicza2
  0
POLYLINE
  5
5D
100
AcDbEntity
  8
linia_pomocnicza2
  6
L_0_03
370
13
100
AcDb2dPolyline
 66
1
 70
128
  0
VERTEX
  5
5E
100
AcDbEntity
  8
linia_pomocnicza2
100
AcDbVertex
100
AcDb2dVertex
 10
7567327.14699999988
 20
5717699.84999999963
  0
VERTEX
  5
5F
100
AcDbEntity
  8
linia_pomocnicza2
100
AcDbVertex
100
AcDb2dVertex
 10
7567330.2511424534
 20
5717697.25360583886
  0
SEQEND
  5
60
100
AcDbEntity
  8
linia_pomocnicza2
  0
POLYLINE
  5
61
100
AcDbEntity
  8
linia_pomocnicza2
  6
L_0_03
370
13
100
AcDb2dPolyline
 66
1
 70
128
  0
VERTEX
  5
62
100
AcDbEntity
  8
linia_pomocnicza2
100
AcDbVertex
100
AcDb2dVertex
 10
7567319.9009999996
 20
5717690.92100000009
  0
VERTEX
  5
63
100
AcDbEntity
  8
linia_pomocnicza2
100
AcDbVertex
100
AcDb2dVertex
 10
7567322.87424631789
 20
5717688.43409113772
  0
SEQEND
  5
64
100
AcDbEntity
  8
linia_pomocnicza2
  0
POLYLINE
  5
65
100
AcDbEntity
  8
linia_pomocnicza2
  6
L_0_03
370
13
100
AcDb2dPolyline
 66
1
 70
128
  0
VERTEX
  5
66
100
AcDbEntity
  8
linia_pomocnicza2
100
AcDbVertex
100
AcDb2dVertex
 10
7567321.31400000025
 20
5717705.35699999984
  0
VERTEX
  5
67
100
AcDbEntity
  8
linia_pomocnicza2
100
AcDbVertex
100
AcDb2dVertex
 10
7567320.1490402855
 20
5717706.30243920162
  0
SEQEND
  5
68
100
AcDbEntity
  8
linia_pomocnicza2
  0
POLYLINE
  5
69
100
AcDbEntity
  8
linia_pomocnicza2
  6
L_0_03
370
13
100
AcDb2dPolyline
 66
1
 70
128
  0
VERTEX
  5
6A
100
AcDbEntity
  8
linia_pomocnicza2
100
AcDbVertex
100
AcDb2dVertex
 10
7567313.31099999975
 20
5717695.49600000028
  0
VERTEX
  5
6B
100
AcDbEntity
  8
linia_pomocnicza2
100
AcDbVertex
100
AcDb2dVertex
 10
7567312.14614204876
 20
5717696.44135661423
  0
SEQEND
  5
6C
100
AcDbEntity
  8
linia_pomocnicza2
  0
POLYLINE
  5
6D
100
AcDbEntity
  8
linie_pomocnicze
  6
CONTINUOUS
370
18
100
AcDb2dPolyline
 66
1
 70
128
  0
VERTEX
  5
6E
100
AcDbEntity
  8
linie_pomocnicze
100
AcDbVertex
100
AcDb2dVertex
 10
7567317.8200000003
 20
5717726.13999999966
  0
VERTEX
  5
6F
100
AcDbEntity
  8
linie_pomocnicze
100
AcDbVertex
100
AcDb2dVertex
 10
7567365.69000000041
 20
5717692.51999999862
  0
SEQEND
  5
70
100
AcDbEntity
  8
linie_pomocnicze
  0
POLYLINE
  5
71
100
AcDbEntity
  8
linie_pomocnicze
  6
CONTINUOUS
370
18
100
AcDb2dPolyline
 66
1
 70
128
  0
VERTEX
  5
72
100
AcDbEntity
  8
linie_pomocnicze
100
AcDbVertex
100
AcDb2dVertex
 10
7567309.19915645011
 20
5717713.86517011467
  0
VERTEX
  5
73
100
AcDbEntity
  8
linie_pomocnicze
100
AcDbVertex
100
AcDb2dVertex
 10
7567357.06915576756
 20
5717680.24516914319
  0
SEQEND
  5
74
100
AcDbEntity
  8
linie_pomocnicze
  0
POLYLINE
  5
75
100
AcDbEntity
  8
linie_pomocnicze
  6
CONTINUOUS
370
18
100
AcDb2dPolyline
 66
1
 70
128
  0
VERTEX
  5
76
100
AcDbEntity
  8
linie_pomocnicze
100
AcDbVertex
100
AcDb2dVertex
 10
7567277.62399999984
 20
5717651.44299999997
  0
VERTEX
  5
77
100
AcDbEntity
  8
linie_pomocnicze
100
AcDbVertex
100
AcDb2dVertex
 10
7567328.01400000043
 20
5717713.53299999982
  0
SEQEND
  5
78
100
AcDbEntity
  8
linie_pomocnicze
  0
POLYLINE
  5
79
100
AcDbEntity
  8
linie_pomocnicze
  6
CONTINUOUS
370
18
100
AcDb2dPolyline
 66
1
 70
128
  0
VERTEX
  5
7A
100
AcDbEntity
  8
linie_pomocnicze
100
AcDbVertex
100
AcDb2dVertex
 10
7567283.83562394232
 20
5717646.40187050309
  0
VERTEX
  5
7B
100
AcDbEntity
  8
linie_pomocnicze
100
AcDbVertex
100
AcDb2dVertex
 10
7567334.22562446073
 20
5717708.49187008291
  0
SEQEND
  5
7C
100
AcDbEntity
  8
linie_pomocnicze
  0
POLYLINE
  5
7D
100
AcDbEntity
  8
linie_pomocnicze
  6
L_0_03
370
13
100
AcDb2dPolyline
 66
1
 70
128
  0
VERTEX
  5
7E
100
AcDbEntity
  8
linie_pomocnicze
100
AcDbVertex
100
AcDb2dVertex
 10
7567327.14737320039
 20
5717699.85011641681
  0
VERTEX
  5
7F
100
AcDbEntity
  8
linie_pomocnicze
100
AcDbVertex
100
AcDb2dVertex
 10
7567330.25415920932
 20
5717697.25721254852
  0
SEQEND
  5
80
100
AcDbEntity
  8
linie_pomocnicze
  0
POLYLINE
  5
81
100
AcDbEntity
  8
linie_pomocnicze
  6
L_0_03
370
13
100
AcDb2dPolyline
 66
1
 70
128
  0
VERTEX
  5
82
100
AcDbEntity
  8
linie_pomocnicze
100
AcDbVertex
100
AcDb2dVertex
 10
7567319.90090001002
 20
5717690.92115695216
  0
VERTEX
  5
83
100
AcDbEntity
  8
linie_pomocnicze
100
AcDbVertex
100
AcDb2dVertex
 10
7567322.87635931373
 20
5717688.43661734834
  0
SEQEND
  5
84
100
AcDbEntity
  8
linie_pomocnicze
  0
POLYLINE
  5
85
100
AcDbEntity
  8
linie_pomocnicze
  6
L_0_03
370
13
100
AcDb2dPolyline
 66
1
 70
128
  0
VERTEX
  5
86
100
AcDbEntity
  8
linie_pomocnicze
100
AcDbVertex
100
AcDb2dVertex
 10
7567321.35500000045
 20
5717705.32799999975
  0
VERTEX
  5
87
100
AcDbEntity
  8
linie_pomocnicze
100
AcDbVertex
100
AcDb2dVertex
 10
7567320.15113159455
 20
5717706.30501608923
  0
SEQEND
  5
88
100
AcDbEntity
  8
linie_pomocnicze
  0
POLYLINE
  5
89
100
AcDbEntity
  8
linie_pomocnicze
  6
L_0_03
370
13
100
AcDb2dPolyline
 66
1
 70
128
  0
VERTEX
  5
8A
100
AcDbEntity
  8
linie_pomocnicze
100
AcDbVertex
100
AcDb2dVertex
 10
7567313.31137308572
 20
5717695.49632302485
  0
VERTEX
  5
8B
100
AcDbEntity
  8
linie_pomocnicze
100
AcDbVertex
100
AcDb2dVertex
 10
7567312.14823335689
 20
5717696.44393350184
  0
SEQEND
  5
8C
100
AcDbEntity
  8
linie_pomocnicze
  0
POLYLINE
  5
8D
100
AcDbEntity
  8
Obrys_budynku
  6
CONTINUOUS
370
25
100
AcDb2dPolyline
 66
1
 70
129
  0
VERTEX
  5
8E
100
AcDbEntity
  8
Obrys_budynku
100
AcDbVertex
100
AcDb2dVertex
 10
7567321.70221562963
 20
5717705.04193594772
  0
VERTEX
  5
8F
100
AcDbEntity
  8
Obrys_budynku
100
AcDbVertex
100
AcDb2dVertex
 10
7567320.7570234742
 20
5717703.87728906143
  0
VERTEX
  5
90
100
AcDbEntity
  8
Obrys_budynku
100
AcDbVertex
100
AcDb2dVertex
 10
7567322.23224286362
 20
5717702.68004566431
  0
VERTEX
  5
91
100
AcDbEntity
  8
Obrys_budynku
100
AcDbVertex
100
AcDb2dVertex
 10
7567321.85416600201
 20
5717702.21418690961
  0
VERTEX
  5
92
100
AcDbEntity
  8
Obrys_budynku
100
AcDbVertex
100
AcDb2dVertex
 10
7567322.90234819986
 20
5717701.36351396982
  0
VERTEX
  5
93
100
AcDbEntity
  8
Obrys_budynku
100
AcDbVertex
100
AcDb2dVertex
 10
7567323.84754035529
 20
5717702.52816085704
  0
VERTEX
  5
94
100
AcDbEntity
  8
Obrys_budynku
100
AcDbVertex
100
AcDb2dVertex
 10
7567327.14737320039
 20
5717699.85011641681
  0
VERTEX
  5
95
100
AcDbEntity
  8
Obrys_budynku
100
AcDbVertex
100
AcDb2dVertex
 10
7567319.90090001002
 20
5717690.92115695216
  0
VERTEX
  5
96
100
AcDbEntity
  8
Obrys_budynku
100
AcDbVertex
100
AcDb2dVertex
 10
7567319.51268438157
 20
5717691.23622100335
  0
VERTEX
  5
97
100
AcDbEntity
  8
Obrys_budynku
100
AcDbVertex
100
AcDb2dVertex
 10
7567320.07979967445
 20
5717691.93500913586
  0
VERTEX
  5
98
100
AcDbEntity
  8
Obrys_budynku
100
AcDbVertex
100
AcDb2dVertex
 10
7567317.55639808625
 20
5717693.98292547185
  0
VERTEX
  5
99
100
AcDbEntity
  8
Obrys_budynku
100
AcDbVertex
100
AcDb2dVertex
 10
7567316.98928279337
 20
5717693.28413734026
  0
VERTEX
  5
9A
100
AcDbEntity
  8
Obrys_budynku
100
AcDbVertex
100
AcDb2dVertex
 10
7567314.07766557671
 20
5717695.64711772837
  0
VERTEX
  5
9B
100
AcDbEntity
  8
Obrys_budynku
100
AcDbVertex
100
AcDb2dVertex
 10
7567313.69958871417
 20
5717695.18125897367
  0
VERTEX
  5
9C
100
AcDbEntity
  8
Obrys_budynku
100
AcDbVertex
100
AcDb2dVertex
 10
7567313.31137308572
 20
5717695.49632302485
  0
VERTEX
  5
9D
100
AcDbEntity
  8
Obrys_budynku
100
AcDbVertex
100
AcDb2dVertex
 10
7567321.31400000025
 20
5717705.35699999984
  0
SEQEND
  5
9E
100
AcDbEntity
  8
Obrys_budynku
  0
POLYLINE
  5
9F
100
AcDbEntity
  8
osie_projektowe
  6
ByLayer
370
18
100
AcDb2dPolyline
 66
1
 70
128
  0
VERTEX
  5
A0
100
AcDbEntity
  8
osie_projektowe
100
AcDbVertex
100
AcDb2dVertex
 10
7567314.04090654943
 20
5717695.99852179084
  0
VERTEX
  5
A1
100
AcDbEntity
  8
osie_projektowe
100
AcDbVertex
100
AcDb2dVertex
 10
7567314.60803613067
 20
5717696.69732752815
  0
VERTEX
  5
A2
100
AcDbEntity
  8
osie_projektowe
100
AcDbVertex
100
AcDb2dVertex
 10
7567316.3094248753
 20
5717698.79374474194
  0
VERTEX
  5
A3
100
AcDbEntity
  8
osie_projektowe
100
AcDbVertex
100
AcDb2dVertex
 10
7567320.40536074154
 20
5717703.84067506995
  0
VERTEX
  5
A4
100
AcDbEntity
  8
osie_projektowe
100
AcDbVertex
100
AcDb2dVertex
 10
7567320.97249032278
 20
5717704.53948080819
  0
SEQEND
  5
A5
100
AcDbEntity
  8
osie_projektowe
  0
POLYLINE
  5
A6
100
AcDbEntity
  8
osie_projektowe
  6
ByLayer
370
18
100
AcDb2dPolyline
 66
1
 70
128
  0
VERTEX
  5
A7
100
AcDbEntity
  8
osie_projektowe
100
AcDbVertex
100
AcDb2dVertex
 10
7567323.88418089692
 20
5717702.17644088529
  0
VERTEX
  5
A8
100
AcDbEntity
  8
osie_projektowe
100
AcDbVertex
100
AcDb2dVertex
 10
7567323.31705131568
 20
5717701.47763514798
  0
VERTEX
  5
A9
100
AcDbEntity
  8
osie_projektowe
100
AcDbVertex
100
AcDb2dVertex
 10
7567319.22111544944
 20
5717696.43070481904
  0
VERTEX
  5
AA
100
AcDbEntity
  8
osie_projektowe
100
AcDbVertex
100
AcDb2dVertex
 10
7567317.51972670481
 20
5717694.33428760618
  0
VERTEX
  5
AB
100
AcDbEntity
  8
osie_projektowe
100
AcDbVertex
100
AcDb2dVertex
 10
7567316.95259712357
 20
5717693.63548186794
  0
SEQEND
  5
AC
100
AcDbEntity
  8
osie_projektowe
  0
POLYLINE
  5
AD
100
AcDbEntity
  8
osie_projektowe
  6
ByLayer
370
18
100
AcDb2dPolyline
 66
1
 70
128
  0
VERTEX
  5
AE
100
AcDbEntity
  8
osie_projektowe
100
AcDbVertex
100
AcDb2dVertex
 10
7567326.79587147105
 20
5717699.81340096239
  0
VERTEX
  5
AF
100
AcDbEntity
  8
osie_projektowe
100
AcDbVertex
100
AcDb2dVertex
 10
7567326.22874188982
 20
5717699.11459522508
  0
VERTEX
  5
B0
100
AcDbEntity
  8
osie_projektowe
100
AcDbVertex
100
AcDb2dVertex
 10
7567322.13280602358
 20
5717694.06766489614
  0
VERTEX
  5
B1
100
AcDbEntity
  8
osie_projektowe
100
AcDbVertex
100
AcDb2dVertex
 10
7567320.43141727895
 20
5717691.97124768328
  0
VERTEX
  5
B2
100
AcDbEntity
  8
osie_projektowe
100
AcDbVertex
100
AcDb2dVertex
 10
7567319.86428769771
 20
5717691.27244194504
  0
SEQEND
  5
B3
100
AcDbEntity
  8
osie_projektowe
  0
POLYLINE
  5
B4
100
AcDbEntity
  8
osie_projektowe
  6
ByLayer
370
18
100
AcDb2dPolyline
 66
1
 70
128
  0
VERTEX
  5
B5
100
AcDbEntity
  8
osie_projektowe
100
AcDbVertex
100
AcDb2dVertex
 10
7567314.60803613067
 20
5717696.69732752815
  0
VERTEX
  5
B6
100
AcDbEntity
  8
osie_projektowe
100
AcDbVertex
100
AcDb2dVertex
 10
7567317.51972670481
 20
5717694.33428760618
  0
VERTEX
  5
B7
100
AcDbEntity
  8
osie_projektowe
100
AcDbVertex
100
AcDb2dVertex
 10
7567320.43141727895
 20
5717691.97124768328
  0
SEQEND
  5
B8
100
AcDbEntity
  8
osie_projektowe
  0
POLYLINE
  5
B9
100
AcDbEntity
  8
osie_projektowe
  6
ByLayer
370
18
100
AcDb2dPolyline
 66
1
 70
128
  0
VERTEX
  5
BA
100
AcDbEntity
  8
osie_projektowe
100
AcDbVertex
100
AcDb2dVertex
 10
7567316.3094248753
 20
5717698.79374474194
  0
VERTEX
  5
BB
100
AcDbEntity
  8
osie_projektowe
100
AcDbVertex
100
AcDb2dVertex
 10
7567319.22111544944
 20
5717696.43070481904
  0
VERTEX
  5
BC
100
AcDbEntity
  8
osie_projektowe
100
AcDbVertex
100
AcDb2dVertex
 10
7567322.13280602358
 20
5717694.06766489614
  0
SEQEND
  5
BD
100
AcDbEntity
  8
osie_projektowe
  0
POLYLINE
  5
BE
100
AcDbEntity
  8
osie_projektowe
  6
ByLayer
370
18
100
AcDb2dPolyline
 66
1
 70
128
  0
VERTEX
  5
BF
100
AcDbEntity
  8
osie_projektowe
100
AcDbVertex
100
AcDb2dVertex
 10
7567320.40536074154
 20
5717703.84067506995
  0
VERTEX
  5
C0
100
AcDbEntity
  8
osie_projektowe
100
AcDbVertex
100
AcDb2dVertex
 10
7567323.31705131568
 20
5717701.47763514798
  0
VERTEX
  5
C1
100
AcDbEntity
  8
osie_projektowe
100
AcDbVertex
100
AcDb2dVertex
 10
7567326.22874188982
 20
5717699.11459522508
  0
SEQEND
  5
C2
100
AcDbEntity
  8
osie_projektowe
  0
POLYLINE
  5
C3
100
AcDbEntity
  8
osie_projektowe
  6
ByLayer
370
18
100
AcDb2dPolyline
 66
1
 70
128
  0
VERTEX
  5
C4
100
AcDbEntity
  8
osie_projektowe
100
AcDbVertex
100
AcDb2dVertex
 10
7567320.97249032278
 20
5717704.53948080819
  0
VERTEX
  5
C5
100
AcDbEntity
  8
osie_projektowe
100
AcDbVertex
100
AcDb2dVertex
 10
7567323.88418089692
 20
5717702.17644088529
  0
VERTEX
  5
C6
100
AcDbEntity
  8
osie_projektowe
100
AcDbVertex
100
AcDb2dVertex
 10
7567326.79587147105
 20
5717699.81340096239
  0
VERTEX
  5
C7
100
AcDbEntity
  8
osie_projektowe
100
AcDbVertex
100
AcDb2dVertex
 10
7567328.34880625829
 20
5717698.55308610201
  0
SEQEND
  5
C8
100
AcDbEntity
  8
osie_projektowe
  0
POLYLINE
  5
C9
100
AcDbEntity
  8
osie_projektowe
  6
ByLayer
370
18
100
AcDb2dPolyline
 66
1
 70
128
  0
VERTEX
  5
CA
100
AcDbEntity
  8
osie_projektowe
100
AcDbVertex
100
AcDb2dVertex
 10
7567314.04090654943
 20
5717695.99852179084
  0
VERTEX
  5
CB
100
AcDbEntity
  8
osie_projektowe
100
AcDbVertex
100
AcDb2dVertex
 10
7567316.95259712357
 20
5717693.63548186794
  0
VERTEX
  5
CC
100
AcDbEntity
  8
osie_projektowe
100
AcDbVertex
100
AcDb2dVertex
 10
7567319.86428769771
 20
5717691.27244194504
  0
SEQEND
  5
CD
100
AcDbEntity
  8
osie_projektowe
  0
POLYLINE
  5
CE
100
AcDbEntity
  8
osie_projektowe
  6
ByLayer
370
18
100
AcDb2dPolyline
 66
1
 70
128
  0
VERTEX
  5
CF
100
AcDbEntity
  8
osie_projektowe
100
AcDbVertex
100
AcDb2dVertex
 10
7567320.97249032278
 20
5717704.53948080819
  0
VERTEX
  5
D0
100
AcDbEntity
  8
osie_projektowe
100
AcDbVertex
100
AcDb2dVertex
 10
7567322.23280518223
 20
5717706.09241559543
  0
SEQEND
  5
D1
100
AcDbEntity
  8
osie_projektowe
  0
POLYLINE
  5
D2
100
AcDbEntity
  8
osie_projektowe
  6
ByLayer
370
18
100
AcDb2dPolyline
 66
1
 70
128
  0
VERTEX
  5
D3
100
AcDbEntity
  8
osie_projektowe
100
AcDbVertex
100
AcDb2dVertex
 10
7567320.40536074154
 20
5717703.84067506995
  0
VERTEX
  5
D4
100
AcDbEntity
  8
osie_projektowe
100
AcDbVertex
100
AcDb2dVertex
 10
7567318.8524259543
 20
5717705.10098993033
  0
SEQEND
  5
D5
100
AcDbEntity
  8
osie_projektowe
  0
POLYLINE
  5
D6
100
AcDbEntity
  8
osie_projektowe
  6
ByLayer
370
18
100
AcDb2dPolyline
 66
1
 70
128
  0
VERTEX
  5
D7
100
AcDbEntity
  8
osie_projektowe
100
AcDbVertex
100
AcDb2dVertex
 10
7567316.3094248753
 20
5717698.79374474194
  0
VERTEX
  5
D8
100
AcDbEntity
  8
osie_projektowe
100
AcDbVertex
100
AcDb2dVertex
 10
7567314.75649008807
 20
5717700.05405960232
  0
SEQEND
  5
D9
100
AcDbEntity
  8
osie_projektowe
  0
POLYLINE
  5
DA
100
AcDbEntity
  8
osie_projektowe
  6
ByLayer
370
18
100
AcDb2dPolyline
 66
1
 70
128
  0
VERTEX
  5
DB
100
AcDbEntity
  8
osie_projektowe
100
AcDbVertex
100
AcDb2dVertex
 10
7567314.60803613067
 20
5717696.69732752815
  0
VERTEX
  5
DC
100
AcDbEntity
  8
osie_projektowe
100
AcDbVertex
100
AcDb2dVertex
 10
7567313.05510134343
 20
5717697.95764238853
  0
SEQEND
  5
DD
100
AcDbEntity
  8
osie_projektowe
  0
POLYLINE
  5
DE
100
AcDbEntity
  8
osie_projektowe
  6
ByLayer
370
18
100
AcDb2dPolyline
 66
1
 70
128
  0
VERTEX
  5
DF
100
AcDbEntity
  8
osie_projektowe
100
AcDbVertex
100
AcDb2dVertex
 10
7567314.04090654943
 20
5717695.99852179084
  0
VERTEX
  5
E0
100
AcDbEntity
  8
osie_projektowe
100
AcDbVertex
100
AcDb2dVertex
 10
7567312.4879717622
 20
5717697.25883665122
  0
SEQEND
  5
E1
100
AcDbEntity
  8
osie_projektowe
  0
POLYLINE
  5
E2
100
AcDbEntity
  8
osie_projektowe
  6
ByLayer
370
18
100
AcDb2dPolyline
 66
1
 70
128
  0
VERTEX
  5
E3
100
AcDbEntity
  8
osie_projektowe
100
AcDbVertex
100
AcDb2dVertex
 10
7567314.04090654943
 20
5717695.99852179084
  0
VERTEX
  5
E4
100
AcDbEntity
  8
osie_projektowe
100
AcDbVertex
100
AcDb2dVertex
 10
7567312.78059168905
 20
5717694.4455870036
  0
SEQEND
  5
E5
100
AcDbEntity
  8
osie_projektowe
  0
POLYLINE
  5
E6
100
AcDbEntity
  8
osie_projektowe
  6
ByLayer
370
18
100
AcDb2dPolyline
 66
1
 70
128
  0
VERTEX
  5
E7
100
AcDbEntity
  8
osie_projektowe
100
AcDbVertex
100
AcDb2dVertex
 10
7567316.95259712357
 20
5717693.63548186794
  0
VERTEX
  5
E8
100
AcDbEntity
  8
osie_projektowe
100
AcDbVertex
100
AcDb2dVertex
 10
7567315.69228226412
 20
5717692.0825470807
  0
SEQEND
  5
E9
100
AcDbEntity
  8
osie_projektowe
  0
POLYLINE
  5
EA
100
AcDbEntity
  8
osie_projektowe
  6
ByLayer
370
18
100
AcDb2dPolyline
 66
1
 70
128
  0
VERTEX
  5
EB
100
AcDbEntity
  8
osie_projektowe
100
AcDbVertex
100
AcDb2dVertex
 10
7567319.86428769771
 20
5717691.27244194504
  0
VERTEX
  5
EC
100
AcDbEntity
  8
osie_projektowe
100
AcDbVertex
100
AcDb2dVertex
 10
7567318.60397283826
 20
5717689.7195071578
  0
SEQEND
  5
ED
100
AcDbEntity
  8
osie_projektowe
  0
POLYLINE
  5
EE
100
AcDbEntity
  8
osie_projektowe
  6
ByLayer
370
18
100
AcDb2dPolyline
 66
1
 70
128
  0
VERTEX
  5
EF
100
AcDbEntity
  8
osie_projektowe
100
AcDbVertex
100
AcDb2dVertex
 10
7567319.86428769771
 20
5717691.27244194504
  0
VERTEX
  5
F0
100
AcDbEntity
  8
osie_projektowe
100
AcDbVertex
100
AcDb2dVertex
 10
7567321.41722248495
 20
5717690.01212708466
  0
SEQEND
  5
F1
100
AcDbEntity
  8
osie_projektowe
  0
POLYLINE
  5
F2
100
AcDbEntity
  8
osie_projektowe
  6
ByLayer
370
18
100
AcDb2dPolyline
 66
1
 70
128
  0
VERTEX
  5
F3
100
AcDbEntity
  8
osie_projektowe
100
AcDbVertex
100
AcDb2dVertex
 10
7567322.13280602358
 20
5717694.06766489614
  0
VERTEX
  5
F4
100
AcDbEntity
  8
osie_projektowe
100
AcDbVertex
100
AcDb2dVertex
 10
7567323.68574081082
 20
5717692.80735003576
  0
SEQEND
  5
F5
100
AcDbEntity
  8
osie_projektowe
  0
POLYLINE
  5
F6
100
AcDbEntity
  8
osie_projektowe
  6
ByLayer
370
18
100
AcDb2dPolyline
 66
1
 70
128
  0
VERTEX
  5
F7
100
AcDbEntity
  8
osie_projektowe
100
AcDbVertex
100
AcDb2dVertex
 10
7567326.22874188982
 20
5717699.11459522508
  0
VERTEX
  5
F8
100
AcDbEntity
  8
osie_projektowe
100
AcDbVertex
100
AcDb2dVertex
 10
7567327.78167667706
 20
5717697.8542803647
  0
SEQEND
  5
F9
100
AcDbEntity
  8
osie_projektowe
  0
POLYLINE
  5
FA
100
AcDbEntity
  8
osie_projektowe
  6
ByLayer
370
18
100
AcDb2dPolyline
 66
1
 70
128
  0
VERTEX
  5
FB
100
AcDbEntity
  8
osie_projektowe
100
AcDbVertex
100
AcDb2dVertex
 10
7567326.79587147105
 20
5717699.81340096239
  0
VERTEX
  5
FC
100
AcDbEntity
  8
osie_projektowe
100
AcDbVertex
100
AcDb2dVertex
 10
7567328.05618633144
 20
5717701.36633574963
  0
SEQEND
  5
FD
100
AcDbEntity
  8
osie_projektowe
  0
POLYLINE
  5
FE
100
AcDbEntity
  8
osie_projektowe
  6
ByLayer
370
18
100
AcDb2dPolyline
 66
1
 70
128
  0
VERTEX
  5
FF
100
AcDbEntity
  8
osie_projektowe
100
AcDbVertex
100
AcDb2dVertex
 10
7567323.88418089692
 20
5717702.17644088529
  0
VERTEX
  5
100
100
AcDbEntity
  8
osie_projektowe
100
AcDbVertex
100
AcDb2dVertex
 10
7567325.1444957573
 20
5717703.72937567253
  0
SEQEND
  5
101
100
AcDbEntity
  8
osie_projektowe
  0
INSERT
  5
102
100
AcDbEntity
  8
GRANICA_USTALENIE_L_0
  6
CONTINUOUS
100
AcDbBlockReference
 66
1
  2
pikieta
 10
7567326.80999999959
 20
5717714.50999999978
 41
0.10
 42
0.10
 43
0.10
 50
0.00
  0
ATTRIB
  5
103
100
AcDbEntity
  8
GRANICA_USTALENIE_L_0
100
AcDbText
 10
7567326.80999999959
 20
5717714.50999999978
 40
0.2
  1
18-107
 50
0.00
 41
0.62
 51
0.00
  7
STANDARD
100
AcDbAttribute
  2
Nr
 70
0
  0
SEQEND
  5
104
100
AcDbEntity
  8
GRANICA_USTALENIE_L_0
  0
INSERT
  5
105
100
AcDbEntity
  8
GRANICA_USTALENIE_L_0
  6
CONTINUOUS
100
AcDbBlockReference
 66
1
  2
pikieta
 10
7567261.21999999974
 20
5717633.69000000041
 41
0.10
 42
0.10
 43
0.10
 50
0.00
  0
ATTRIB
  5
106
100
AcDbEntity
  8
GRANICA_USTALENIE_L_0
100
AcDbText
 10
7567261.21999999974
 20
5717633.69000000041
 40
0.2
  1
18-108
 50
0.00
 41
0.62
 51
0.00
  7
STANDARD
100
AcDbAttribute
  2
Nr
 70
0
  0
SEQEND
  5
107
100
AcDbEntity
  8
GRANICA_USTALENIE_L_0
  0
INSERT
  5
108
100
AcDbEntity
  8
GRANICA_USTALENIE_L_0
  6
CONTINUOUS
100
AcDbBlockReference
 66
1
  2
pikieta
 10
7567337.95999999996
 20
5717706.46999999974
 41
0.10
 42
0.10
 43
0.10
 50
0.00
  0
ATTRIB
  5
109
100
AcDbEntity
  8
GRANICA_USTALENIE_L_0
100
AcDbText
 10
7567337.95999999996
 20
5717706.46999999974
 40
0.2
  1
18-28
 50
0.00
 41
0.62
 51
0.00
  7
STANDARD
100
AcDbAttribute
  2
Nr
 70
0
  0
SEQEND
  5
10A
100
AcDbEntity
  8
GRANICA_USTALENIE_L_0
  0
INSERT
  5
10B
100
AcDbEntity
  8
GRANICA_USTALENIE_L_0
  6
CONTINUOUS
100
AcDbBlockReference
 66
1
  2
pikieta
 10
7567286.62000000011
 20
5717645.08999999985
 41
0.10
 42
0.10
 43
0.10
 50
0.00
  0
ATTRIB
  5
10C
100
AcDbEntity
  8
GRANICA_USTALENIE_L_0
100
AcDbText
 10
7567286.62000000011
 20
5717645.08999999985
 40
0.2
  1
18-29
 50
0.00
 41
0.62
 51
0.00
  7
STANDARD
100
AcDbAttribute
  2
Nr
 70
0
  0
SEQEND
  5
10D
100
AcDbEntity
  8
GRANICA_USTALENIE_L_0
  0
INSERT
  5
10E
100
AcDbEntity
  8
GRANICA_USTALENIE_L_0
  6
CONTINUOUS
100
AcDbBlockReference
 66
1
  2
pikieta
 10
7567268.54999999981
 20
5717623.48000000045
 41
0.10
 42
0.10
 43
0.10
 50
0.00
  0
ATTRIB
  5
10F
100
AcDbEntity
  8
GRANICA_USTALENIE_L_0
100
AcDbText
 10
7567268.54999999981
 20
5717623.48000000045
 40
0.2
  1
18-30
 50
0.00
 41
0.62
 51
0.00
  7
STANDARD
100
AcDbAttribute
  2
Nr
 70
0
  0
SEQEND
  5
110
100
AcDbEntity
  8
GRANICA_USTALENIE_L_0
  0
INSERT
  5
111
100
AcDbEntity
  8
GRANICA_USTALENIE_L_0
  6
CONTINUOUS
100
AcDbBlockReference
 66
1
  2
pikieta
 10
7567276.41999999993
 20
5717652.41999999993
 41
0.10
 42
0.10
 43
0.10
 50
0.00
  0
ATTRIB
  5
112
100
AcDbEntity
  8
GRANICA_USTALENIE_L_0
100
AcDbText
 10
7567276.41999999993
 20
5717652.41999999993
 40
0.2
  1
18-31
 50
0.00
 41
0.62
 51
0.00
  7
STANDARD
100
AcDbAttribute
  2
Nr
 70
0
  0
SEQEND
  5
113
100
AcDbEntity
  8
GRANICA_USTALENIE_L_0
  0
INSERT
  5
114
100
AcDbEntity
  8
GRANICA_USTALENIE_L_0
  6
CONTINUOUS
100
AcDbBlockReference
 66
1
  2
pikieta
 10
7567277.58499999996
 20
5717651.47499999963
 41
0.10
 42
0.10
 43
0.10
 50
0.00
  0
ATTRIB
  5
115
100
AcDbEntity
  8
GRANICA_USTALENIE_L_0
100
AcDbText
 10
7567277.58499999996
 20
5717651.47499999963
 40
0.2
  1
S1-1
 50
0.00
 41
0.62
 51
0.00
  7
STANDARD
100
AcDbAttribute
  2
Nr
 70
0
  0
SEQEND
  5
116
100
AcDbEntity
  8
GRANICA_USTALENIE_L_0
  0
INSERT
  5
117
100
AcDbEntity
  8
GRANICA_USTALENIE_L_0
  6
CONTINUOUS
100
AcDbBlockReference
 66
1
  2
pikieta
 10
7567327.97499999963
 20
5717713.56500000041
 41
0.10
 42
0.10
 43
0.10
 50
0.00
  0
ATTRIB
  5
118
100
AcDbEntity
  8
GRANICA_USTALENIE_L_0
100
AcDbText
 10
7567327.97499999963
 20
5717713.56500000041
 40
0.2
  1
S1-2
 50
0.00
 41
0.62
 51
0.00
  7
STANDARD
100
AcDbAttribute
  2
Nr
 70
0
  0
SEQEND
  5
119
100
AcDbEntity
  8
GRANICA_USTALENIE_L_0
  0
INSERT
  5
11A
100
AcDbEntity
  8
GRANICA_USTALENIE_L_0
  6
CONTINUOUS
100
AcDbBlockReference
 66
1
  2
pikieta
 10
7567321.31363713928
 20
5717705.35694244876
 41
0.10
 42
0.10
 43
0.10
 50
0.00
  0
ATTRIB
  5
11B
100
AcDbEntity
  8
GRANICA_USTALENIE_L_0
100
AcDbText
 10
7567321.31363713928
 20
5717705.35694244876
 40
0.2
  1
S1-0
 50
0.00
 41
0.62
 51
0.00
  7
STANDARD
100
AcDbAttribute
  2
Nr
 70
0
  0
SEQEND
  5
11C
100
AcDbEntity
  8
GRANICA_USTALENIE_L_0
  0
INSERT
  5
11D
100
AcDbEntity
  8
GRANICA_USTALENIE_L_0
  6
CONTINUOUS
100
AcDbBlockReference
 66
1
  2
pikieta
 10
7567320.97249032278
 20
5717704.53948080819
 41
0.10
 42
0.10
 43
0.10
 50
0.00
  0
ATTRIB
  5
11E
100
AcDbEntity
  8
GRANICA_USTALENIE_L_0
100
AcDbText
 10
7567320.97249032278
 20
5717704.53948080819
 40
0.2
  1
3E
 50
0.00
 41
0.62
 51
0.00
  7
STANDARD
100
AcDbAttribute
  2
Nr
 70
0
  0
SEQEND
  5
11F
100
AcDbEntity
  8
GRANICA_USTALENIE_L_0
  0
INSERT
  5
120
100
AcDbEntity
  8
GRANICA_USTALENIE_L_0
  6
CONTINUOUS
100
AcDbBlockReference
 66
1
  2
pikieta
 10
7567320.40536074154
 20
5717703.84067506995
 41
0.10
 42
0.10
 43
0.10
 50
0.00
  0
ATTRIB
  5
121
100
AcDbEntity
  8
GRANICA_USTALENIE_L_0
100
AcDbText
 10
7567320.40536074154
 20
5717703.84067506995
 40
0.2
  1
3D
 50
0.00
 41
0.62
 51
0.00
  7
STANDARD
100
AcDbAttribute
  2
Nr
 70
0
  0
SEQEND
  5
122
100
AcDbEntity
  8
GRANICA_USTALENIE_L_0
  0
INSERT
  5
123
100
AcDbEntity
  8
GRANICA_USTALENIE_L_0
  6
CONTINUOUS
100
AcDbBlockReference
 66
1
  2
pikieta
 10
7567316.3094248753
 20
5717698.79374474194
 41
0.10
 42
0.10
 43
0.10
 50
0.00
  0
ATTRIB
  5
124
100
AcDbEntity
  8
GRANICA_USTALENIE_L_0
100
AcDbText
 10
7567316.3094248753
 20
5717698.79374474194
 40
0.2
  1
3C
 50
0.00
 41
0.62
 51
0.00
  7
STANDARD
100
AcDbAttribute
  2
Nr
 70
0
  0
SEQEND
  5
125
100
AcDbEntity
  8
GRANICA_USTALENIE_L_0
  0
INSERT
  5
126
100
AcDbEntity
  8
GRANICA_USTALENIE_L_0
  6
CONTINUOUS
100
AcDbBlockReference
 66
1
  2
pikieta
 10
7567314.60803613067
 20
5717696.69732752815
 41
0.10
 42
0.10
 43
0.10
 50
0.00
  0
ATTRIB
  5
127
100
AcDbEntity
  8
GRANICA_USTALENIE_L_0
100
AcDbText
 10
7567314.60803613067
 20
5717696.69732752815
 40
0.2
  1
3B
 50
0.00
 41
0.62
 51
0.00
  7
STANDARD
100
AcDbAttribute
  2
Nr
 70
0
  0
SEQEND
  5
128
100
AcDbEntity
  8
GRANICA_USTALENIE_L_0
  0
INSERT
  5
129
100
AcDbEntity
  8
GRANICA_USTALENIE_L_0
  6
CONTINUOUS
100
AcDbBlockReference
 66
1
  2
pikieta
 10
7567314.04090654943
 20
5717695.99852179084
 41
0.10
 42
0.10
 43
0.10
 50
0.00
  0
ATTRIB
  5
12A
100
AcDbEntity
  8
GRANICA_USTALENIE_L_0
100
AcDbText
 10
7567314.04090654943
 20
5717695.99852179084
 40
0.2
  1
3A
 50
0.00
 41
0.62
 51
0.00
  7
STANDARD
100
AcDbAttribute
  2
Nr
 70
0
  0
SEQEND
  5
12B
100
AcDbEntity
  8
GRANICA_USTALENIE_L_0
  0
INSERT
  5
12C
100
AcDbEntity
  8
GRANICA_USTALENIE_L_0
  6
CONTINUOUS
100
AcDbBlockReference
 66
1
  2
pikieta
 10
7567323.88418089692
 20
5717702.17644088529
 41
0.10
 42
0.10
 43
0.10
 50
0.00
  0
ATTRIB
  5
12D
100
AcDbEntity
  8
GRANICA_USTALENIE_L_0
100
AcDbText
 10
7567323.88418089692
 20
5717702.17644088529
 40
0.2
  1
2E
 50
0.00
 41
0.62
 51
0.00
  7
STANDARD
100
AcDbAttribute
  2
Nr
 70
0
  0
SEQEND
  5
12E
100
AcDbEntity
  8
GRANICA_USTALENIE_L_0
  0
INSERT
  5
12F
100
AcDbEntity
  8
GRANICA_USTALENIE_L_0
  6
CONTINUOUS
100
AcDbBlockReference
 66
1
  2
pikieta
 10
7567323.31705131568
 20
5717701.47763514798
 41
0.10
 42
0.10
 43
0.10
 50
0.00
  0
ATTRIB
  5
130
100
AcDbEntity
  8
GRANICA_USTALENIE_L_0
100
AcDbText
 10
7567323.31705131568
 20
5717701.47763514798
 40
0.2
  1
2D
 50
0.00
 41
0.62
 51
0.00
  7
STANDARD
100
AcDbAttribute
  2
Nr
 70
0
  0
SEQEND
  5
131
100
AcDbEntity
  8
GRANICA_USTALENIE_L_0
  0
INSERT
  5
132
100
AcDbEntity
  8
GRANICA_USTALENIE_L_0
  6
CONTINUOUS
100
AcDbBlockReference
 66
1
  2
pikieta
 10
7567319.22111544944
 20
5717696.43070481904
 41
0.10
 42
0.10
 43
0.10
 50
0.00
  0
ATTRIB
  5
133
100
AcDbEntity
  8
GRANICA_USTALENIE_L_0
100
AcDbText
 10
7567319.22111544944
 20
5717696.43070481904
 40
0.2
  1
2C
 50
0.00
 41
0.62
 51
0.00
  7
STANDARD
100
AcDbAttribute
  2
Nr
 70
0
  0
SEQEND
  5
134
100
AcDbEntity
  8
GRANICA_USTALENIE_L_0
  0
INSERT
  5
135
100
AcDbEntity
  8
GRANICA_USTALENIE_L_0
  6
CONTINUOUS
100
AcDbBlockReference
 66
1
  2
pikieta
 10
7567317.51972670481
 20
5717694.33428760618
 41
0.10
 42
0.10
 43
0.10
 50
0.00
  0
ATTRIB
  5
136
100
AcDbEntity
  8
GRANICA_USTALENIE_L_0
100
AcDbText
 10
7567317.51972670481
 20
5717694.33428760618
 40
0.2
  1
2B
 50
0.00
 41
0.62
 51
0.00
  7
STANDARD
100
AcDbAttribute
  2
Nr
 70
0
  0
SEQEND
  5
137
100
AcDbEntity
  8
GRANICA_USTALENIE_L_0
  0
INSERT
  5
138
100
AcDbEntity
  8
GRANICA_USTALENIE_L_0
  6
CONTINUOUS
100
AcDbBlockReference
 66
1
  2
pikieta
 10
7567316.95259712357
 20
5717693.63548186794
 41
0.10
 42
0.10
 43
0.10
 50
0.00
  0
ATTRIB
  5
139
100
AcDbEntity
  8
GRANICA_USTALENIE_L_0
100
AcDbText
 10
7567316.95259712357
 20
5717693.63548186794
 40
0.2
  1
2A
 50
0.00
 41
0.62
 51
0.00
  7
STANDARD
100
AcDbAttribute
  2
Nr
 70
0
  0
SEQEND
  5
13A
100
AcDbEntity
  8
GRANICA_USTALENIE_L_0
  0
INSERT
  5
13B
100
AcDbEntity
  8
GRANICA_USTALENIE_L_0
  6
CONTINUOUS
100
AcDbBlockReference
 66
1
  2
pikieta
 10
7567326.79587147105
 20
5717699.81340096239
 41
0.10
 42
0.10
 43
0.10
 50
0.00
  0
ATTRIB
  5
13C
100
AcDbEntity
  8
GRANICA_USTALENIE_L_0
100
AcDbText
 10
7567326.79587147105
 20
5717699.81340096239
 40
0.2
  1
1E
 50
0.00
 41
0.62
 51
0.00
  7
STANDARD
100
AcDbAttribute
  2
Nr
 70
0
  0
SEQEND
  5
13D
100
AcDbEntity
  8
GRANICA_USTALENIE_L_0
  0
INSERT
  5
13E
100
AcDbEntity
  8
GRANICA_USTALENIE_L_0
  6
CONTINUOUS
100
AcDbBlockReference
 66
1
  2
pikieta
 10
7567326.22874188982
 20
5717699.11459522508
 41
0.10
 42
0.10
 43
0.10
 50
0.00
  0
ATTRIB
  5
13F
100
AcDbEntity
  8
GRANICA_USTALENIE_L_0
100
AcDbText
 10
7567326.22874188982
 20
5717699.11459522508
 40
0.2
  1
1D
 50
0.00
 41
0.62
 51
0.00
  7
STANDARD
100
AcDbAttribute
  2
Nr
 70
0
  0
SEQEND
  5
140
100
AcDbEntity
  8
GRANICA_USTALENIE_L_0
  0
INSERT
  5
141
100
AcDbEntity
  8
GRANICA_USTALENIE_L_0
  6
CONTINUOUS
100
AcDbBlockReference
 66
1
  2
pikieta
 10
7567322.13280602358
 20
5717694.06766489614
 41
0.10
 42
0.10
 43
0.10
 50
0.00
  0
ATTRIB
  5
142
100
AcDbEntity
  8
GRANICA_USTALENIE_L_0
100
AcDbText
 10
7567322.13280602358
 20
5717694.06766489614
 40
0.2
  1
1C
 50
0.00
 41
0.62
 51
0.00
  7
STANDARD
100
AcDbAttribute
  2
Nr
 70
0
  0
SEQEND
  5
143
100
AcDbEntity
  8
GRANICA_USTALENIE_L_0
  0
INSERT
  5
144
100
AcDbEntity
  8
GRANICA_USTALENIE_L_0
  6
CONTINUOUS
100
AcDbBlockReference
 66
1
  2
pikieta
 10
7567320.43141727895
 20
5717691.97124768328
 41
0.10
 42
0.10
 43
0.10
 50
0.00
  0
ATTRIB
  5
145
100
AcDbEntity
  8
GRANICA_USTALENIE_L_0
100
AcDbText
 10
7567320.43141727895
 20
5717691.97124768328
 40
0.2
  1
1B
 50
0.00
 41
0.62
 51
0.00
  7
STANDARD
100
AcDbAttribute
  2
Nr
 70
0
  0
SEQEND
  5
146
100
AcDbEntity
  8
GRANICA_USTALENIE_L_0
  0
INSERT
  5
147
100
AcDbEntity
  8
GRANICA_USTALENIE_L_0
  6
CONTINUOUS
100
AcDbBlockReference
 66
1
  2
pikieta
 10
7567319.86428769771
 20
5717691.27244194504
 41
0.10
 42
0.10
 43
0.10
 50
0.00
  0
ATTRIB
  5
148
100
AcDbEntity
  8
GRANICA_USTALENIE_L_0
100
AcDbText
 10
7567319.86428769771
 20
5717691.27244194504
 40
0.2
  1
1A
 50
0.00
 41
0.62
 51
0.00
  7
STANDARD
100
AcDbAttribute
  2
Nr
 70
0
  0
SEQEND
  5
149
100
AcDbEntity
  8
GRANICA_USTALENIE_L_0
  0
INSERT
  5
14A
100
AcDbEntity
  8
linie_pomocnicze
  6
CONTINUOUS
100
AcDbBlockReference
 66
1
  2
pikieta
 10
7567277.62399999984
 20
5717651.44299999997
 41
0.10
 42
0.10
 43
0.10
 50
0.00
  0
ATTRIB
  5
14B
100
AcDbEntity
  8
linie_pomocnicze
100
AcDbText
 10
7567277.62399999984
 20
5717651.44299999997
 40
0.2
  1
S3
 50
0.00
 41
0.62
 51
0.00
  7
STANDARD
100
AcDbAttribute
  2
Nr
 70
0
  0
SEQEND
  5
14C
100
AcDbEntity
  8
linie_pomocnicze
  0
INSERT
  5
14D
100
AcDbEntity
  8
linie_pomocnicze
  6
CONTINUOUS
100
AcDbBlockReference
 66
1
  2
pikieta
 10
7567328.01400000043
 20
5717713.53299999982
 41
0.10
 42
0.10
 43
0.10
 50
0.00
  0
ATTRIB
  5
14E
100
AcDbEntity
  8
linie_pomocnicze
100
AcDbText
 10
7567328.01400000043
 20
5717713.53299999982
 40
0.2
  1
S4
 50
0.00
 41
0.62
 51
0.00
  7
STANDARD
100
AcDbAttribute
  2
Nr
 70
0
  0
SEQEND
  5
14F
100
AcDbEntity
  8
linie_pomocnicze
  0
INSERT
  5
150
100
AcDbEntity
  8
osie_projektowe
  6
CONTINUOUS
100
AcDbBlockReference
 66
1
  2
pikieta
 10
7567323.68574081082
 20
5717692.80735003576
 41
0.10
 42
0.10
 43
0.10
 50
0.00
  0
ATTRIB
  5
151
100
AcDbEntity
  8
osie_projektowe
100
AcDbText
 10
7567323.68574081082
 20
5717692.80735003576
 40
0.2
  1
193
 50
0.00
 41
0.62
 51
0.00
  7
STANDARD
100
AcDbAttribute
  2
Nr
 70
0
  0
SEQEND
  5
152
100
AcDbEntity
  8
osie_projektowe
  0
INSERT
  5
153
100
AcDbEntity
  8
osie_projektowe
  6
CONTINUOUS
100
AcDbBlockReference
 66
1
  2
pikieta
 10
7567327.78167667706
 20
5717697.8542803647
 41
0.10
 42
0.10
 43
0.10
 50
0.00
  0
ATTRIB
  5
154
100
AcDbEntity
  8
osie_projektowe
100
AcDbText
 10
7567327.78167667706
 20
5717697.8542803647
 40
0.2
  1
194
 50
0.00
 41
0.62
 51
0.00
  7
STANDARD
100
AcDbAttribute
  2
Nr
 70
0
  0
SEQEND
  5
155
100
AcDbEntity
  8
osie_projektowe
  0
INSERT
  5
156
100
AcDbEntity
  8
osie_projektowe
  6
CONTINUOUS
100
AcDbBlockReference
 66
1
  2
pikieta
 10
7567328.34880625829
 20
5717698.55308610201
 41
0.10
 42
0.10
 43
0.10
 50
0.00
  0
ATTRIB
  5
157
100
AcDbEntity
  8
osie_projektowe
100
AcDbText
 10
7567328.34880625829
 20
5717698.55308610201
 40
0.2
  1
195
 50
0.00
 41
0.62
 51
0.00
  7
STANDARD
100
AcDbAttribute
  2
Nr
 70
0
  0
SEQEND
  5
158
100
AcDbEntity
  8
osie_projektowe
  0
INSERT
  5
159
100
AcDbEntity
  8
osie_projektowe
  6
CONTINUOUS
100
AcDbBlockReference
 66
1
  2
pikieta
 10
7567321.41722248495
 20
5717690.01212708466
 41
0.10
 42
0.10
 43
0.10
 50
0.00
  0
ATTRIB
  5
15A
100
AcDbEntity
  8
osie_projektowe
100
AcDbText
 10
7567321.41722248495
 20
5717690.01212708466
 40
0.2
  1
196
 50
0.00
 41
0.62
 51
0.00
  7
STANDARD
100
AcDbAttribute
  2
Nr
 70
0
  0
SEQEND
  5
15B
100
AcDbEntity
  8
osie_projektowe
  0
INSERT
  5
15C
100
AcDbEntity
  8
osie_projektowe
  6
CONTINUOUS
100
AcDbBlockReference
 66
1
  2
pikieta
 10
7567312.78059168905
 20
5717694.4455870036
 41
0.10
 42
0.10
 43
0.10
 50
0.00
  0
ATTRIB
  5
15D
100
AcDbEntity
  8
osie_projektowe
100
AcDbText
 10
7567312.78059168905
 20
5717694.4455870036
 40
0.2
  1
197
 50
0.00
 41
0.62
 51
0.00
  7
STANDARD
100
AcDbAttribute
  2
Nr
 70
0
  0
SEQEND
  5
15E
100
AcDbEntity
  8
osie_projektowe
  0
INSERT
  5
15F
100
AcDbEntity
  8
osie_projektowe
  6
CONTINUOUS
100
AcDbBlockReference
 66
1
  2
pikieta
 10
7567315.69228226412
 20
5717692.0825470807
 41
0.10
 42
0.10
 43
0.10
 50
0.00
  0
ATTRIB
  5
160
100
AcDbEntity
  8
osie_projektowe
100
AcDbText
 10
7567315.69228226412
 20
5717692.0825470807
 40
0.2
  1
198
 50
0.00
 41
0.62
 51
0.00
  7
STANDARD
100
AcDbAttribute
  2
Nr
 70
0
  0
SEQEND
  5
161
100
AcDbEntity
  8
osie_projektowe
  0
INSERT
  5
162
100
AcDbEntity
  8
osie_projektowe
  6
CONTINUOUS
100
AcDbBlockReference
 66
1
  2
pikieta
 10
7567318.60397283826
 20
5717689.7195071578
 41
0.10
 42
0.10
 43
0.10
 50
0.00
  0
ATTRIB
  5
163
100
AcDbEntity
  8
osie_projektowe
100
AcDbText
 10
7567318.60397283826
 20
5717689.7195071578
 40
0.2
  1
199
 50
0.00
 41
0.62
 51
0.00
  7
STANDARD
100
AcDbAttribute
  2
Nr
 70
0
  0
SEQEND
  5
164
100
AcDbEntity
  8
osie_projektowe
  0
INSERT
  5
165
100
AcDbEntity
  8
osie_projektowe
  6
CONTINUOUS
100
AcDbBlockReference
 66
1
  2
pikieta
 10
7567312.4879717622
 20
5717697.25883665122
 41
0.10
 42
0.10
 43
0.10
 50
0.00
  0
ATTRIB
  5
166
100
AcDbEntity
  8
osie_projektowe
100
AcDbText
 10
7567312.4879717622
 20
5717697.25883665122
 40
0.2
  1
200
 50
0.00
 41
0.62
 51
0.00
  7
STANDARD
100
AcDbAttribute
  2
Nr
 70
0
  0
SEQEND
  5
167
100
AcDbEntity
  8
osie_projektowe
  0
INSERT
  5
168
100
AcDbEntity
  8
osie_projektowe
  6
CONTINUOUS
100
AcDbBlockReference
 66
1
  2
pikieta
 10
7567313.05510134343
 20
5717697.95764238853
 41
0.10
 42
0.10
 43
0.10
 50
0.00
  0
ATTRIB
  5
169
100
AcDbEntity
  8
osie_projektowe
100
AcDbText
 10
7567313.05510134343
 20
5717697.95764238853
 40
0.2
  1
201
 50
0.00
 41
0.62
 51
0.00
  7
STANDARD
100
AcDbAttribute
  2
Nr
 70
0
  0
SEQEND
  5
16A
100
AcDbEntity
  8
osie_projektowe
  0
INSERT
  5
16B
100
AcDbEntity
  8
osie_projektowe
  6
CONTINUOUS
100
AcDbBlockReference
 66
1
  2
pikieta
 10
7567314.75649008807
 20
5717700.05405960232
 41
0.10
 42
0.10
 43
0.10
 50
0.00
  0
ATTRIB
  5
16C
100
AcDbEntity
  8
osie_projektowe
100
AcDbText
 10
7567314.75649008807
 20
5717700.05405960232
 40
0.2
  1
202
 50
0.00
 41
0.62
 51
0.00
  7
STANDARD
100
AcDbAttribute
  2
Nr
 70
0
  0
SEQEND
  5
16D
100
AcDbEntity
  8
osie_projektowe
  0
INSERT
  5
16E
100
AcDbEntity
  8
osie_projektowe
  6
CONTINUOUS
100
AcDbBlockReference
 66
1
  2
pikieta
 10
7567318.8524259543
 20
5717705.10098993033
 41
0.10
 42
0.10
 43
0.10
 50
0.00
  0
ATTRIB
  5
16F
100
AcDbEntity
  8
osie_projektowe
100
AcDbText
 10
7567318.8524259543
 20
5717705.10098993033
 40
0.2
  1
203
 50
0.00
 41
0.62
 51
0.00
  7
STANDARD
100
AcDbAttribute
  2
Nr
 70
0
  0
SEQEND
  5
170
100
AcDbEntity
  8
osie_projektowe
  0
INSERT
  5
171
100
AcDbEntity
  8
osie_projektowe
  6
CONTINUOUS
100
AcDbBlockReference
 66
1
  2
pikieta
 10
7567322.23280518223
 20
5717706.09241559543
 41
0.10
 42
0.10
 43
0.10
 50
0.00
  0
ATTRIB
  5
172
100
AcDbEntity
  8
osie_projektowe
100
AcDbText
 10
7567322.23280518223
 20
5717706.09241559543
 40
0.2
  1
204
 50
0.00
 41
0.62
 51
0.00
  7
STANDARD
100
AcDbAttribute
  2
Nr
 70
0
  0
SEQEND
  5
173
100
AcDbEntity
  8
osie_projektowe
  0
INSERT
  5
174
100
AcDbEntity
  8
osie_projektowe
  6
CONTINUOUS
100
AcDbBlockReference
 66
1
  2
pikieta
 10
7567325.1444957573
 20
5717703.72937567253
 41
0.10
 42
0.10
 43
0.10
 50
0.00
  0
ATTRIB
  5
175
100
AcDbEntity
  8
osie_projektowe
100
AcDbText
 10
7567325.1444957573
 20
5717703.72937567253
 40
0.2
  1
205
 50
0.00
 41
0.62
 51
0.00
  7
STANDARD
100
AcDbAttribute
  2
Nr
 70
0
  0
SEQEND
  5
176
100
AcDbEntity
  8
osie_projektowe
  0
INSERT
  5
177
100
AcDbEntity
  8
osie_projektowe
  6
CONTINUOUS
100
AcDbBlockReference
 66
1
  2
pikieta
 10
7567328.05618633144
 20
5717701.36633574963
 41
0.10
 42
0.10
 43
0.10
 50
0.00
  0
ATTRIB
  5
178
100
AcDbEntity
  8
osie_projektowe
100
AcDbText
 10
7567328.05618633144
 20
5717701.36633574963
 40
0.2
  1
206
 50
0.00
 41
0.62
 51
0.00
  7
STANDARD
100
AcDbAttribute
  2
Nr
 70
0
  0
SEQEND
  5
179
100
AcDbEntity
  8
osie_projektowe
  0
INSERT
  5
17A
100
AcDbEntity
  8
PKT_OBRYS
  6
CONTINUOUS
100
AcDbBlockReference
 66
1
  2
pikieta
 10
7567321.31400000025
 20
5717705.35699999984
 41
0.10
 42
0.10
 43
0.10
 50
0.00
  0
ATTRIB
  5
17B
100
AcDbEntity
  8
PKT_OBRYS
100
AcDbText
 10
7567321.31400000025
 20
5717705.35699999984
 40
0.2
  1
B1
 50
0.00
 41
0.62
 51
0.00
  7
STANDARD
100
AcDbAttribute
  2
Nr
 70
0
  0
SEQEND
  5
17C
100
AcDbEntity
  8
PKT_OBRYS
  0
INSERT
  5
17D
100
AcDbEntity
  8
PKT_OBRYS
  6
CONTINUOUS
100
AcDbBlockReference
 66
1
  2
pikieta
 10
7567313.31137308572
 20
5717695.49632302485
 41
0.10
 42
0.10
 43
0.10
 50
0.00
  0
ATTRIB
  5
17E
100
AcDbEntity
  8
PKT_OBRYS
100
AcDbText
 10
7567313.31137308572
 20
5717695.49632302485
 40
0.2
  1
B2
 50
0.00
 41
0.62
 51
0.00
  7
STANDARD
100
AcDbAttribute
  2
Nr
 70
0
  0
SEQEND
  5
17F
100
AcDbEntity
  8
PKT_OBRYS
  0
INSERT
  5
180
100
AcDbEntity
  8
PKT_OBRYS
  6
CONTINUOUS
100
AcDbBlockReference
 66
1
  2
pikieta
 10
7567313.69958871417
 20
5717695.18125897367
 41
0.10
 42
0.10
 43
0.10
 50
0.00
  0
ATTRIB
  5
181
100
AcDbEntity
  8
PKT_OBRYS
100
AcDbText
 10
7567313.69958871417
 20
5717695.18125897367
 40
0.2
  1
B3
 50
0.00
 41
0.62
 51
0.00
  7
STANDARD
100
AcDbAttribute
  2
Nr
 70
0
  0
SEQEND
  5
182
100
AcDbEntity
  8
PKT_OBRYS
  0
INSERT
  5
183
100
AcDbEntity
  8
PKT_OBRYS
  6
CONTINUOUS
100
AcDbBlockReference
 66
1
  2
pikieta
 10
7567314.07766557671
 20
5717695.64711772837
 41
0.10
 42
0.10
 43
0.10
 50
0.00
  0
ATTRIB
  5
184
100
AcDbEntity
  8
PKT_OBRYS
100
AcDbText
 10
7567314.07766557671
 20
5717695.64711772837
 40
0.2
  1
B4
 50
0.00
 41
0.62
 51
0.00
  7
STANDARD
100
AcDbAttribute
  2
Nr
 70
0
  0
SEQEND
  5
185
100
AcDbEntity
  8
PKT_OBRYS
  0
INSERT
  5
186
100
AcDbEntity
  8
PKT_OBRYS
  6
CONTINUOUS
100
AcDbBlockReference
 66
1
  2
pikieta
 10
7567316.98928279337
 20
5717693.28413734026
 41
0.10
 42
0.10
 43
0.10
 50
0.00
  0
ATTRIB
  5
187
100
AcDbEntity
  8
PKT_OBRYS
100
AcDbText
 10
7567316.98928279337
 20
5717693.28413734026
 40
0.2
  1
B5
 50
0.00
 41
0.62
 51
0.00
  7
STANDARD
100
AcDbAttribute
  2
Nr
 70
0
  0
SEQEND
  5
188
100
AcDbEntity
  8
PKT_OBRYS
  0
INSERT
  5
189
100
AcDbEntity
  8
PKT_OBRYS
  6
CONTINUOUS
100
AcDbBlockReference
 66
1
  2
pikieta
 10
7567317.55639808625
 20
5717693.98292547185
 41
0.10
 42
0.10
 43
0.10
 50
0.00
  0
ATTRIB
  5
18A
100
AcDbEntity
  8
PKT_OBRYS
100
AcDbText
 10
7567317.55639808625
 20
5717693.98292547185
 40
0.2
  1
B6
 50
0.00
 41
0.62
 51
0.00
  7
STANDARD
100
AcDbAttribute
  2
Nr
 70
0
  0
SEQEND
  5
18B
100
AcDbEntity
  8
PKT_OBRYS
  0
INSERT
  5
18C
100
AcDbEntity
  8
PKT_OBRYS
  6
CONTINUOUS
100
AcDbBlockReference
 66
1
  2
pikieta
 10
7567320.07979967445
 20
5717691.93500913586
 41
0.10
 42
0.10
 43
0.10
 50
0.00
  0
ATTRIB
  5
18D
100
AcDbEntity
  8
PKT_OBRYS
100
AcDbText
 10
7567320.07979967445
 20
5717691.93500913586
 40
0.2
  1
B7
 50
0.00
 41
0.62
 51
0.00
  7
STANDARD
100
AcDbAttribute
  2
Nr
 70
0
  0
SEQEND
  5
18E
100
AcDbEntity
  8
PKT_OBRYS
  0
INSERT
  5
18F
100
AcDbEntity
  8
PKT_OBRYS
  6
CONTINUOUS
100
AcDbBlockReference
 66
1
  2
pikieta
 10
7567319.51268438157
 20
5717691.23622100335
 41
0.10
 42
0.10
 43
0.10
 50
0.00
  0
ATTRIB
  5
190
100
AcDbEntity
  8
PKT_OBRYS
100
AcDbText
 10
7567319.51268438157
 20
5717691.23622100335
 40
0.2
  1
B8
 50
0.00
 41
0.62
 51
0.00
  7
STANDARD
100
AcDbAttribute
  2
Nr
 70
0
  0
SEQEND
  5
191
100
AcDbEntity
  8
PKT_OBRYS
  0
INSERT
  5
192
100
AcDbEntity
  8
PKT_OBRYS
  6
CONTINUOUS
100
AcDbBlockReference
 66
1
  2
pikieta
 10
7567319.90090001002
 20
5717690.92115695216
 41
0.10
 42
0.10
 43
0.10
 50
0.00
  0
ATTRIB
  5
193
100
AcDbEntity
  8
PKT_OBRYS
100
AcDbText
 10
7567319.90090001002
 20
5717690.92115695216
 40
0.2
  1
B9
 50
0.00
 41
0.62
 51
0.00
  7
STANDARD
100
AcDbAttribute
  2
Nr
 70
0
  0
SEQEND
  5
194
100
AcDbEntity
  8
PKT_OBRYS
  0
INSERT
  5
195
100
AcDbEntity
  8
PKT_OBRYS
  6
CONTINUOUS
100
AcDbBlockReference
 66
1
  2
pikieta
 10
7567327.14737320039
 20
5717699.85011641681
 41
0.10
 42
0.10
 43
0.10
 50
0.00
  0
ATTRIB
  5
196
100
AcDbEntity
  8
PKT_OBRYS
100
AcDbText
 10
7567327.14737320039
 20
5717699.85011641681
 40
0.2
  1
B10
 50
0.00
 41
0.62
 51
0.00
  7
STANDARD
100
AcDbAttribute
  2
Nr
 70
0
  0
SEQEND
  5
197
100
AcDbEntity
  8
PKT_OBRYS
  0
INSERT
  5
198
100
AcDbEntity
  8
PKT_OBRYS
  6
CONTINUOUS
100
AcDbBlockReference
 66
1
  2
pikieta
 10
7567323.84754035529
 20
5717702.52816085704
 41
0.10
 42
0.10
 43
0.10
 50
0.00
  0
ATTRIB
  5
199
100
AcDbEntity
  8
PKT_OBRYS
100
AcDbText
 10
7567323.84754035529
 20
5717702.52816085704
 40
0.2
  1
B11
 50
0.00
 41
0.62
 51
0.00
  7
STANDARD
100
AcDbAttribute
  2
Nr
 70
0
  0
SEQEND
  5
19A
100
AcDbEntity
  8
PKT_OBRYS
  0
INSERT
  5
19B
100
AcDbEntity
  8
PKT_OBRYS
  6
CONTINUOUS
100
AcDbBlockReference
 66
1
  2
pikieta
 10
7567322.90234819986
 20
5717701.36351396982
 41
0.10
 42
0.10
 43
0.10
 50
0.00
  0
ATTRIB
  5
19C
100
AcDbEntity
  8
PKT_OBRYS
100
AcDbText
 10
7567322.90234819986
 20
5717701.36351396982
 40
0.2
  1
B12
 50
0.00
 41
0.62
 51
0.00
  7
STANDARD
100
AcDbAttribute
  2
Nr
 70
0
  0
SEQEND
  5
19D
100
AcDbEntity
  8
PKT_OBRYS
  0
INSERT
  5
19E
100
AcDbEntity
  8
PKT_OBRYS
  6
CONTINUOUS
100
AcDbBlockReference
 66
1
  2
pikieta
 10
7567321.85416600201
 20
5717702.21418690961
 41
0.10
 42
0.10
 43
0.10
 50
0.00
  0
ATTRIB
  5
19F
100
AcDbEntity
  8
PKT_OBRYS
100
AcDbText
 10
7567321.85416600201
 20
5717702.21418690961
 40
0.2
  1
B13
 50
0.00
 41
0.62
 51
0.00
  7
STANDARD
100
AcDbAttribute
  2
Nr
 70
0
  0
SEQEND
  5
1A0
100
AcDbEntity
  8
PKT_OBRYS
  0
INSERT
  5
1A1
100
AcDbEntity
  8
PKT_OBRYS
  6
CONTINUOUS
100
AcDbBlockReference
 66
1
  2
pikieta
 10
7567322.23224286362
 20
5717702.68004566431
 41
0.10
 42
0.10
 43
0.10
 50
0.00
  0
ATTRIB
  5
1A2
100
AcDbEntity
  8
PKT_OBRYS
100
AcDbText
 10
7567322.23224286362
 20
5717702.68004566431
 40
0.2
  1
B14
 50
0.00
 41
0.62
 51
0.00
  7
STANDARD
100
AcDbAttribute
  2
Nr
 70
0
  0
SEQEND
  5
1A3
100
AcDbEntity
  8
PKT_OBRYS
  0
INSERT
  5
1A4
100
AcDbEntity
  8
PKT_OBRYS
  6
CONTINUOUS
100
AcDbBlockReference
 66
1
  2
pikieta
 10
7567320.7570234742
 20
5717703.87728906143
 41
0.10
 42
0.10
 43
0.10
 50
0.00
  0
ATTRIB
  5
1A5
100
AcDbEntity
  8
PKT_OBRYS
100
AcDbText
 10
7567320.7570234742
 20
5717703.87728906143
 40
0.2
  1
B15
 50
0.00
 41
0.62
 51
0.00
  7
STANDARD
100
AcDbAttribute
  2
Nr
 70
0
  0
SEQEND
  5
1A6
100
AcDbEntity
  8
PKT_OBRYS
  0
INSERT
  5
1A7
100
AcDbEntity
  8
PKT_OBRYS
  6
CONTINUOUS
100
AcDbBlockReference
 66
1
  2
pikieta
 10
7567321.70221562963
 20
5717705.04193594772
 41
0.10
 42
0.10
 43
0.10
 50
0.00
  0
ATTRIB
  5
1A8
100
AcDbEntity
  8
PKT_OBRYS
100
AcDbText
 10
7567321.70221562963
 20
5717705.04193594772
 40
0.2
  1
B16
 50
0.00
 41
0.62
 51
0.00
  7
STANDARD
100
AcDbAttribute
  2
Nr
 70
0
  0
SEQEND
  5
1A9
100
AcDbEntity
  8
PKT_OBRYS
  0
INSERT
  5
1AA
100
AcDbEntity
  8
pkt_pomocnicze
  6
CONTINUOUS
100
AcDbBlockReference
 66
1
  2
pikieta
 10
7567321.35455758683
 20
5717705.32820324879
 41
0.10
 42
0.10
 43
0.10
 50
0.00
  0
ATTRIB
  5
1AB
100
AcDbEntity
  8
pkt_pomocnicze
100
AcDbText
 10
7567321.35455758683
 20
5717705.32820324879
 40
0.2
  1
S1
 50
0.00
 41
0.62
 51
0.00
  7
STANDARD
100
AcDbAttribute
  2
Nr
 70
0
  0
SEQEND
  5
1AC
100
AcDbEntity
  8
pkt_pomocnicze
  0
TEXT
  5
1AD
100
AcDbEntity
  8
linia_pomocnicza2
370
18
100
AcDbText
 39
0.18
 10
7567329.1366570238
 20
5717698.51994336676
 40
0.18
  1
-4.047-
 50
-219.90
 41
0.66
  7
STANDARD
 72
1
 11
7567328.93348697946
 21
5717698.76802991051
100
AcDbText
 73
1
  0
TEXT
  5
1AE
100
AcDbEntity
  8
linia_pomocnicza2
370
18
100
AcDbText
 39
0.18
 10
7567321.80865702406
 20
5717689.65694336686
 40
0.18
  1
-3.876-
 50
-219.90
 41
0.66
  7
STANDARD
 72
1
 11
7567321.60548697971
 21
5717689.90502991062
100
AcDbText
 73
1
  0
TEXT
  5
1AF
100
AcDbEntity
  8
linia_pomocnicza2
370
18
100
AcDbText
 39
0.18
 10
7567320.95327043161
 20
5717705.60311905202
 40
0.18
  1
-1.500-
 50
-219.10
 41
0.66
  7
STANDARD
 72
1
 11
7567320.74665636197
 21
5717705.84834471531
100
AcDbText
 73
1
  0
TEXT
  5
1B0
100
AcDbEntity
  8
linia_pomocnicza2
370
18
100
AcDbText
 39
0.18
 10
7567313.13745462056
 20
5717695.89733712282
 40
0.18
  1
-1.500-
 50
-219.10
 41
0.66
  7
STANDARD
 72
1
 11
7567312.93084055092
 21
5717696.14256278612
100
AcDbText
 73
1
  0
TEXT
  5
1B1
100
AcDbEntity
  8
linie_pomocnicze
370
18
100
AcDbText
 39
0.18
 10
7567330.72615885828
 20
5717696.9798746109
 40
0.18
  1
12.011
 50
-219.90
 41
0.66
  7
STANDARD
 72
2
 11
7567330.25415920932
 21
5717697.25721254852
100
AcDbText
 73
2
  0
TEXT
  5
1B2
100
AcDbEntity
  8
linie_pomocnicze
370
18
100
AcDbText
 39
0.18
 10
7567328.94014444016
 20
5717698.30943169445
 40
0.18
  1
-3.996-
 50
-219.90
 41
0.66
  7
STANDARD
 72
1
 11
7567328.73697439581
 21
5717698.5575182382
100
AcDbText
 73
1
  0
TEXT
  5
1B3
100
AcDbEntity
  8
linie_pomocnicze
370
18
100
AcDbText
 39
0.18
 10
7567323.34835896268
 20
5717688.15927941073
 40
0.18
  1
23.510
 50
-219.90
 41
0.66
  7
STANDARD
 72
2
 11
7567322.87635931373
 21
5717688.43661734834
100
AcDbText
 73
2
  0
TEXT
  5
1B4
100
AcDbEntity
  8
linie_pomocnicze
370
18
100
AcDbText
 39
0.18
 10
7567321.62774449214
 20
5717689.43413409404
 40
0.18
  1
-3.826-
 50
-219.90
 41
0.66
  7
STANDARD
 72
1
 11
7567321.4245744478
 21
5717689.6822206378
100
AcDbText
 73
1
  0
TEXT
  5
1B5
100
AcDbEntity
  8
linie_pomocnicze
370
18
100
AcDbText
 39
0.18
 10
7567320.20789241698
 20
5717706.37486026622
 40
0.18
  1
10.567
 50
-219.10
 41
0.66
  7
STANDARD
 72
0
 11
7567320.15113159455
 21
5717706.30501608923
100
AcDbText
 73
2
  0
TEXT
  5
1B6
100
AcDbEntity
  8
linie_pomocnicze
370
18
100
AcDbText
 39
0.18
 10
7567320.9748160867
 20
5717705.5899074953
 40
0.18
  1
-1.550-
 50
-219.10
 41
0.66
  7
STANDARD
 72
1
 11
7567320.76820201706
 21
5717705.8351331586
100
AcDbText
 73
1
  0
TEXT
  5
1B7
100
AcDbEntity
  8
linie_pomocnicze
370
18
100
AcDbText
 39
0.18
 10
7567312.20499417931
 20
5717696.51377767883
 40
0.18
  1
23.267
 50
-219.10
 41
0.66
  7
STANDARD
 72
0
 11
7567312.14823335689
 21
5717696.44393350184
100
AcDbText
 73
2
  0
TEXT
  5
1B8
100
AcDbEntity
  8
linie_pomocnicze
370
18
100
AcDbText
 39
0.18
 10
7567312.97186696716
 20
5717695.72886620183
 40
0.18
  1
-1.550-
 50
-219.10
 41
0.66
  7
STANDARD
 72
1
 11
7567312.76525289752
 21
5717695.97409186512
100
AcDbText
 73
1
  0
TEXT
  5
1B9
100
AcDbEntity
  8
Obrys_budynku
370
18
100
AcDbText
 39
0.18
 10
7567317.0990771167
 20
5717700.14040081948
 40
0.18
  1
-12.700-
 50
-309.00
 41
0.66
  7
STANDARD
 72
1
 11
7567317.372261215
 21
5717700.3824141426
100
AcDbText
 73
1
  0
TEXT
  5
1BA
100
AcDbEntity
  8
Obrys_budynku
370
18
100
AcDbText
 39
0.18
 10
7567312.84919902403
 20
5717695.08823592495
 40
0.18
  1
-0.500-
 50
-39.00
 41
0.66
  7
STANDARD
 72
1
 11
7567313.05624077842
 21
5717694.84337124415
100
AcDbText
 73
1
  0
TEXT
  5
1BB
100
AcDbEntity
  8
Obrys_budynku
370
18
100
AcDbText
 39
0.18
 10
7567314.11976407841
 20
5717694.74019902386
 40
0.18
  1
-0.600-
 50
-309.00
 41
0.66
  7
STANDARD
 72
1
 11
7567314.36462875921
 21
5717694.94724077825
100
AcDbText
 73
1
  0
TEXT
  5
1BC
100
AcDbEntity
  8
Obrys_budynku
370
18
100
AcDbText
 39
0.18
 10
7567315.35208269302
 20
5717694.66224918701
 40
0.18
  1
-3.751-
 50
-39.00
 41
0.66
  7
STANDARD
 72
1
 11
7567315.5591244474
 21
5717694.4173845062
100
AcDbText
 73
1
  0
TEXT
  5
1BD
100
AcDbEntity
  8
Obrys_budynku
370
18
100
AcDbText
 39
0.18
 10
7567317.08747523837
 20
5717693.38175985403
 40
0.18
  1
-0.900-
 50
-309.00
 41
0.66
  7
STANDARD
 72
1
 11
7567317.33233991917
 21
5717693.58880160842
100
AcDbText
 73
1
  0
TEXT
  5
1BE
100
AcDbEntity
  8
Obrys_budynku
370
18
100
AcDbText
 39
0.18
 10
7567318.63688462973
 20
5717693.15552699566
 40
0.18
  1
-3.250-
 50
-39.00
 41
0.66
  7
STANDARD
 72
1
 11
7567318.84392638411
 21
5717692.91066231485
100
AcDbText
 73
1
  0
TEXT
  5
1BF
100
AcDbEntity
  8
Obrys_budynku
370
18
100
AcDbText
 39
0.18
 10
7567319.61101732217
 20
5717691.33374985401
 40
0.18
  1
-0.900-
 50
-309.00
 41
0.66
  7
STANDARD
 72
1
 11
7567319.85588200297
 21
5717691.54079160839
100
AcDbText
 73
1
  0
TEXT
  5
1C0
100
AcDbEntity
  8
Obrys_budynku
370
18
100
AcDbText
 39
0.18
 10
7567319.25019902457
 20
5717691.06923592463
 40
0.18
  1
-0.500-
 50
-39.00
 41
0.66
  7
STANDARD
 72
1
 11
7567319.45724077895
 21
5717690.82437124383
100
AcDbText
 73
1
  0
TEXT
  5
1C1
100
AcDbEntity
  8
Obrys_budynku
370
18
100
AcDbText
 39
0.18
 10
7567323.31076684128
 20
5717695.09901460633
 40
0.18
  1
-11.501-
 50
-309.00
 41
0.66
  7
STANDARD
 72
1
 11
7567323.58395093959
 21
5717695.34102792945
100
AcDbText
 73
1
  0
TEXT
  5
1C2
100
AcDbEntity
  8
Obrys_budynku
370
18
100
AcDbText
 39
0.18
 10
7567325.31654801592
 20
5717701.38615656085
 40
0.18
  1
-4.250-
 50
-39.00
 41
0.66
  7
STANDARD
 72
1
 11
7567325.52358977031
 21
5717701.14129188005
100
AcDbText
 73
1
  0
TEXT
  5
1C3
100
AcDbEntity
  8
Obrys_budynku
370
18
100
AcDbText
 39
0.18
 10
7567323.18985430431
 20
5717701.69452553615
 40
0.18
  1
-1.501-
 50
-309.00
 41
0.66
  7
STANDARD
 72
1
 11
7567323.43471898511
 21
5717701.90156729054
100
AcDbText
 73
1
  0
TEXT
  5
1C4
100
AcDbEntity
  8
Obrys_budynku
370
18
100
AcDbText
 39
0.18
 10
7567322.19718406722
 20
5717701.98588421568
 40
0.18
  1
-1.350-
 50
-39.00
 41
0.66
  7
STANDARD
 72
1
 11
7567322.40422582161
 21
5717701.74101953488
100
AcDbText
 73
1
  0
TEXT
  5
1C5
100
AcDbEntity
  8
Obrys_budynku
370
18
100
AcDbText
 39
0.18
 10
7567321.85804313049
 20
5717702.19582386315
 40
0.18
  1
-0.600-
 50
-309.00
 41
0.66
  7
STANDARD
 72
1
 11
7567322.10290781129
 21
5717702.40286561754
100
AcDbText
 73
1
  0
TEXT
  5
1C6
100
AcDbEntity
  8
Obrys_budynku
370
18
100
AcDbText
 39
0.18
 10
7567321.3135071788
 20
5717703.4757739082
 40
0.18
  1
-1.900-
 50
-39.00
 41
0.66
  7
STANDARD
 72
1
 11
7567321.52054893319
 21
5717703.23090922739
100
AcDbText
 73
1
  0
TEXT
  5
1C7
100
AcDbEntity
  8
Obrys_budynku
370
18
100
AcDbText
 39
0.18
 10
7567321.04440637398
 20
5717704.20842022821
 40
0.18
  1
-1.500-
 50
-309.00
 41
0.66
  7
STANDARD
 72
1
 11
7567321.28927105479
 21
5717704.4154619826
100
AcDbText
 73
1
  0
TEXT
  5
1C8
100
AcDbEntity
  8
Obrys_budynku
370
18
100
AcDbText
 39
0.18
 10
7567321.57819902431
 20
5717705.72423592489
 40
0.18
  1
-0.500-
 50
-39.00
 41
0.66
  7
STANDARD
 72
1
 11
7567321.7852407787
 21
5717705.47937124409
100
AcDbText
 73
1
  0
TEXT
  5
1C9
100
AcDbEntity
  8
osie_projektowe
370
18
100
AcDbText
 39
0.18
 10
7567314.09825816192
 20
5717696.12577921525
 40
0.18
  1
-0.899-
 50
-309.00
 41
0.66
  7
STANDARD
 72
1
 11
7567314.34312284272
 21
5717696.33282096963
100
AcDbText
 73
1
  0
TEXT
  5
1CA
100
AcDbEntity
  8
osie_projektowe
370
18
100
AcDbText
 39
0.18
 10
7567315.23251732532
 20
5717697.52339069173
 40
0.18
  1
-2.700-
 50
-309.00
 41
0.66
  7
STANDARD
 72
1
 11
7567315.47738200612
 21
5717697.73043244611
100
AcDbText
 73
1
  0
TEXT
  5
1CB
100
AcDbEntity
  8
osie_projektowe
370
18
100
AcDbText
 39
0.18
 10
7567318.13117963076
 20
5717701.09506446216
 40
0.18
  1
-6.500-
 50
-309.00
 41
0.66
  7
STANDARD
 72
1
 11
7567318.37604431156
 21
5717701.30210621655
100
AcDbText
 73
1
  0
TEXT
  5
1CC
100
AcDbEntity
  8
osie_projektowe
370
18
100
AcDbText
 39
0.18
 10
7567320.46271235496
 20
5717703.96793249529
 40
0.18
  1
-0.899-
 50
-309.00
 41
0.66
  7
STANDARD
 72
1
 11
7567320.70757703576
 21
5717704.17497424968
100
AcDbText
 73
1
  0
TEXT
  5
1CD
100
AcDbEntity
  8
osie_projektowe
370
18
100
AcDbText
 39
0.18
 10
7567317.54312471859
 20
5717697.83843795769
 40
0.18
  1
-3.750-
 50
-39.00
 41
0.66
  7
STANDARD
 72
1
 11
7567317.75016647298
 21
5717697.59357327688
100
AcDbText
 73
1
  0
TEXT
  5
1CE
100
AcDbEntity
  8
osie_projektowe
370
18
100
AcDbText
 39
0.18
 10
7567320.45481529273
 20
5717695.47539803572
 40
0.18
  1
-3.750-
 50
-39.00
 41
0.66
  7
STANDARD
 72
1
 11
7567320.66185704712
 21
5717695.23053335492
100
AcDbText
 73
1
  0
TEXT
  5
1CF
100
AcDbEntity
  8
osie_projektowe
370
18
100
AcDbText
 39
0.18
 10
7567315.84173597395
 20
5717695.74202074483
 40
0.18
  1
-3.750-
 50
-39.00
 41
0.66
  7
STANDARD
 72
1
 11
7567316.04877772834
 21
5717695.49715606403
100
AcDbText
 73
1
  0
TEXT
  5
1D0
100
AcDbEntity
  8
osie_projektowe
370
18
100
AcDbText
 39
0.18
 10
7567318.75342654809
 20
5717693.37898082286
 40
0.18
  1
-3.749-
 50
-39.00
 41
0.66
  7
STANDARD
 72
1
 11
7567318.96046830248
 21
5717693.13411614206
100
AcDbText
 73
1
  0
TEXT
  5
1D1
100
AcDbEntity
  8
osie_projektowe
370
18
100
AcDbText
 39
0.18
 10
7567315.27460639272
 20
5717695.04321500659
 40
0.18
  1
-3.751-
 50
-39.00
 41
0.66
  7
STANDARD
 72
1
 11
7567315.48164814711
 21
5717694.79835032579
100
AcDbText
 73
1
  0
TEXT
  5
1D2
100
AcDbEntity
  8
osie_projektowe
370
18
100
AcDbText
 39
0.18
 10
7567318.18629696686
 20
5717692.68017508462
 40
0.18
  1
-3.749-
 50
-39.00
 41
0.66
  7
STANDARD
 72
1
 11
7567318.39333872125
 21
5717692.43531040382
100
AcDbText
 73
1
  0
TEXT
  5
1D3
100
AcDbEntity
  8
osie_projektowe
370
18
100
AcDbText
 39
0.18
 10
7567326.28609350324
 20
5717699.24185265042
 40
0.18
  1
-0.899-
 50
-309.00
 41
0.66
  7
STANDARD
 72
1
 11
7567326.53095818404
 21
5717699.44889440481
100
AcDbText
 73
1
  0
TEXT
  5
1D4
100
AcDbEntity
  8
osie_projektowe
370
18
100
AcDbText
 39
0.18
 10
7567323.95456077904
 20
5717696.36898461729
 40
0.18
  1
-6.500-
 50
-309.00
 41
0.66
  7
STANDARD
 72
1
 11
7567324.19942545984
 21
5717696.57602637168
100
AcDbText
 73
1
  0
TEXT
  5
1D5
100
AcDbEntity
  8
osie_projektowe
370
18
100
AcDbText
 39
0.18
 10
7567321.0558984736
 20
5717692.79731084593
 40
0.18
  1
-2.701-
 50
-309.00
 41
0.66
  7
STANDARD
 72
1
 11
7567321.3007631544
 21
5717693.00435260031
100
AcDbText
 73
1
  0
TEXT
  5
1D6
100
AcDbEntity
  8
osie_projektowe
370
18
100
AcDbText
 39
0.18
 10
7567319.9216393102
 20
5717691.39969937038
 40
0.18
  1
-0.900-
 50
-309.00
 41
0.66
  7
STANDARD
 72
1
 11
7567320.166503991
 21
5717691.60674112476
100
AcDbText
 73
1
  0
TEXT
  5
1D7
100
AcDbEntity
  8
osie_projektowe
370
18
100
AcDbText
 39
0.18
 10
7567323.3744029291
 20
5717701.60489257239
 40
0.18
  1
-0.899-
 50
-309.00
 41
0.66
  7
STANDARD
 72
1
 11
7567323.6192676099
 21
5717701.81193432678
100
AcDbText
 73
1
  0
TEXT
  5
1D8
100
AcDbEntity
  8
osie_projektowe
370
18
100
AcDbText
 39
0.18
 10
7567321.0428702049
 20
5717698.73202453926
 40
0.18
  1
-6.500-
 50
-309.00
 41
0.66
  7
STANDARD
 72
1
 11
7567321.2877348857
 21
5717698.93906629365
100
AcDbText
 73
1
  0
TEXT
  5
1D9
100
AcDbEntity
  8
osie_projektowe
370
18
100
AcDbText
 39
0.18
 10
7567318.14420789946
 20
5717695.16035076883
 40
0.18
  1
-2.700-
 50
-309.00
 41
0.66
  7
STANDARD
 72
1
 11
7567318.38907258026
 21
5717695.36739252321
100
AcDbText
 73
1
  0
TEXT
  5
1DA
100
AcDbEntity
  8
osie_projektowe
370
18
100
AcDbText
 39
0.18
 10
7567317.00994873606
 20
5717693.76273929328
 40
0.18
  1
-0.900-
 50
-309.00
 41
0.66
  7
STANDARD
 72
1
 11
7567317.25481341686
 21
5717693.96978104766
100
AcDbText
 73
1
  0
TEXT
  5
1DB
100
AcDbEntity
  8
osie_projektowe
370
18
100
AcDbText
 39
0.18
 10
7567321.63906058483
 20
5717702.88536828663
 40
0.18
  1
-3.750-
 50
-39.00
 41
0.66
  7
STANDARD
 72
1
 11
7567321.84610233922
 21
5717702.64050360583
100
AcDbText
 73
1
  0
TEXT
  5
1DC
100
AcDbEntity
  8
osie_projektowe
370
18
100
AcDbText
 39
0.18
 10
7567324.55075115897
 20
5717700.52232836373
 40
0.18
  1
-3.750-
 50
-39.00
 41
0.66
  7
STANDARD
 72
1
 11
7567324.75779291336
 21
5717700.27746368293
100
AcDbText
 73
1
  0
TEXT
  5
1DD
100
AcDbEntity
  8
osie_projektowe
370
18
100
AcDbText
 39
0.18
 10
7567322.20619016606
 20
5717703.58417402394
 40
0.18
  1
-3.750-
 50
-39.00
 41
0.66
  7
STANDARD
 72
1
 11
7567322.41323192045
 21
5717703.33930934314
100
AcDbText
 73
1
  0
TEXT
  5
1DE
100
AcDbEntity
  8
osie_projektowe
370
18
100
AcDbText
 39
0.18
 10
7567325.1178807402
 20
5717701.22113410197
 40
0.18
  1
-3.750-
 50
-39.00
 41
0.66
  7
STANDARD
 72
1
 11
7567325.32492249459
 21
5717700.97626942117
100
AcDbText
 73
1
  0
TEXT
  5
1DF
100
AcDbEntity
  8
osie_projektowe
370
18
100
AcDbText
 39
0.18
 10
7567327.35019342042
 20
5717699.4094567094
 40
0.18
  1
-2.000-
 50
-39.00
 41
0.66
  7
STANDARD
 72
1
 11
7567327.55723517481
 21
5717699.1645920286
100
AcDbText
 73
1
  0
ENDSEC
  0
SECTION
  2
OBJECTS
  0
DICTIONARY
  5
1E0
330
0
100
AcDbDictionary
280
0
281
1
  3
ACAD_GROUP
350
1E1
  3
ACAD_LAYOUT
350
1E2
  3
ACAD_MLINESTYLE
350
1E3
  3
ACAD_PLOTSETTINGS
350
1E4
  3
ACAD_PLOTSTYLENAME
350
1E5
  0
DICTIONARY
  5
1E1
102
{ACAD_REACTORS
330
1E0
102
}
330
1E0
100
AcDbDictionary
280
0
281
1
  0
DICTIONARY
  5
1E2
102
{ACAD_REACTORS
330
1E0
102
}
330
1E0
100
AcDbDictionary
280
0
281
1
  3
Layout
350
20
  3
Model
350
1E
  0
DICTIONARY
  5
1E3
102
{ACAD_REACTORS
330
1E0
102
}
330
1E0
100
AcDbDictionary
280
0
281
1
  3
Standard
350
1E6
  0
DICTIONARY
  5
1E4
102
{ACAD_REACTORS
330
1E0
102
}
330
1E0
100
AcDbDictionary
280
0
281
1
  0
ACDBDICTIONARYWDFLT
  5
1E5
102
{ACAD_REACTORS
330
1E0
102
}
330
1E0
100
AcDbDictionary
281
1
  3
Normal
350
B
100
AcDbDictionaryWithDefault
340
B
  0
LAYOUT
  5
20
100
AcDbPlotSettings
  1

  2

  4

  6

 40
0.0
 41
0.0
 42
0.0
 43
0.0
 44
0.0
 45
0.0
 46
0.0
 47
0.0
 48
0.0
 49
0.0
140
0.0
141
0.0
142
1.0
143
1.0
 70
688
 72
1
 73
0
 74
5
  7

 75
0
147
1.0
148
0.0
149
0.0
100
AcDbLayout
  1
Layout
 70
1
 71
1
 10
0.0
 20
0.0
 11
420.0
 21
297.0
 12
0.0
 22
0.0
 32
0.0
 14
100000000000000000000.0
 24
100000000000000000000.0
 34
100000000000000000000.0
 15
-100000000000000000000.0
 25
-100000000000000000000.0
 35
-100000000000000000000.0
146
0.0
 13
0.0
 23
0.0
 33
0.0
 16
1.0
 26
0.0
 36
0.0
 17
0.0
 27
1.0
 37
0.0
 76
0
330
1F
  0
LAYOUT
  5
1E
100
AcDbPlotSettings
  1

  2

  4

  6

 40
0.0
 41
0.0
 42
0.0
 43
0.0
 44
0.0
 45
0.0
 46
0.0
 47
0.0
 48
0.0
 49
0.0
140
0.0
141
0.0
142
1.0
143
1.0
 70
1712
 72
1
 73
0
 74
0
  7

 75
0
147
1.0
148
0.0
149
0.0
100
AcDbLayout
  1
Model
 70
1
 71
0
 10
0.0
 20
0.0
 11
12.0
 21
9.0
 12
0.0
 22
0.0
 32
0.0
 14
0.0
 24
0.0
 34
0.0
 15
0.0
 25
0.0
 35
0.0
146
0.0
 13
0.0
 23
0.0
 33
0.0
 16
1.0
 26
0.0
 36
0.0
 17
0.0
 27
1.0
 37
0.0
 76
0
330
1D
  0
MLINESTYLE
  5
1E6
102
{ACAD_REACTORS
330
1E3
102
}
330
1E3
100
AcDbMlineStyle
  2
Standard
 70
0
  3

 62
256
 51
90.0
 52
90.0
  2
Standard
 71
2
 49
0.5
 62
256
  6
ByLayer
 49
-0.5
 62
256
  6
ByLayer
  0
ACDBPLACEHOLDER
  5
B
  0
ENDSEC
  0
EOF
