  0
SECTION
  2
HEADER
  9
$ACADVER
  1
AC1021
  9
$ACADMAINTVER
 70
    25
  9
$DWGCODEPAGE
  3
ANSI_1250
  9
$LASTSAVEDBY
  1
Samson-SD
  9
$INSBASE
 10
0.0
 20
0.0
 30
0.0
  9
$EXTMIN
 10
7567054.53
 20
5717088.48
 30
0.0
  9
$EXTMAX
 10
7567158.85
 20
5717209.0
 30
142.599
  9
$LIMMIN
 10
7567054.53
 20
5717088.48
  9
$LIMMAX
 10
7567158.85
 20
5717208.8
  9
$ORTHOMODE
 70
     0
  9
$REGENMODE
 70
     1
  9
$FILLMODE
 70
     1
  9
$QTEXTMODE
 70
     0
  9
$MIRRTEXT
 70
     1
  9
$LTSCALE
 40
1.0
  9
$ATTMODE
 70
     1
  9
$TEXTSIZE
 40
0.2
  9
$TRACEWID
 40
0.05
  9
$TEXTSTYLE
  7
STANDARD
  9
$CLAYER
  8
0
  9
$CELTYPE
  6
ByBlock
  9
$CECOLOR
 62
   256
  9
$CELTSCALE
 40
1.0
  9
$DISPSILH
 70
     0
  9
$DIMSCALE
 40
1.0
  9
$DIMASZ
 40
2.5
  9
$DIMEXO
 40
0.625
  9
$DIMDLI
 40
0.38
  9
$DIMRND
 40
0.0
  9
$DIMDLE
 40
0.0
  9
$DIMEXE
 40
1.25
  9
$DIMTP
 40
0.0
  9
$DIMTM
 40
0.0
  9
$DIMTXT
 40
2.5
  9
$DIMCEN
 40
0.09
  9
$DIMTSZ
 40
0.0
  9
$DIMTOL
 70
     0
  9
$DIMLIM
 70
     0
  9
$DIMTIH
 70
     1
  9
$DIMTOH
 70
     1
  9
$DIMSE1
 70
     0
  9
$DIMSE2
 70
     0
  9
$DIMTAD
 70
     0
  9
$DIMZIN
 70
     0
  9
$DIMBLK
  1

  9
$DIMASO
 70
     1
  9
$DIMSHO
 70
     1
  9
$DIMPOST
  1

  9
$DIMAPOST
  1

  9
$DIMALT
 70
     0
  9
$DIMALTD
 70
     2
  9
$DIMALTF
 40
25.4
  9
$DIMLFAC
 40
1.0
  9
$DIMTOFL
 70
     0
  9
$DIMTVP
 40
0.0
  9
$DIMTIX
 70
     0
  9
$DIMSOXD
 70
     0
  9
$DIMSAH
 70
     0
  9
$DIMBLK1
  1

  9
$DIMBLK2
  1

  9
$DIMSTYLE
  2
Standard
  9
$DIMCLRD
 70
     0
  9
$DIMCLRE
 70
     0
  9
$DIMCLRT
 70
     0
  9
$DIMTFAC
 40
1.0
  9
$DIMGAP
 40
0.625
  9
$DIMJUST
 70
     0
  9
$DIMSD1
 70
     0
  9
$DIMSD2
 70
     0
  9
$DIMTOLJ
 70
     1
  9
$DIMTZIN
 70
     0
  9
$DIMALTZ
 70
     0
  9
$DIMALTTZ
 70
     0
  9
$DIMUPT
 70
     0
  9
$DIMDEC
 70
     4
  9
$DIMTDEC
 70
     4
  9
$DIMALTU
 70
     2
  9
$DIMALTTD
 70
     2
  9
$DIMTXSTY
  7
STANDARD
  9
$DIMAUNIT
 70
     0
  9
$DIMADEC
 70
     0
  9
$DIMALTRND
 40
0.0
  9
$DIMAZIN
 70
     0
  9
$DIMDSEP
 70
    46
  9
$DIMATFIT
 70
     3
  9
$DIMFRAC
 70
     0
  9
$DIMLDRBLK
  1

  9
$DIMLUNIT
 70
     2
  9
$DIMLWD
 70
    -2
  9
$DIMLWE
 70
    -2
  9
$DIMTMOVE
 70
     0
  9
$DIMFXL
 40
1.0
  9
$DIMFXLON
 70
     0
  9
$DIMJOGANG
 40
0.7853981633974483
  9
$DIMTFILL
 70
     0
  9
$DIMTFILLCLR
 70
     0
  9
$DIMARCSYM
 70
     0
  9
$DIMLTYPE
  6

  9
$DIMLTEX1
  6

  9
$DIMLTEX2
  6

  9
$LUNITS
 70
     2
  9
$LUPREC
 70
     4
  9
$SKETCHINC
 40
0.1
  9
$FILLETRAD
 40
0.5
  9
$AUNITS
 70
     0
  9
$AUPREC
 70
     0
  9
$MENU
  1
.
  9
$ELEVATION
 40
0.0
  9
$PELEVATION
 40
0.0
  9
$THICKNESS
 40
0.0
  9
$LIMCHECK
 70
     0
  9
$CHAMFERA
 40
0.0
  9
$CHAMFERB
 40
0.0
  9
$CHAMFERC
 40
0.0
  9
$CHAMFERD
 40
0.0
  9
$SKPOLY
 70
     0
  9
$TDCREATE
 40
2305814.41919272
  9
$TDUCREATE
 40
43566.335859387
  9
$TDUPDATE
 40
2458586.543678842
  9
$TDUUPDATE
 40
2458586.460345509
  9
$TDINDWG
 40
0.0003964468
  9
$TDUSRTIMER
 40
0.0003964468
  9
$USRTIMER
 70
     1
  9
$ANGBASE
 50
0.0
  9
$ANGDIR
 70
     0
  9
$PDMODE
 70
     0
  9
$PDSIZE
 40
0.0
  9
$PLINEWID
 40
0.0
  9
$SPLFRAME
 70
     0
  9
$SPLINETYPE
 70
     6
  9
$SPLINESEGS
 70
     8
  9
$HANDSEED
  5
10000A0
  9
$SURFTAB1
 70
     6
  9
$SURFTAB2
 70
     6
  9
$SURFTYPE
 70
     6
  9
$SURFU
 70
     6
  9
$SURFV
 70
     6
  9
$UCSBASE
  2

  9
$UCSNAME
  2

  9
$UCSORG
 10
0.0
 20
0.0
 30
0.0
  9
$UCSXDIR
 10
1.0
 20
0.0
 30
0.0
  9
$UCSYDIR
 10
0.0
 20
1.0
 30
0.0
  9
$UCSORTHOREF
  2

  9
$UCSORTHOVIEW
 70
     0
  9
$UCSORGTOP
 10
0.0
 20
0.0
 30
0.0
  9
$UCSORGBOTTOM
 10
0.0
 20
0.0
 30
0.0
  9
$UCSORGLEFT
 10
0.0
 20
0.0
 30
0.0
  9
$UCSORGRIGHT
 10
0.0
 20
0.0
 30
0.0
  9
$UCSORGFRONT
 10
0.0
 20
0.0
 30
0.0
  9
$UCSORGBACK
 10
0.0
 20
0.0
 30
0.0
  9
$PUCSBASE
  2

  9
$PUCSNAME
  2

  9
$PUCSORG
 10
0.0
 20
0.0
 30
0.0
  9
$PUCSXDIR
 10
1.0
 20
0.0
 30
0.0
  9
$PUCSYDIR
 10
0.0
 20
1.0
 30
0.0
  9
$PUCSORTHOREF
  2

  9
$PUCSORTHOVIEW
 70
     0
  9
$PUCSORGTOP
 10
0.0
 20
0.0
 30
0.0
  9
$PUCSORGBOTTOM
 10
0.0
 20
0.0
 30
0.0
  9
$PUCSORGLEFT
 10
0.0
 20
0.0
 30
0.0
  9
$PUCSORGRIGHT
 10
0.0
 20
0.0
 30
0.0
  9
$PUCSORGFRONT
 10
0.0
 20
0.0
 30
0.0
  9
$PUCSORGBACK
 10
0.0
 20
0.0
 30
0.0
  9
$USERI1
 70
     0
  9
$USERI2
 70
     0
  9
$USERI3
 70
     0
  9
$USERI4
 70
     0
  9
$USERI5
 70
     0
  9
$USERR1
 40
0.0
  9
$USERR2
 40
0.0
  9
$USERR3
 40
0.0
  9
$USERR4
 40
0.0
  9
$USERR5
 40
0.0
  9
$WORLDVIEW
 70
     1
  9
$SHADEDGE
 70
     3
  9
$SHADEDIF
 70
    70
  9
$TILEMODE
 70
     1
  9
$MAXACTVP
 70
    64
  9
$PINSBASE
 10
0.0
 20
0.0
 30
0.0
  9
$PLIMCHECK
 70
     0
  9
$PEXTMIN
 10
1.000000000000000E+20
 20
1.000000000000000E+20
 30
1.000000000000000E+20
  9
$PEXTMAX
 10
-1.000000000000000E+20
 20
-1.000000000000000E+20
 30
-1.000000000000000E+20
  9
$PLIMMIN
 10
0.0
 20
0.0
  9
$PLIMMAX
 10
0.0
 20
0.0
  9
$UNITMODE
 70
     0
  9
$VISRETAIN
 70
     1
  9
$PLINEGEN
 70
     0
  9
$PSLTSCALE
 70
     1
  9
$TREEDEPTH
 70
  3020
  9
$CMLSTYLE
  2
Standard
  9
$CMLJUST
 70
     0
  9
$CMLSCALE
 40
1.0
  9
$PROXYGRAPHICS
 70
     1
  9
$MEASUREMENT
 70
     0
  9
$CELWEIGHT
370
    -1
  9
$ENDCAPS
280
     0
  9
$JOINSTYLE
280
     0
  9
$LWDISPLAY
290
     1
  9
$INSUNITS
 70
     6
  9
$HYPERLINKBASE
  1

  9
$STYLESHEET
  1

  9
$XEDIT
290
     1
  9
$CEPSNTYPE
380
     0
  9
$PSTYLEMODE
290
     1
  9
$FINGERPRINTGUID
  2
{C59D6832-E0B4-4DB0-9C37-CDD3470F2DAC}
  9
$VERSIONGUID
  2
{FAEB1C32-E019-11D5-929B-00C0DF256EC4}
  9
$EXTNAMES
290
     1
  9
$PSVPSCALE
 40
0.0
  9
$OLESTARTUP
290
     0
  9
$SORTENTS
280
   127
  9
$INDEXCTL
280
     0
  9
$HIDETEXT
280
     1
  9
$XCLIPFRAME
290
     0
  9
$HALOGAP
280
     0
  9
$OBSCOLOR
 70
   257
  9
$OBSLTYPE
280
     0
  9
$INTERSECTIONDISPLAY
280
     0
  9
$INTERSECTIONCOLOR
 70
   257
  9
$DIMASSOC
280
     2
  9
$PROJECTNAME
  1

  9
$CAMERADISPLAY
290
     0
  9
$LENSLENGTH
 40
50.0
  9
$CAMERAHEIGHT
 40
0.0
  9
$STEPSPERSEC
 40
2.0
  9
$STEPSIZE
 40
6.0
  9
$3DDWFPREC
 40
2.0
  9
$PSOLWIDTH
 40
0.25
  9
$PSOLHEIGHT
 40
4.0
  9
$LOFTANG1
 40
1.570796326794897
  9
$LOFTANG2
 40
1.570796326794897
  9
$LOFTMAG1
 40
0.0
  9
$LOFTMAG2
 40
0.0
  9
$LOFTPARAM
 70
     7
  9
$LOFTNORMALS
280
     1
  9
$LATITUDE
 40
37.795
  9
$LONGITUDE
 40
-122.394
  9
$NORTHDIRECTION
 40
0.0
  9
$TIMEZONE
 70
 -8000
  9
$LIGHTGLYPHDISPLAY
280
     1
  9
$TILEMODELIGHTSYNCH
280
     1
  9
$SOLIDHIST
280
     0
  9
$SHOWHIST
280
     1
  9
$DWFFRAME
280
     2
  9
$DGNFRAME
280
     2
  9
$REALWORLDSCALE
290
     1
  9
$INTERFERECOLOR
 62
   256
  9
$CSHADOW
280
     0
  9
$SHADOWPLANELOCATION
 40
0.0
  0
ENDSEC
  0
SECTION
  2
CLASSES
  0
CLASS
  1
ACDBDICTIONARYWDFLT
  2
AcDbDictionaryWithDefault
  3
ObjectDBX Classes
 90
        0
 91
        4
280
     0
281
     0
  0
CLASS
  1
SCALE
  2
AcDbScale
  3
ObjectDBX Classes
 90
     1153
 91
        4
280
     0
281
     0
  0
CLASS
  1
VISUALSTYLE
  2
AcDbVisualStyle
  3
ObjectDBX Classes
 90
     4095
 91
        4
280
     0
281
     0
  0
CLASS
  1
MATERIAL
  2
AcDbMaterial
  3
ObjectDBX Classes
 90
     1153
 91
        4
280
     0
281
     0
  0
CLASS
  1
TABLESTYLE
  2
AcDbTableStyle
  3
ObjectDBX Classes
 90
     4095
 91
        4
280
     0
281
     0
  0
CLASS
  1
MLEADERSTYLE
  2
AcDbMLeaderStyle
  3
ACDB_MLEADERSTYLE_CLASS
 90
     4095
 91
        4
280
     0
281
     0
  0
CLASS
  1
DICTIONARYVAR
  2
AcDbDictionaryVar
  3
ObjectDBX Classes
 90
        0
 91
        4
280
     0
281
     0
  0
CLASS
  1
CELLSTYLEMAP
  2
AcDbCellStyleMap
  3
ObjectDBX Classes
 90
     1152
 91
        4
280
     0
281
     0
  0
ENDSEC
  0
SECTION
  2
TABLES
  0
TABLE
  2
VPORT
  5
1
330
0
100
AcDbSymbolTable
 70
     1
  0
VPORT
  5
2
330
1
100
AcDbSymbolTableRecord
100
AcDbViewportTableRecord
  2
*ACTIVE
 70
     0
 10
0.0
 20
0.0
 11
1.0
 21
1.0
 12
7567106.69
 22
5717148.64
 13
0.0
 23
0.0
 14
1.0
 24
1.0
 15
0.0
 25
0.0
 16
0.0
 26
0.0
 36
1.0
 17
0.0
 27
0.0
 37
0.0
 40
120.32
 41
0.867
 42
50.0
 43
0.0
 44
0.0
 50
0.0
 51
0.0
 71
     0
 72
   100
 73
     1
 74
     1
 75
     0
 76
     0
 77
     0
 78
     0
281
     0
 65
     1
110
0.0
120
0.0
130
0.0
111
1.0
121
0.0
131
0.0
112
0.0
122
1.0
132
0.0
 79
     0
146
0.0
348
1000026
 60
     3
 61
     5
292
     1
282
     1
141
0.0
142
0.0
 63
   250
  0
ENDTAB
  0
TABLE
  2
LTYPE
  5
3
330
0
100
AcDbSymbolTable
 70
     5
  0
LTYPE
  5
4
330
3
100
AcDbSymbolTableRecord
100
AcDbLinetypeTableRecord
  2
ByBlock
 70
     0
  3

 72
    65
 73
     0
 40
0.0
  0
LTYPE
  5
5
330
3
100
AcDbSymbolTableRecord
100
AcDbLinetypeTableRecord
  2
ByLayer
 70
     0
  3

 72
    65
 73
     0
 40
0.0
  0
LTYPE
  5
6
330
3
100
AcDbSymbolTableRecord
100
AcDbLinetypeTableRecord
  2
CONTINUOUS
 70
     0
  3
Solid line
 72
    65
 73
     0
 40
0.0
  0
LTYPE
  5
7
330
3
100
AcDbSymbolTableRecord
100
AcDbLinetypeTableRecord
  2
L_0_02
 70
     0
  3
Dzialka_ewidencyjna
 72
    65
 73
     0
 40
0.0
  0
LTYPE
  5
9
330
3
100
AcDbSymbolTableRecord
100
AcDbLinetypeTableRecord
  2
L_0_02_M
 70
     0
  3
Dzialka_ewidencyjna (MLineStyle)
 72
    65
 73
     0
 40
0.0
  0
LTYPE
  5
A
330
3
100
AcDbSymbolTableRecord
100
AcDbLinetypeTableRecord
  2
L_0_03
 70
     0
  3
Uzytek_gruntowy
 72
    65
 73
     2
 40
0.5
 49
0.25
 74
     0
 49
-0.25
 74
     0
  0
LTYPE
  5
B
330
3
100
AcDbSymbolTableRecord
100
AcDbLinetypeTableRecord
  2
L_0_04
 70
     0
  3
Budynek_projektowany
 72
    65
 73
     2
 40
0.75
 49
0.5
 74
     0
 49
-0.25
 74
     0
  0
ENDTAB
  0
TABLE
  2
LAYER
  5
C
330
0
100
AcDbSymbolTable
 70
    11
  0
LAYER
  5
D
330
C
100
AcDbSymbolTableRecord
100
AcDbLayerTableRecord
  2
0
 70
     0
 62
    18
420
        0
  6
CONTINUOUS
370
    18
390
E
347
100003D
  0
LAYER
  5
F
330
C
100
AcDbSymbolTableRecord
100
AcDbLayerTableRecord
  2
budynki
 70
     0
 62
    18
420
        0
  6
CONTINUOUS
370
    25
390
E
347
100003D
  0
LAYER
  5
10
330
C
100
AcDbSymbolTableRecord
100
AcDbLayerTableRecord
  2
fundament=sciana
 70
     0
 62
   212
420
 13762770
  6
CONTINUOUS
370
    18
390
E
347
100003D
  0
LAYER
  5
11
330
C
100
AcDbSymbolTableRecord
100
AcDbLayerTableRecord
  2
granice
 70
     0
 62
    96
420
    32768
  6
L_0_02
370
    18
390
E
347
100003D
  0
LAYER
  5
12
330
C
100
AcDbSymbolTableRecord
100
AcDbLayerTableRecord
  2
osnowa
 70
     0
 62
    18
420
        0
  6
CONTINUOUS
370
    18
390
E
347
100003D
  0
LAYER
  5
13
330
C
100
AcDbSymbolTableRecord
100
AcDbLayerTableRecord
  2
pkt_bud
 70
     0
 62
    18
420
        0
  6
CONTINUOUS
370
    18
390
E
347
100003D
  0
LAYER
  5
14
330
C
100
AcDbSymbolTableRecord
100
AcDbLayerTableRecord
  2
Projekt_bud
 70
     0
 62
    18
420
        0
  6
CONTINUOUS
370
    18
390
E
347
100003D
  0
LAYER
  5
15
330
C
100
AcDbSymbolTableRecord
100
AcDbLayerTableRecord
  2
rzutowanie_budynku_na_granice
 70
     0
 62
     1
420
 16711680
  6
CONTINUOUS
370
    18
390
E
347
100003D
  0
LAYER
  5
16
330
C
100
AcDbSymbolTableRecord
100
AcDbLayerTableRecord
  2
styrodur=sciana_drew
 70
     0
 62
    52
420
 12566272
  6
CONTINUOUS
370
    18
390
E
347
100003D
  0
LAYER
  5
17
330
C
100
AcDbSymbolTableRecord
100
AcDbLayerTableRecord
  2
wymiary_scian
 70
     0
 62
    18
420
        0
  6
CONTINUOUS
370
    18
390
E
347
100003D
  0
LAYER
  5
18
330
C
100
AcDbSymbolTableRecord
100
AcDbLayerTableRecord
  2
lawa_fundamentowa
 70
     0
 62
     5
420
      255
  6
CONTINUOUS
370
    18
390
E
347
100003D
  0
ENDTAB
  0
TABLE
  2
STYLE
  5
19
330
0
100
AcDbSymbolTable
 70
     1
  0
STYLE
  5
1A
330
19
100
AcDbSymbolTableRecord
100
AcDbTextStyleTableRecord
  2
STANDARD
 70
     0
 40
0.0
 41
1.0
 50
0.0
 71
     0
 42
0.2
  3
simplex.shx
  4

  0
ENDTAB
  0
TABLE
  2
VIEW
  5
1B
330
0
100
AcDbSymbolTable
 70
     0
  0
ENDTAB
  0
TABLE
  2
UCS
  5
1C
330
0
100
AcDbSymbolTable
 70
     0
  0
ENDTAB
  0
TABLE
  2
APPID
  5
1D
330
0
100
AcDbSymbolTable
 70
     2
  0
APPID
  5
1E
330
1D
100
AcDbSymbolTableRecord
100
AcDbRegAppTableRecord
  2
ACAD
 70
     0
  0
APPID
  5
1000099
330
1D
100
AcDbSymbolTableRecord
100
AcDbRegAppTableRecord
  2
ACAD_MLEADERVER
 70
     0
  0
ENDTAB
  0
TABLE
  2
DIMSTYLE
  5
1F
330
0
100
AcDbSymbolTable
 70
     1
100
AcDbDimStyleTable
  0
DIMSTYLE
105
20
330
1F
100
AcDbSymbolTableRecord
100
AcDbDimStyleTableRecord
  2
Standard
 70
     0
178
     0
340
1A
  0
ENDTAB
  0
TABLE
  2
BLOCK_RECORD
  5
21
330
0
100
AcDbSymbolTable
 70
     5
  0
BLOCK_RECORD
  5
22
330
21
100
AcDbSymbolTableRecord
100
AcDbBlockTableRecord
  2
*Model_Space
340
23
 70
     0
280
     1
281
     0
  0
BLOCK_RECORD
  5
24
330
21
100
AcDbSymbolTableRecord
100
AcDbBlockTableRecord
  2
*Paper_Space
340
25
 70
     0
280
     1
281
     0
  0
BLOCK_RECORD
  5
26
330
21
100
AcDbSymbolTableRecord
100
AcDbBlockTableRecord
  2
GRT
340
0
 70
     0
280
     1
281
     0
  0
BLOCK_RECORD
  5
28
330
21
100
AcDbSymbolTableRecord
100
AcDbBlockTableRecord
  2
GRO
340
0
 70
     0
280
     1
281
     0
  0
BLOCK_RECORD
  5
2A
330
21
100
AcDbSymbolTableRecord
100
AcDbBlockTableRecord
  2
pikieta
340
0
102
{BLKREFS
331
C7
331
CA
331
CD
331
D0
331
0
331
0
331
0
331
DC
331
0
331
12B
331
0
331
131
331
0
331
137
331
0
331
0
331
140
331
143
331
0
331
0
331
0
331
0
102
}
 70
     0
280
     1
281
     0
  0
BLOCK_RECORD
  5
2C
330
21
100
AcDbSymbolTableRecord
100
AcDbBlockTableRecord
  2
L_0_02_1
340
0
102
{BLKREFS
331
C6
331
C9
331
CC
331
CF
331
0
331
0
331
0
331
DB
331
DE
102
}
 70
     0
280
     1
281
     0
  0
BLOCK_RECORD
  5
2E
330
21
100
AcDbSymbolTableRecord
100
AcDbBlockTableRecord
  2
L_0_02_2
340
0
102
{BLKREFS
331
C8
331
CB
331
CE
331
0
331
0
331
0
331
DA
331
DD
331
E0
102
}
 70
     0
280
     1
281
     0
  0
ENDTAB
  0
ENDSEC
  0
SECTION
  2
BLOCKS
  0
BLOCK
  5
30
330
22
100
AcDbEntity
  8
0
100
AcDbBlockBegin
  2
*Model_Space
 70
     0
 10
0.0
 20
0.0
 30
0.0
  3
*Model_Space
  1

  0
ENDBLK
  5
31
330
22
100
AcDbEntity
  8
0
100
AcDbBlockEnd
  0
BLOCK
  5
32
330
24
100
AcDbEntity
 67
     1
  8
0
100
AcDbBlockBegin
  2
*Paper_Space
 70
     0
 10
0.0
 20
0.0
 30
0.0
  3
*Paper_Space
  1

  0
ENDBLK
  5
33
330
24
100
AcDbEntity
 67
     1
  8
0
100
AcDbBlockEnd
  0
BLOCK
  5
27
330
26
100
AcDbEntity
  8
0
100
AcDbBlockBegin
  2
GRT
 70
     0
 10
0.0
 20
0.0
 30
0.0
  3
GRT
  1

  0
HATCH
  5
34
330
26
100
AcDbEntity
  8
0
  6
Continuous
 62
     7
420
 16777215
370
    18
100
AcDbHatch
 10
0.0
 20
0.0
 30
0.0
210
0.0
220
0.0
230
1.0
  2
SOLID
 70
     1
 71
     1
 91
        1
 92
        3
 72
     1
 73
     1
 93
        2
 10
0.0
 20
-0.5
 42
1.0
 10
0.0
 20
0.5
 42
1.0
 97
        0
 75
     0
 76
     1
 98
        1
 10
0.0
 20
0.0
  0
CIRCLE
  5
35
330
26
100
AcDbEntity
  8
0
  6
Continuous
 62
     0
370
    18
100
AcDbCircle
 10
0.0
 20
0.0
 30
0.0
 40
0.5
  0
ENDBLK
  5
36
330
26
100
AcDbEntity
  8
0
100
AcDbBlockEnd
  0
BLOCK
  5
29
330
28
100
AcDbEntity
  8
0
100
AcDbBlockBegin
  2
GRO
 70
     0
 10
0.0
 20
0.0
 30
0.0
  3
GRO
  1

  0
HATCH
  5
37
330
28
100
AcDbEntity
  8
0
  6
Continuous
 62
     0
370
    13
100
AcDbHatch
 10
0.0
 20
0.0
 30
0.0
210
0.0
220
0.0
230
1.0
  2
SOLID
 70
     1
 71
     1
 91
        1
 92
        3
 72
     1
 73
     1
 93
        2
 10
0.0
 20
-0.1
 42
1.0
 10
0.0
 20
0.1
 42
1.0
 97
        0
 75
     0
 76
     1
 98
        1
 10
0.0
 20
0.0
  0
CIRCLE
  5
38
330
28
100
AcDbEntity
  8
0
  6
Continuous
 62
     0
370
    13
100
AcDbCircle
 10
0.0
 20
0.0
 30
0.0
 40
0.1
  0
ENDBLK
  5
39
330
28
100
AcDbEntity
  8
0
100
AcDbBlockEnd
  0
BLOCK
  5
2B
330
2A
100
AcDbEntity
  8
0
100
AcDbBlockBegin
  2
pikieta
 70
     0
 10
0.0
 20
0.0
 30
0.0
  3
pikieta
  1

  0
POINT
  5
3A
330
2A
100
AcDbEntity
  8
0
 62
     0
100
AcDbPoint
 10
0.0
 20
0.0
 30
0.0
  0
ENDBLK
  5
3B
330
2A
100
AcDbEntity
  8
0
100
AcDbBlockEnd
  0
BLOCK
  5
2D
330
2C
100
AcDbEntity
  8
0
100
AcDbBlockBegin
  2
L_0_02_1
 70
     0
 10
0.0
 20
0.0
 30
0.0
  3
L_0_02_1
  1

  0
POINT
  5
3C
330
2C
100
AcDbEntity
  8
0
 62
     0
100
AcDbPoint
 10
0.0
 20
0.0
 30
0.0
  0
ENDBLK
  5
3D
330
2C
100
AcDbEntity
  8
0
100
AcDbBlockEnd
  0
BLOCK
  5
2F
330
2E
100
AcDbEntity
  8
0
100
AcDbBlockBegin
  2
L_0_02_2
 70
     0
 10
0.0
 20
0.0
 30
0.0
  3
L_0_02_2
  1

  0
POINT
  5
3E
330
2E
100
AcDbEntity
  8
0
 62
     0
100
AcDbPoint
 10
0.0
 20
0.0
 30
0.0
  0
ENDBLK
  5
3F
330
2E
100
AcDbEntity
  8
0
100
AcDbBlockEnd
  0
ENDSEC
  0
SECTION
  2
ENTITIES
  0
INSERT
  5
C6
330
22
100
AcDbEntity
  8
granice
  6
Continuous
100
AcDbBlockReference
  2
L_0_02_1
 10
7567158.85
 20
5717190.15
 30
0.0
 41
0.25
 42
0.25
 43
0.25
 50
130.33
  0
INSERT
  5
C7
330
22
100
AcDbEntity
  8
granice
  6
Continuous
100
AcDbBlockReference
  2
pikieta
 10
7567156.064999999
 20
5717193.43
 30
0.0
 41
0.25
 42
0.25
 43
0.25
 50
130.33
  0
INSERT
  5
C8
330
22
100
AcDbEntity
  8
granice
  6
Continuous
100
AcDbBlockReference
  2
L_0_02_2
 10
7567153.28
 20
5717196.71
 30
0.0
 41
0.25
 42
0.25
 43
0.25
 50
310.33
  0
INSERT
  5
C9
330
22
100
AcDbEntity
  8
granice
  6
Continuous
100
AcDbBlockReference
  2
L_0_02_1
 10
7567153.28
 20
5717196.71
 30
0.0
 41
0.25
 42
0.25
 43
0.25
 50
140.78
  0
INSERT
  5
CA
330
22
100
AcDbEntity
  8
granice
  6
Continuous
100
AcDbBlockReference
  2
pikieta
 10
7567148.545
 20
5717200.575
 30
0.0
 41
0.25
 42
0.25
 43
0.25
 50
140.78
  0
INSERT
  5
CB
330
22
100
AcDbEntity
  8
granice
  6
Continuous
100
AcDbBlockReference
  2
L_0_02_2
 10
7567143.81
 20
5717204.44
 30
0.0
 41
0.25
 42
0.25
 43
0.25
 50
320.78
  0
INSERT
  5
CC
330
22
100
AcDbEntity
  8
granice
  6
Continuous
100
AcDbBlockReference
  2
L_0_02_1
 10
7567143.81
 20
5717204.44
 30
0.0
 41
0.25
 42
0.25
 43
0.25
 50
209.26
  0
INSERT
  5
CD
330
22
100
AcDbEntity
  8
granice
  6
Continuous
100
AcDbBlockReference
  2
pikieta
 10
7567136.68
 20
5717200.445
 30
0.0
 41
0.25
 42
0.25
 43
0.25
 50
209.26
  0
INSERT
  5
CE
330
22
100
AcDbEntity
  8
granice
  6
Continuous
100
AcDbBlockReference
  2
L_0_02_2
 10
7567129.55
 20
5717196.45
 30
0.0
 41
0.25
 42
0.25
 43
0.25
 50
29.26
  0
INSERT
  5
CF
330
22
100
AcDbEntity
  8
granice
  6
Continuous
100
AcDbBlockReference
  2
L_0_02_1
 10
7567129.55
 20
5717196.45
 30
0.0
 41
0.25
 42
0.25
 43
0.25
 50
225.94
  0
INSERT
  5
D0
330
22
100
AcDbEntity
  8
granice
  6
Continuous
100
AcDbBlockReference
  2
pikieta
 10
7567120.84
 20
5717187.45
 30
0.0
 41
0.25
 42
0.25
 43
0.25
 50
225.94
  0
INSERT
  5
DA
330
22
100
AcDbEntity
  8
granice
  6
Continuous
100
AcDbBlockReference
  2
L_0_02_2
 10
7567070.43
 20
5717100.71
 30
0.0
 41
0.25
 42
0.25
 43
0.25
 50
137.28
  0
INSERT
  5
DB
330
22
100
AcDbEntity
  8
granice
  6
Continuous
100
AcDbBlockReference
  2
L_0_02_1
 10
7567070.43
 20
5717100.71
 30
0.0
 41
0.25
 42
0.25
 43
0.25
 50
317.54
  0
INSERT
  5
DC
330
22
100
AcDbEntity
  8
granice
  6
Continuous
100
AcDbBlockReference
  2
pikieta
 10
7567071.605
 20
5717099.635
 30
0.0
 41
0.25
 42
0.25
 43
0.25
 50
317.54
  0
INSERT
  5
DD
330
22
100
AcDbEntity
  8
granice
  6
Continuous
100
AcDbBlockReference
  2
L_0_02_2
 10
7567072.78
 20
5717098.56
 30
0.0
 41
0.25
 42
0.25
 43
0.25
 50
137.54
  0
INSERT
  5
DE
330
22
100
AcDbEntity
  8
granice
  6
Continuous
100
AcDbBlockReference
  2
L_0_02_1
 10
7567072.78
 20
5717098.56
 30
0.0
 41
0.25
 42
0.25
 43
0.25
 50
46.78
  0
INSERT
  5
E0
330
22
100
AcDbEntity
  8
granice
  6
Continuous
100
AcDbBlockReference
  2
L_0_02_2
 10
7567158.85
 20
5717190.15
 30
0.0
 41
0.25
 42
0.25
 43
0.25
 50
226.78
  0
MLINE
  5
E1
330
22
100
AcDbEntity
  8
granice
  6
L_0_02_M
370
    18
100
AcDbMline
  2
L_0_02_M
340
8
 40
1.0
 70
     1
 71
     3
 72
     9
 73
     1
 10
7567158.85
 20
5717190.15
 30
0.0
210
0.0
220
0.0
230
1.0
 11
7567158.85
 21
5717190.15
 31
0.0
 12
-0.6472435621882746
 22
0.7622832617904141
 32
0.0
 13
-0.999682814972837
 23
0.02518470662891608
 33
0.0
 74
     3
 41
0.0
 41
0.125
 41
8.480724838011538
 75
     0
 11
7567153.28
 21
5717196.71
 31
0.0
 12
-0.7746857346884609
 22
0.6323464339032834
 32
0.0
 13
-0.7002202323987544
 23
-0.7139269053197493
 33
0.0
 74
     3
 41
0.0
 41
0.125
 41
12.09931184237425
 75
     0
 11
7567143.81
 21
5717204.44
 31
0.0
 12
-0.8723912374804177
 22
-0.4888082740373625
 32
0.0
 13
-0.08681815566677825
 23
-0.9962241754979744
 33
0.0
 74
     3
 41
0.0
 41
0.125
 41
16.22087715594355
 75
     0
 11
7567129.55
 21
5717196.45
 31
0.0
 12
-0.6954347274535561
 22
-0.7185892706209843
 32
0.0
 13
0.6101480224682965
 23
-0.792287441954009
 33
0.0
 74
     3
 41
0.0
 41
0.125
 41
24.92407982336685
 75
     0
 11
7567112.13
 21
5717178.45
 31
0.0
 12
-0.6890599045020156
 22
-0.7247043866347666
 32
0.0
 13
0.7216538677652785
 23
-0.6922540683444294
 33
0.0
 74
     3
 41
0.0
 41
0.125
 41
49.8126030666262
 75
     0
 11
7567077.72
 21
5717142.26
 31
0.0
 12
-0.6533630960790546
 22
-0.7570446913373027
 32
0.0
 13
0.7410895007019501
 23
-0.6714062495608261
 33
0.0
 74
     3
 41
0.0
 41
0.125
 41
35.36828105405046
 75
     0
 11
7567054.53
 21
5717115.39
 31
0.0
 12
0.7347325760559963
 22
-0.6783568689724603
 32
0.0
 13
0.9983971196798097
 23
0.05659674385562945
 33
0.0
 74
     3
 41
0.0
 41
0.125
 41
21.51552679519333
 75
     0
 11
7567070.43
 21
5717100.71
 31
0.0
 12
0.737805412052985
 22
-0.6750134620474801
 32
0.0
 13
0.676686909731171
 23
0.7362708918587494
 33
0.0
 74
     3
 41
0.0
 41
0.125
 41
3.06012166239034
 75
     0
 11
7567072.78
 21
5717098.56
 31
0.0
 12
0.6848060906267436
 22
0.7287253379981489
 32
0.0
 13
-0.03772894674444972
 23
0.9992880098237718
 33
0.0
 74
     3
 41
0.0
 41
0.125
 41
125.5602139276307
 75
     0
  0
INSERT
  5
12B
330
22
100
AcDbEntity
  8
osnowa
  6
Continuous
100
AcDbBlockReference
 66
     1
  2
pikieta
 10
7567145.66
 20
5717208.8
 30
142.599
 41
0.25
 42
0.25
 43
0.25
  0
ATTRIB
  5
12C
330
12B
100
AcDbEntity
  8
osnowa
100
AcDbText
 10
7567145.66
 20
5717208.8
 30
142.599
 40
0.2
  1
PS1
 41
0.62
100
AcDbAttribute
  2
Nr
 70
     0
280
     0
  0
SEQEND
  5
12D
330
12B
100
AcDbEntity
  8
osnowa
  0
INSERT
  5
131
330
22
100
AcDbEntity
  8
osnowa
  6
Continuous
100
AcDbBlockReference
 66
     1
  2
pikieta
 10
7567071.65
 20
5717088.48
 30
138.869
 41
0.25
 42
0.25
 43
0.25
  0
ATTRIB
  5
132
330
131
100
AcDbEntity
  8
osnowa
100
AcDbText
 10
7567071.65
 20
5717088.48
 30
138.869
 40
0.2
  1
PS3
 41
0.62
100
AcDbAttribute
  2
Nr
 70
     0
280
     0
  0
SEQEND
  5
133
330
131
100
AcDbEntity
  8
osnowa
  0
INSERT
  5
137
330
22
100
AcDbEntity
  8
osnowa
  6
Continuous
100
AcDbBlockReference
 66
     1
  2
pikieta
 10
7567072.8
 20
5717099.931
 30
139.635
 41
0.25
 42
0.25
 43
0.25
  0
ATTRIB
  5
138
330
137
100
AcDbEntity
  8
osnowa
100
AcDbText
 10
7567072.8
 20
5717099.931
 30
139.635
 40
0.2
  1
S100
 41
0.62
100
AcDbAttribute
  2
Nr
 70
     0
280
     0
  0
SEQEND
  5
139
330
137
100
AcDbEntity
  8
osnowa
  0
INSERT
  5
140
330
22
100
AcDbEntity
  8
osnowa
  6
Continuous
100
AcDbBlockReference
 66
     1
  2
pikieta
 10
7567155.761792887
 20
5717188.328405054
 30
141.884
 41
0.25
 42
0.25
 43
0.25
  0
ATTRIB
  5
141
330
140
100
AcDbEntity
  8
osnowa
100
AcDbText
 10
7567155.761792887
 20
5717188.328405054
 30
141.884
 40
0.2
  1
S102
 41
0.62
100
AcDbAttribute
  2
Nr
 70
     0
280
     0
  0
SEQEND
  5
142
330
140
100
AcDbEntity
  8
osnowa
  0
INSERT
  5
143
330
22
100
AcDbEntity
  8
osnowa
  6
Continuous
100
AcDbBlockReference
 66
     1
  2
pikieta
 10
7567072.735637401
 20
5717098.518829758
 30
139.679
 41
0.25
 42
0.25
 43
0.25
  0
ATTRIB
  5
144
330
143
100
AcDbEntity
  8
osnowa
100
AcDbText
 10
7567072.735637401
 20
5717098.518829758
 30
139.679
 40
0.2
  1
S105
 41
0.62
100
AcDbAttribute
  2
Nr
 70
     0
280
     0
  0
SEQEND
  5
145
330
143
100
AcDbEntity
  8
osnowa
  0
TEXT
  5
152
330
22
100
AcDbEntity
  8
budynki
370
    15
100
AcDbText
 39
0.15
 10
7567107.280049133
 20
5717149.087561424
 30
0.0
 40
0.38
  1
-9.000-
 50
-43.0
 41
0.66
100
AcDbText
  0
TEXT
  5
153
330
22
100
AcDbEntity
  8
budynki
370
    15
100
AcDbText
 39
0.15
 10
7567100.161385556
 20
5717147.368617793
 30
0.0
 40
0.38
  1
-10.000-
 50
-312.9999999999999
 41
0.66
100
AcDbText
  0
TEXT
  5
154
330
22
100
AcDbEntity
  8
budynki
370
    15
100
AcDbText
 39
0.15
 10
7567099.020049133
 20
5717140.737561424
 30
0.0
 40
0.38
  1
-9.000-
 50
-43.0
 41
0.66
100
AcDbText
  0
TEXT
  5
155
330
22
100
AcDbEntity
  8
budynki
370
    15
100
AcDbText
 39
0.15
 10
7567107.78850123
 20
5717140.481484724
 30
0.0
 40
0.38
  1
-10.000-
 50
-312.9999999999999
 41
0.66
100
AcDbText
  0
TEXT
  5
156
330
22
100
AcDbEntity
  8
budynki
370
     5
100
AcDbText
 39
0.05
 10
7567105.161227499
 20
5717144.960712755
 30
0.0
 40
0.17
  1
-13.453-
 50
-355.2
 41
0.66
100
AcDbText
  0
TEXT
  5
157
330
22
100
AcDbEntity
  8
budynki
370
     5
100
AcDbText
 39
0.05
 10
7567104.102670154
 20
5717143.010076761
 30
0.0
 40
0.17
  1
-13.454-
 50
-271.2
 41
0.66
100
AcDbText
  0
TEXT
  5
158
330
22
100
AcDbEntity
  8
granice
370
    25
100
AcDbText
 39
0.25
 10
7567103.6625
 20
5717153.6775
 30
0.0
 40
0.63
  1
12-688
 41
0.66
100
AcDbText
  0
TEXT
  5
159
330
22
100
AcDbEntity
  8
rzutowanie_budynku_na_granice
370
    18
100
AcDbText
 39
0.18
 10
7567106.916324492
 20
5717134.885501469
 30
0.0
 40
0.45
  1
50.07
 50
316.8000000000001
 41
0.66
100
AcDbText
  0
TEXT
  5
15A
330
22
100
AcDbEntity
  8
rzutowanie_budynku_na_granice
370
    18
100
AcDbText
 39
0.18
 10
7567105.290356391
 20
5717136.969020256
 30
0.0
 40
0.45
  1
4.32
 50
316.8000000000001
 41
0.66
100
AcDbText
  0
TEXT
  5
15B
330
22
100
AcDbEntity
  8
rzutowanie_budynku_na_granice
370
    18
100
AcDbText
 39
0.18
 10
7567113.766665415
 20
5717142.175181093
 30
0.0
 40
0.45
  1
60.08
 50
316.8000000000001
 41
0.66
100
AcDbText
  0
TEXT
  5
15C
330
22
100
AcDbEntity
  8
rzutowanie_budynku_na_granice
370
    18
100
AcDbText
 39
0.18
 10
7567112.140526853
 20
5717144.258860067
 30
0.0
 40
0.45
  1
4.32
 50
316.8000000000001
 41
0.66
100
AcDbText
  0
TEXT
  5
15D
330
22
100
AcDbEntity
  8
rzutowanie_budynku_na_granice
370
    18
100
AcDbText
 39
0.18
 10
7567086.490142259
 20
5717152.792883317
 30
0.0
 40
0.45
  1
14.92
 50
316.4
 41
0.66
100
AcDbText
  0
TEXT
  5
15E
330
22
100
AcDbEntity
  8
rzutowanie_budynku_na_granice
370
    18
100
AcDbText
 39
0.18
 10
7567092.396249048
 20
5717149.138586239
 30
0.0
 40
0.45
  1
12.92
 50
316.4
 41
0.66
100
AcDbText
  0
TEXT
  5
15F
330
22
100
AcDbEntity
  8
rzutowanie_budynku_na_granice
370
    18
100
AcDbText
 39
0.18
 10
7567093.520142259
 20
5717160.032883317
 30
0.0
 40
0.45
  1
24.92
 50
316.4
 41
0.66
100
AcDbText
  0
TEXT
  5
160
330
22
100
AcDbEntity
  8
rzutowanie_budynku_na_granice
370
    18
100
AcDbText
 39
0.18
 10
7567099.267635674
 20
5717156.408251511
 30
0.0
 40
0.45
  1
12.86
 50
316.4
 41
0.66
100
AcDbText
  0
TEXT
  5
161
330
22
100
AcDbEntity
  8
wymiary_scian
370
     5
100
AcDbText
 39
0.05
 10
7567107.44365179
 20
5717144.578468896
 30
0.0
 40
0.13
  1
-2.821-
 50
-43.2
 41
0.66
100
AcDbText
  0
TEXT
  5
162
330
22
100
AcDbEntity
  8
wymiary_scian
370
     5
100
AcDbText
 39
0.05
 10
7567106.078531105
 20
5717144.901651789
 30
0.0
 40
0.13
  1
-0.911-
 50
-313.1999999999999
 41
0.66
100
AcDbText
  0
TEXT
  5
163
330
22
100
AcDbEntity
  8
wymiary_scian
370
     5
100
AcDbText
 39
0.05
 10
7567105.719651789
 20
5717144.948468896
 30
0.0
 40
0.13
  1
-0.200-
 50
-43.2
 41
0.66
100
AcDbText
  0
TEXT
  5
164
330
22
100
AcDbEntity
  8
wymiary_scian
370
     5
100
AcDbText
 39
0.05
 10
7567105.932531104
 20
5717145.03865179
 30
0.0
 40
0.13
  1
-0.911-
 50
-313.1999999999999
 41
0.66
100
AcDbText
  0
TEXT
  5
165
330
22
100
AcDbEntity
  8
wymiary_scian
370
     5
100
AcDbText
 39
0.05
 10
7567105.810151789
 20
5717146.111968895
 30
0.0
 40
0.13
  1
-1.260-
 50
-43.2
 41
0.66
100
AcDbText
  0
TEXT
  5
166
330
22
100
AcDbEntity
  8
wymiary_scian
370
     5
100
AcDbText
 39
0.05
 10
7567104.640531104
 20
5717145.503651789
 30
0.0
 40
0.13
  1
-2.000-
 50
-313.1999999999999
 41
0.66
100
AcDbText
  0
TEXT
  5
167
330
22
100
AcDbEntity
  8
wymiary_scian
370
     5
100
AcDbText
 39
0.05
 10
7567106.372151789
 20
5717145.844968895
 30
0.0
 40
0.13
  1
-2.446-
 50
-43.2
 41
0.66
100
AcDbText
  0
TEXT
  5
168
330
22
100
AcDbEntity
  8
wymiary_scian
370
     5
100
AcDbText
 39
0.05
 10
7567107.393531105
 20
5717144.86315179
 30
0.0
 40
0.13
  1
-0.454-
 50
-313.1999999999999
 41
0.66
100
AcDbText
  0
TEXT
  5
169
330
22
100
AcDbEntity
  8
wymiary_scian
370
     5
100
AcDbText
 39
0.05
 10
7567107.866358846
 20
5717145.065220195
 30
0.0
 40
0.13
  1
-0.800-
 50
-43.1
 41
0.66
100
AcDbText
  0
TEXT
  5
16A
330
22
100
AcDbEntity
  8
wymiary_scian
370
     5
100
AcDbText
 39
0.05
 10
7567107.977031104
 20
5717144.31565179
 30
0.0
 40
0.13
  1
-0.456-
 50
-313.1999999999999
 41
0.66
100
AcDbText
  0
TEXT
  5
16B
330
22
100
AcDbEntity
  8
wymiary_scian
370
     5
100
AcDbText
 39
0.05
 10
7567108.224151789
 20
5717144.105968895
 30
0.0
 40
0.13
  1
-1.035-
 50
-43.2
 41
0.66
100
AcDbText
  0
TEXT
  5
16C
330
22
100
AcDbEntity
  8
wymiary_scian
370
     5
100
AcDbText
 39
0.05
 10
7567105.542151789
 20
5717143.619968895
 30
0.0
 40
0.13
  1
-4.281-
 50
-43.2
 41
0.66
100
AcDbText
  0
TEXT
  5
16D
330
22
100
AcDbEntity
  8
wymiary_scian
370
     5
100
AcDbText
 39
0.05
 10
7567105.058651789
 20
5717143.813468896
 30
0.0
 40
0.13
  1
-5.251-
 50
-43.2
 41
0.66
100
AcDbText
  0
TEXT
  5
16E
330
22
100
AcDbEntity
  8
wymiary_scian
370
     5
100
AcDbText
 39
0.05
 10
7567102.881031104
 20
5717145.04715179
 30
0.0
 40
0.13
  1
-0.695-
 50
-313.1999999999999
 41
0.66
100
AcDbText
  0
TEXT
  5
16F
330
22
100
AcDbEntity
  8
wymiary_scian
370
     5
100
AcDbText
 39
0.05
 10
7567101.520651789
 20
5717146.181968896
 30
0.0
 40
0.13
  1
-3.150-
 50
-43.2
 41
0.66
100
AcDbText
  0
TEXT
  5
170
330
22
100
AcDbEntity
  8
wymiary_scian
370
     5
100
AcDbText
 39
0.05
 10
7567101.41015179
 20
5717146.545968896
 30
0.0
 40
0.13
  1
-2.490-
 50
-43.2
 41
0.66
100
AcDbText
  0
TEXT
  5
171
330
22
100
AcDbEntity
  8
wymiary_scian
370
     5
100
AcDbText
 39
0.05
 10
7567102.530031105
 20
5717145.63715179
 30
0.0
 40
0.13
  1
-0.695-
 50
-313.1999999999999
 41
0.66
100
AcDbText
  0
TEXT
  5
172
330
22
100
AcDbEntity
  8
wymiary_scian
370
     5
100
AcDbText
 39
0.05
 10
7567103.318651789
 20
5717145.707968895
 30
0.0
 40
0.13
  1
-1.440-
 50
-43.2
 41
0.66
100
AcDbText
  0
TEXT
  5
173
330
22
100
AcDbEntity
  8
wymiary_scian
370
     5
100
AcDbText
 39
0.05
 10
7567105.366531104
 20
5717146.554151789
 30
0.0
 40
0.13
  1
-4.525-
 50
-313.1999999999999
 41
0.66
100
AcDbText
  0
TEXT
  5
174
330
22
100
AcDbEntity
  8
wymiary_scian
370
     5
100
AcDbText
 39
0.05
 10
7567106.254531104
 20
5717147.22265179
 30
0.0
 40
0.13
  1
-2.335-
 50
-313.1999999999999
 41
0.66
100
AcDbText
  0
TEXT
  5
175
330
22
100
AcDbEntity
  8
wymiary_scian
370
     5
100
AcDbText
 39
0.05
 10
7567103.912945167
 20
5717145.150217084
 30
0.0
 40
0.13
  1
-0.190-
 50
-43.3
 41
0.66
100
AcDbText
  0
TEXT
  5
176
330
22
100
AcDbEntity
  8
wymiary_scian
370
     5
100
AcDbText
 39
0.05
 10
7567100.411782917
 20
5717147.018945168
 30
0.0
 40
0.13
  1
-0.190-
 50
-313.3
 41
0.66
100
AcDbText
  0
TEXT
  5
177
330
22
100
AcDbEntity
  8
wymiary_scian
370
     5
100
AcDbText
 39
0.05
 10
7567105.343531105
 20
5717139.998151789
 30
0.0
 40
0.13
  1
-4.685-
 50
-313.1999999999999
 41
0.66
100
AcDbText
  0
TEXT
  5
178
330
22
100
AcDbEntity
  8
wymiary_scian
370
     5
100
AcDbText
 39
0.05
 10
7567107.012279805
 20
5717141.774858847
 30
0.0
 40
0.13
  1
-0.190-
 50
-313.1
 41
0.66
100
AcDbText
  0
TEXT
  5
179
330
22
100
AcDbEntity
  8
wymiary_scian
370
     5
100
AcDbText
 39
0.05
 10
7567107.761531105
 20
5717142.57365179
 30
0.0
 40
0.13
  1
-2.000-
 50
-313.1999999999999
 41
0.66
100
AcDbText
  0
TEXT
  5
17A
330
22
100
AcDbEntity
  8
wymiary_scian
370
     5
100
AcDbText
 39
0.05
 10
7567108.511279805
 20
5717143.371858846
 30
0.0
 40
0.13
  1
-0.190-
 50
-313.1
 41
0.66
100
AcDbText
  0
TEXT
  5
17B
330
22
100
AcDbEntity
  8
wymiary_scian
370
     5
100
AcDbText
 39
0.05
 10
7567109.375031104
 20
5717144.29265179
 30
0.0
 40
0.13
  1
-2.335-
 50
-313.1999999999999
 41
0.66
100
AcDbText
  0
TEXT
  5
17C
330
22
100
AcDbEntity
  8
wymiary_scian
370
     5
100
AcDbText
 39
0.05
 10
7567108.639651789
 20
5717146.918968895
 30
0.0
 40
0.13
  1
-4.280-
 50
-43.2
 41
0.66
100
AcDbText
  0
TEXT
  5
17D
330
22
100
AcDbEntity
  8
wymiary_scian
370
     5
100
AcDbText
 39
0.05
 10
7567107.009858847
 20
5717148.448720194
 30
0.0
 40
0.13
  1
-0.190-
 50
-43.1
 41
0.66
100
AcDbText
  0
TEXT
  5
17E
330
22
100
AcDbEntity
  8
wymiary_scian
370
     5
100
AcDbText
 39
0.05
 10
7567106.16415179
 20
5717149.242968895
 30
0.0
 40
0.13
  1
-2.130-
 50
-43.2
 41
0.66
100
AcDbText
  0
TEXT
  5
17F
330
22
100
AcDbEntity
  8
wymiary_scian
370
     5
100
AcDbText
 39
0.05
 10
7567104.455031104
 20
5717148.695651789
 30
0.0
 40
0.13
  1
-2.650-
 50
-313.1999999999999
 41
0.66
100
AcDbText
  0
TEXT
  5
180
330
22
100
AcDbEntity
  8
wymiary_scian
370
     5
100
AcDbText
 39
0.05
 10
7567102.91765179
 20
5717148.655968895
 30
0.0
 40
0.13
  1
-1.800-
 50
-43.2
 41
0.66
100
AcDbText
  0
TEXT
  5
181
330
22
100
AcDbEntity
  8
wymiary_scian
370
     5
100
AcDbText
 39
0.05
 10
7567101.356531104
 20
5717148.02465179
 30
0.0
 40
0.13
  1
-2.570-
 50
-313.1999999999999
 41
0.66
100
AcDbText
  0
TEXT
  5
182
330
22
100
AcDbEntity
  8
wymiary_scian
370
     5
100
AcDbText
 39
0.05
 10
7567098.981531104
 20
5717145.49515179
 30
0.0
 40
0.13
  1
-3.990-
 50
-313.1999999999999
 41
0.66
100
AcDbText
  0
TEXT
  5
183
330
22
100
AcDbEntity
  8
wymiary_scian
370
     5
100
AcDbText
 39
0.05
 10
7567100.70365179
 20
5717141.475968895
 30
0.0
 40
0.13
  1
-8.400-
 50
-43.2
 41
0.66
100
AcDbText
  0
LINE
  5
1000043
330
22
100
AcDbEntity
  8
budynki
  6
Continuous
370
    18
100
AcDbLine
 10
7567110.765874729
 20
5717145.299009344
 30
0.0
 11
7567104.205174763
 21
5717151.459666629
 31
0.0
  0
LINE
  5
1000044
330
22
100
AcDbEntity
  8
budynki
  6
Continuous
370
    18
100
AcDbLine
 10
7567104.205174763
 20
5717151.459666629
 30
0.0
 11
7567097.36
 21
5717144.17
 31
0.0
  0
LINE
  5
1000045
330
22
100
AcDbEntity
  8
budynki
  6
Continuous
370
    18
100
AcDbLine
 10
7567097.36
 20
5717144.17
 30
0.0
 11
7567103.920699967
 21
5717138.009342714
 31
0.0
  0
LINE
  5
1000046
330
22
100
AcDbEntity
  8
budynki
  6
Continuous
370
    18
100
AcDbLine
 10
7567103.920699967
 20
5717138.009342714
 30
0.0
 11
7567110.765874729
 21
5717145.299009344
 31
0.0
  0
LINE
  5
1000047
330
22
100
AcDbEntity
  8
fundament=sciana
  6
Continuous
370
    18
100
AcDbLine
 10
7567103.918776365
 20
5717138.079677138
 30
0.0
 11
7567110.695325766
 21
5717145.296776501
 31
0.0
  0
LINE
  5
1000048
330
22
100
AcDbEntity
  8
fundament=sciana
  6
Continuous
370
    18
100
AcDbLine
 10
7567110.695325766
 20
5717145.296776501
 30
0.0
 11
7567105.519224253
 21
5717150.157322196
 31
0.0
  0
LINE
  5
1000049
330
22
100
AcDbEntity
  8
fundament=sciana
  6
Continuous
370
    18
100
AcDbLine
 10
7567105.519224253
 20
5717150.157322196
 30
0.0
 11
7567103.705224464
 21
5717148.225322422
 31
0.0
  0
LINE
  5
100004A
330
22
100
AcDbEntity
  8
fundament=sciana
  6
Continuous
370
    18
100
AcDbLine
 10
7567103.705224464
 20
5717148.225322422
 30
0.0
 11
7567102.393223566
 21
5717149.457323264
 31
0.0
  0
LINE
  5
100004B
330
22
100
AcDbEntity
  8
fundament=sciana
  6
Continuous
370
    18
100
AcDbLine
 10
7567102.393223566
 20
5717149.457323264
 30
0.0
 11
7567097.430674515
 21
5717144.172223321
 31
0.0
  0
LINE
  5
100004C
330
22
100
AcDbEntity
  8
fundament=sciana
  6
Continuous
370
    18
100
AcDbLine
 10
7567097.430674515
 20
5717144.172223321
 30
0.0
 11
7567103.918776365
 21
5717138.079677138
 31
0.0
  0
LINE
  5
100004D
330
22
100
AcDbEntity
  8
fundament=sciana
  6
Continuous
370
    18
100
AcDbLine
 10
7567103.908
 20
5717138.433
 30
0.0
 11
7567107.115
 21
5717141.848
 31
0.0
  0
LINE
  5
100004E
330
22
100
AcDbEntity
  8
fundament=sciana
  6
Continuous
370
    18
100
AcDbLine
 10
7567107.115
 20
5717141.848
 30
0.0
 11
7567107.245
 21
5717141.987
 31
0.0
  0
LINE
  5
100004F
330
22
100
AcDbEntity
  8
fundament=sciana
  6
Continuous
370
    18
100
AcDbLine
 10
7567107.245
 20
5717141.987
 30
0.0
 11
7567108.614
 21
5717143.445
 31
0.0
  0
LINE
  5
1000050
330
22
100
AcDbEntity
  8
fundament=sciana
  6
Continuous
370
    18
100
AcDbLine
 10
7567108.614
 20
5717143.445
 30
0.0
 11
7567108.744
 21
5717143.584
 31
0.0
  0
LINE
  5
1000051
330
22
100
AcDbEntity
  8
fundament=sciana
  6
Continuous
370
    18
100
AcDbLine
 10
7567108.744
 20
5717143.584
 30
0.0
 11
7567110.342
 21
5717145.286
 31
0.0
  0
LINE
  5
1000052
330
22
100
AcDbEntity
  8
fundament=sciana
  6
Continuous
370
    18
100
AcDbLine
 10
7567110.342
 20
5717145.286
 30
0.0
 11
7567107.222
 21
5717148.216
 31
0.0
  0
LINE
  5
1000053
330
22
100
AcDbEntity
  8
fundament=sciana
  6
Continuous
370
    18
100
AcDbLine
 10
7567107.222
 20
5717148.216
 30
0.0
 11
7567107.083
 21
5717148.346
 31
0.0
  0
LINE
  5
1000054
330
22
100
AcDbEntity
  8
fundament=sciana
  6
Continuous
370
    18
100
AcDbLine
 10
7567107.083
 20
5717148.346
 30
0.0
 11
7567105.53
 21
5717149.804
 31
0.0
  0
LINE
  5
1000055
330
22
100
AcDbEntity
  8
fundament=sciana
  6
Continuous
370
    18
100
AcDbLine
 10
7567105.53
 20
5717149.804
 30
0.0
 11
7567103.716
 21
5717147.872
 31
0.0
  0
LINE
  5
1000056
330
22
100
AcDbEntity
  8
fundament=sciana
  6
Continuous
370
    18
100
AcDbLine
 10
7567103.716
 20
5717147.872
 30
0.0
 11
7567102.404
 21
5717149.104
 31
0.0
  0
LINE
  5
1000057
330
22
100
AcDbEntity
  8
fundament=sciana
  6
Continuous
370
    18
100
AcDbLine
 10
7567102.404
 20
5717149.104
 30
0.0
 11
7567100.645
 21
5717147.23
 31
0.0
  0
LINE
  5
1000058
330
22
100
AcDbEntity
  8
fundament=sciana
  6
Continuous
370
    18
100
AcDbLine
 10
7567100.645
 20
5717147.23
 30
0.0
 11
7567100.515
 21
5717147.092
 31
0.0
  0
LINE
  5
1000059
330
22
100
AcDbEntity
  8
fundament=sciana
  6
Continuous
370
    18
100
AcDbLine
 10
7567100.515
 20
5717147.092
 30
0.0
 11
7567097.784
 21
5717144.183
 31
0.0
  0
LINE
  5
100005A
330
22
100
AcDbEntity
  8
fundament=sciana
  6
Continuous
370
    18
100
AcDbLine
 10
7567097.784
 20
5717144.183
 30
0.0
 11
7567103.908
 21
5717138.433
 31
0.0
  0
LINE
  5
100005B
330
22
100
AcDbEntity
  8
fundament=sciana
  6
Continuous
370
    18
100
AcDbLine
 10
7567107.083
 20
5717148.346
 30
0.0
 11
7567103.985541089
 21
5717145.047198536
 31
0.0
  0
LINE
  5
100005C
330
22
100
AcDbEntity
  8
fundament=sciana
  6
Continuous
370
    18
100
AcDbLine
 10
7567107.222
 20
5717148.216
 30
0.0
 11
7567104.124
 21
5717144.917
 31
0.0
  0
LINE
  5
100005D
330
22
100
AcDbEntity
  8
fundament=sciana
  6
Continuous
370
    18
100
AcDbLine
 10
7567102.935601203
 20
5717146.032952487
 30
0.0
 11
7567102.459855225
 21
5717145.526326597
 31
0.0
  0
LINE
  5
100005E
330
22
100
AcDbEntity
  8
fundament=sciana
  6
Continuous
370
    18
100
AcDbLine
 10
7567103.286682107
 20
5717145.442693348
 30
0.0
 11
7567102.810936128
 21
5717144.936067458
 31
0.0
  0
LINE
  5
100005F
330
22
100
AcDbEntity
  8
fundament=sciana
  6
Continuous
370
    18
100
AcDbLine
 10
7567100.515
 20
5717147.092
 30
0.0
 11
7567102.811
 21
5717144.936
 31
0.0
  0
LINE
  5
1000060
330
22
100
AcDbEntity
  8
fundament=sciana
  6
Continuous
370
    18
100
AcDbLine
 10
7567100.645
 20
5717147.23
 30
0.0
 11
7567102.46
 21
5717145.526
 31
0.0
  0
LINE
  5
1000061
330
22
100
AcDbEntity
  8
fundament=sciana
  6
Continuous
370
    18
100
AcDbLine
 10
7567094.577209112
 20
5717140.767628279
 30
0.0
 11
7567100.701209079
 21
5717135.017628244
 31
0.0
  0
LINE
  5
1000062
330
22
100
AcDbEntity
  8
fundament=sciana
  6
Continuous
370
    18
100
AcDbLine
 10
7567103.287
 20
5717145.443
 30
0.0
 11
7567107.115
 21
5717141.848
 31
0.0
  0
LINE
  5
1000063
330
22
100
AcDbEntity
  8
fundament=sciana
  6
Continuous
370
    18
100
AcDbLine
 10
7567102.936
 20
5717146.033
 30
0.0
 11
7567107.245
 21
5717141.987
 31
0.0
  0
LINE
  5
1000064
330
22
100
AcDbEntity
  8
fundament=sciana
  6
Continuous
370
    18
100
AcDbLine
 10
7567108.744
 20
5717143.584
 30
0.0
 11
7567107.989
 21
5717144.292
 31
0.0
  0
LINE
  5
1000065
330
22
100
AcDbEntity
  8
fundament=sciana
  6
Continuous
370
    18
100
AcDbLine
 10
7567108.30070135
 20
5717144.623856287
 30
0.0
 11
7567107.717492608
 21
5717145.171432577
 31
0.0
  0
LINE
  5
1000066
330
22
100
AcDbEntity
  8
fundament=sciana
  6
Continuous
370
    18
100
AcDbLine
 10
7567108.614
 20
5717143.445
 30
0.0
 11
7567105.493
 21
5717146.375
 31
0.0
  0
LINE
  5
1000067
330
22
100
AcDbEntity
  8
fundament=sciana
  6
Continuous
370
    18
100
AcDbLine
 10
7567107.989275066
 20
5717144.292149056
 30
0.0
 11
7567108.30070135
 21
5717144.623856287
 31
0.0
  0
LINE
  5
1000068
330
22
100
AcDbEntity
  8
fundament=sciana
  6
Continuous
370
    18
100
AcDbLine
 10
7567107.406066325
 20
5717144.839725345
 30
0.0
 11
7567107.717492608
 21
5717145.171432577
 31
0.0
  0
LINE
  5
1000069
330
22
100
AcDbEntity
  8
fundament=sciana
  6
Continuous
370
    18
100
AcDbLine
 10
7567107.406066325
 20
5717144.839725345
 30
0.0
 11
7567105.623198166
 21
5717146.513665159
 31
0.0
  0
LINE
  5
100006A
330
22
100
AcDbEntity
  8
fundament=sciana
  6
Continuous
370
    18
100
AcDbLine
 10
7567106.411792301
 20
5717145.512642853
 30
0.0
 11
7567105.788761333
 21
5717144.849189283
 31
0.0
  0
LINE
  5
100006B
330
22
100
AcDbEntity
  8
fundament=sciana
  6
Continuous
370
    18
100
AcDbLine
 10
7567106.557595015
 20
5717145.375749344
 30
0.0
 11
7567105.934570873
 21
5717144.712303044
 31
0.0
  0
LINE
  5
100006C
330
22
100
AcDbEntity
  8
fundament=sciana
  6
Continuous
370
    18
100
AcDbLine
 10
7567105.934570873
 20
5717144.712303044
 30
0.0
 11
7567105.788761333
 21
5717144.849189283
 31
0.0
  0
POINT
  5
100006D
330
22
100
AcDbEntity
  8
0
 62
     0
100
AcDbPoint
 10
7567112.13
 20
5717178.45
 30
0.0
 50
45.93999999999999
  0
POINT
  5
100006E
330
22
100
AcDbEntity
  8
0
 62
     0
100
AcDbPoint
 10
7567112.13
 20
5717178.45
 30
0.0
 50
226.44
  0
POINT
  5
100006F
330
22
100
AcDbEntity
  8
0
 62
     0
100
AcDbPoint
 10
7567094.925
 20
5717160.355
 30
0.0
 50
226.44
  0
POINT
  5
1000070
330
22
100
AcDbEntity
  8
0
 62
     0
100
AcDbPoint
 10
7567077.72
 20
5717142.26
 30
0.0
 50
46.44
  0
POINT
  5
1000071
330
22
100
AcDbEntity
  8
0
 62
     0
100
AcDbPoint
 10
7567077.72
 20
5717142.26
 30
0.0
 50
229.2
  0
POINT
  5
1000072
330
22
100
AcDbEntity
  8
0
 62
     0
100
AcDbPoint
 10
7567066.125
 20
5717128.824999999
 30
0.0
 50
229.2
  0
POINT
  5
1000073
330
22
100
AcDbEntity
  8
0
 62
     0
100
AcDbPoint
 10
7567054.53
 20
5717115.39
 30
0.0
 50
49.20000000000001
  0
POINT
  5
1000074
330
22
100
AcDbEntity
  8
0
 62
     0
100
AcDbPoint
 10
7567054.53
 20
5717115.39
 30
0.0
 50
317.28
  0
POINT
  5
1000075
330
22
100
AcDbEntity
  8
0
 62
     0
100
AcDbPoint
 10
7567062.48
 20
5717108.05
 30
0.0
 50
317.28
  0
POINT
  5
1000076
330
22
100
AcDbEntity
  8
0
 62
     0
100
AcDbPoint
 10
7567115.814999999
 20
5717144.355
 30
0.0
 50
46.78
  0
LINE
  5
1000077
330
22
100
AcDbEntity
  8
rzutowanie_budynku_na_granice
  6
L_0_03
370
    13
100
AcDbLine
 10
7567103.920699967
 20
5717138.009342714
 30
0.0
 11
7567107.07034759
 21
5717135.049519411
 31
0.0
  0
LINE
  5
1000078
330
22
100
AcDbEntity
  8
rzutowanie_budynku_na_granice
  6
L_0_03
370
    13
100
AcDbLine
 10
7567110.765874729
 20
5717145.299009344
 30
0.0
 11
7567113.920688514
 21
5717142.339199034
 31
0.0
  0
LINE
  5
1000079
330
22
100
AcDbEntity
  8
rzutowanie_budynku_na_granice
  6
L_0_03
370
    13
100
AcDbLine
 10
7567097.36
 20
5717144.17
 30
0.0
 11
7567087.998928406
 21
5717153.07064862
 31
0.0
  0
LINE
  5
100007A
330
22
100
AcDbEntity
  8
rzutowanie_budynku_na_granice
  6
L_0_03
370
    13
100
AcDbLine
 10
7567104.205174763
 20
5717151.459666629
 30
0.0
 11
7567094.891701658
 21
5717160.319979164
 31
0.0
  0
LINE
  5
100007B
330
22
100
AcDbEntity
  8
styrodur=sciana_drew
  6
Continuous
370
    18
100
AcDbLine
 10
7567103.920699967
 20
5717138.009342714
 30
0.0
 11
7567110.765874729
 21
5717145.299009344
 31
0.0
  0
LINE
  5
100007C
330
22
100
AcDbEntity
  8
styrodur=sciana_drew
  6
Continuous
370
    18
100
AcDbLine
 10
7567110.765874729
 20
5717145.299009344
 30
0.0
 11
7567105.517464251
 21
5717150.227551859
 31
0.0
  0
LINE
  5
100007D
330
22
100
AcDbEntity
  8
styrodur=sciana_drew
  6
Continuous
370
    18
100
AcDbLine
 10
7567105.517464251
 20
5717150.227551859
 30
0.0
 11
7567103.703483359
 21
5717148.295799118
 31
0.0
  0
LINE
  5
100007E
330
22
100
AcDbEntity
  8
styrodur=sciana_drew
  6
Continuous
370
    18
100
AcDbLine
 10
7567103.703483359
 20
5717148.295799118
 30
0.0
 11
7567102.391349422
 21
5717149.527937083
 31
0.0
  0
LINE
  5
100007F
330
22
100
AcDbEntity
  8
styrodur=sciana_drew
  6
Continuous
370
    18
100
AcDbLine
 10
7567102.391349422
 20
5717149.527937083
 30
0.0
 11
7567097.36
 21
5717144.17
 31
0.0
  0
LINE
  5
1000080
330
22
100
AcDbEntity
  8
styrodur=sciana_drew
  6
Continuous
370
    18
100
AcDbLine
 10
7567097.36
 20
5717144.17
 30
0.0
 11
7567103.920699967
 21
5717138.009342714
 31
0.0
  0
LINE
  5
1000081
330
22
100
AcDbEntity
  8
lawa_fundamentowa
  6
Continuous
370
    18
100
AcDbLine
 10
7567103.900987287
 20
5717138.645094249
 30
0.0
 11
7567110.129931891
 21
5717145.278988502
 31
0.0
  0
LINE
  5
1000082
330
22
100
AcDbEntity
  8
lawa_fundamentowa
  6
Continuous
370
    18
100
AcDbLine
 10
7567110.129931891
 20
5717145.278988502
 30
0.0
 11
7567105.537018274
 21
5717149.591899767
 31
0.0
  0
LINE
  5
1000083
330
22
100
AcDbEntity
  8
lawa_fundamentowa
  6
Continuous
370
    18
100
AcDbLine
 10
7567105.537018274
 20
5717149.591899767
 30
0.0
 11
7567103.723020175
 21
5717147.659901791
 31
0.0
  0
LINE
  5
1000084
330
22
100
AcDbEntity
  8
lawa_fundamentowa
  6
Continuous
370
    18
100
AcDbLine
 10
7567103.723020175
 20
5717147.659901791
 30
0.0
 11
7567102.411012092
 21
5717148.891909382
 31
0.0
  0
LINE
  5
1000085
330
22
100
AcDbEntity
  8
lawa_fundamentowa
  6
Continuous
370
    18
100
AcDbLine
 10
7567102.411012092
 20
5717148.891909382
 30
0.0
 11
7567097.996070631
 21
5717144.19000989
 31
0.0
  0
LINE
  5
1000086
330
22
100
AcDbEntity
  8
lawa_fundamentowa
  6
Continuous
370
    18
100
AcDbLine
 10
7567097.996070631
 20
5717144.19000989
 30
0.0
 11
7567103.900987287
 21
5717138.645094249
 31
0.0
  0
LINE
  5
1000087
330
22
100
AcDbEntity
  8
lawa_fundamentowa
  6
Continuous
370
    18
100
AcDbLine
 10
7567103.927670904
 20
5717137.796968583
 30
0.0
 11
7567110.978022703
 21
5717145.305670499
 31
0.0
  0
LINE
  5
1000088
330
22
100
AcDbEntity
  8
lawa_fundamentowa
  6
Continuous
370
    18
100
AcDbLine
 10
7567110.978022703
 20
5717145.305670499
 30
0.0
 11
7567105.510327242
 21
5717150.440033411
 31
0.0
  0
LINE
  5
1000089
330
22
100
AcDbEntity
  8
lawa_fundamentowa
  6
Continuous
370
    18
100
AcDbLine
 10
7567105.510327242
 20
5717150.440033411
 30
0.0
 11
7567103.696326608
 21
5717148.508032736
 31
0.0
  0
LINE
  5
100008A
330
22
100
AcDbEntity
  8
lawa_fundamentowa
  6
Continuous
370
    18
100
AcDbLine
 10
7567103.696326608
 20
5717148.508032736
 30
0.0
 11
7567102.384329302
 21
5717149.740030206
 31
0.0
  0
LINE
  5
100008B
330
22
100
AcDbEntity
  8
lawa_fundamentowa
  6
Continuous
370
    18
100
AcDbLine
 10
7567102.384329302
 20
5717149.740030206
 30
0.0
 11
7567097.147976457
 21
5717144.163330037
 31
0.0
  0
LINE
  5
100008C
330
22
100
AcDbEntity
  8
lawa_fundamentowa
  6
Continuous
370
    18
100
AcDbLine
 10
7567097.147976457
 20
5717144.163330037
 30
0.0
 11
7567103.927670904
 21
5717137.796968583
 31
0.0
  0
POINT
  5
100008D
330
22
100
AcDbEntity
  8
0
 62
     0
100
AcDbPoint
 10
7567068.61
 20
5717144.07
 30
140.787
  0
POINT
  5
100008E
330
22
100
AcDbEntity
  8
0
 62
     0
100
AcDbPoint
 10
7567090.54212111
 20
5717150.471195092
 30
141.353
  0
POINT
  5
100008F
330
22
100
AcDbEntity
  8
0
 62
     0
100
AcDbPoint
 10
7567117.765316482
 20
5717146.379345394
 30
141.492
  0
POINT
  5
1000090
330
22
100
AcDbEntity
  8
0
 62
     0
100
AcDbPoint
 10
7567128.489666603
 20
5717114.241130266
 30
0.0
  0
POINT
  5
1000091
330
22
100
AcDbEntity
  8
0
 62
     0
100
AcDbPoint
 10
7567103.920699967
 20
5717138.009342714
 30
0.0
  0
POINT
  5
1000092
330
22
100
AcDbEntity
  8
0
 62
     0
100
AcDbPoint
 10
7567110.765874729
 20
5717145.299009344
 30
0.0
  0
POINT
  5
1000093
330
22
100
AcDbEntity
  8
0
 62
     0
100
AcDbPoint
 10
7567104.205174763
 20
5717151.459666629
 30
0.0
  0
POINT
  5
1000094
330
22
100
AcDbEntity
  8
0
 62
     0
100
AcDbPoint
 10
7567097.36
 20
5717144.17
 30
0.0
  0
ENDSEC
  0
SECTION
  2
OBJECTS
  0
DICTIONARY
  5
184
330
0
100
AcDbDictionary
281
     1
  3
ACAD_DETAILVIEWSTYLE
350
100009E
  3
ACAD_GROUP
350
185
  3
ACAD_LAYOUT
350
186
  3
ACAD_MATERIAL
350
100003A
  3
ACAD_MLEADERSTYLE
350
1000040
  3
ACAD_MLINESTYLE
350
187
  3
ACAD_PLOTSETTINGS
350
188
  3
ACAD_PLOTSTYLENAME
350
189
  3
ACAD_SCALELIST
350
FFFFFF
  3
ACAD_SECTIONVIEWSTYLE
350
100009F
  3
ACAD_TABLESTYLE
350
100003E
  3
ACAD_VISUALSTYLE
350
1000021
  3
ACDB_RECOMPOSE_DATA
350
100009A
  3
AcDbVariableDictionary
350
1000095
  3
APPDATA
350
1000042
  0
DICTIONARY
  5
100009E
102
{ACAD_REACTORS
330
184
102
}
330
184
100
AcDbDictionary
281
     1
  0
DICTIONARY
  5
185
102
{ACAD_REACTORS
330
184
102
}
330
184
100
AcDbDictionary
281
     1
  0
DICTIONARY
  5
186
102
{ACAD_REACTORS
330
184
102
}
330
184
100
AcDbDictionary
281
     1
  3
Layout
350
25
  3
Model
350
23
  0
DICTIONARY
  5
100003A
102
{ACAD_REACTORS
330
184
102
}
330
184
100
AcDbDictionary
281
     1
  3
ByBlock
350
100003C
  3
ByLayer
350
100003B
  3
Global
350
100003D
  0
DICTIONARY
  5
1000040
102
{ACAD_REACTORS
330
184
102
}
330
184
100
AcDbDictionary
281
     1
  3
Standard
350
1000041
  0
DICTIONARY
  5
187
102
{ACAD_REACTORS
330
184
102
}
330
184
100
AcDbDictionary
281
     1
  3
L_0_02_M
350
8
  3
Standard
350
18A
  0
DICTIONARY
  5
188
102
{ACAD_REACTORS
330
184
102
}
330
184
100
AcDbDictionary
281
     1
  0
ACDBDICTIONARYWDFLT
  5
189
102
{ACAD_REACTORS
330
184
102
}
330
184
100
AcDbDictionary
281
     1
  3
Normal
350
E
100
AcDbDictionaryWithDefault
340
E
  0
DICTIONARY
  5
FFFFFF
102
{ACAD_REACTORS
330
184
102
}
330
184
100
AcDbDictionary
281
     1
  3
A0
350
1000000
  3
A1
350
1000001
  3
A2
350
1000002
  3
A3
350
1000003
  3
A4
350
1000004
  3
A5
350
1000005
  3
A6
350
1000006
  3
A7
350
1000007
  3
A8
350
1000008
  3
A9
350
1000009
  3
B0
350
100000A
  3
B1
350
100000B
  3
B2
350
100000C
  3
B3
350
100000D
  3
B4
350
100000E
  3
B5
350
100000F
  3
B6
350
1000010
  3
B7
350
1000011
  3
B8
350
1000012
  3
B9
350
1000013
  3
C0
350
1000014
  3
C1
350
1000015
  3
C2
350
1000016
  3
C3
350
1000017
  3
C4
350
1000018
  3
C5
350
1000019
  3
C6
350
100001A
  3
C7
350
100001B
  3
C8
350
100001C
  3
C9
350
100001D
  3
D0
350
100001E
  3
D1
350
100001F
  3
D2
350
1000020
  0
DICTIONARY
  5
100009F
102
{ACAD_REACTORS
330
184
102
}
330
184
100
AcDbDictionary
281
     1
  0
DICTIONARY
  5
100003E
102
{ACAD_REACTORS
330
184
102
}
330
184
100
AcDbDictionary
281
     1
  3
Standard
350
100003F
  0
DICTIONARY
  5
1000021
102
{ACAD_REACTORS
330
184
102
}
330
184
100
AcDbDictionary
281
     1
  3
2dWireframe
350
1000026
  3
Basic
350
1000029
  3
Brighten
350
100002D
  3
ColorChange
350
1000031
  3
Conceptual
350
100002B
  3
Dim
350
100002C
  3
EdgeColorOff
350
1000034
  3
Facepattern
350
1000030
  3
Flat
350
1000022
  3
FlatWithEdges
350
1000023
  3
Gouraud
350
1000024
  3
GouraudWithEdges
350
1000025
  3
Hidden
350
1000028
  3
JitterOff
350
1000032
  3
Linepattern
350
100002F
  3
OverhangOff
350
1000033
  3
Realistic
350
100002A
  3
Shaded
350
1000039
  3
Shaded with edges
350
1000038
  3
Shades of Gray
350
1000035
  3
Sketchy
350
1000036
  3
Thicken
350
100002E
  3
Wireframe
350
1000027
  3
X-Ray
350
1000037
  0
XRECORD
  5
100009A
102
{ACAD_REACTORS
330
184
102
}
330
184
100
AcDbXrecord
280
     1
 90
        1
330
100003F
  0
DICTIONARY
  5
1000095
102
{ACAD_REACTORS
330
184
102
}
330
184
100
AcDbDictionary
281
     1
  3
CANNOSCALE
350
1000096
  3
CMLEADERSTYLE
350
100009C
  3
CTABLESTYLE
350
100009B
  3
MSLTSCALE
350
100009D
  0
DICTIONARY
  5
1000042
102
{ACAD_REACTORS
330
184
102
}
330
184
100
AcDbDictionary
281
     1
  0
LAYOUT
  5
25
330
186
100
AcDbPlotSettings
  1

  2

  4

  6

 40
0.0
 41
0.0
 42
0.0
 43
0.0
 44
0.0
 45
0.0
 46
0.0
 47
0.0
 48
0.0
 49
0.0
140
0.0
141
0.0
142
1.0
143
1.0
 70
   688
 72
     1
 73
     0
 74
     5
  7

 75
     0
 76
     0
 77
     2
 78
   300
147
1.0
148
0.0
149
0.0
100
AcDbLayout
  1
Layout
 70
     1
 71
     1
 10
0.0
 20
0.0
 11
420.0
 21
297.0
 12
0.0
 22
0.0
 32
0.0
 14
1.000000000000000E+20
 24
1.000000000000000E+20
 34
1.000000000000000E+20
 15
-1.000000000000000E+20
 25
-1.000000000000000E+20
 35
-1.000000000000000E+20
146
0.0
 13
0.0
 23
0.0
 33
0.0
 16
1.0
 26
0.0
 36
0.0
 17
0.0
 27
1.0
 37
0.0
 76
     0
330
24
  0
LAYOUT
  5
23
330
186
100
AcDbPlotSettings
  1

  2

  4

  6

 40
0.0
 41
0.0
 42
0.0
 43
0.0
 44
0.0
 45
0.0
 46
0.0
 47
0.0
 48
0.0
 49
0.0
140
0.0
141
0.0
142
1.0
143
1.0
 70
  1712
 72
     1
 73
     0
 74
     0
  7

 75
     0
 76
     0
 77
     2
 78
   300
147
1.0
148
0.0
149
0.0
100
AcDbLayout
  1
Model
 70
     1
 71
     0
 10
0.0
 20
0.0
 11
12.0
 21
9.0
 12
0.0
 22
0.0
 32
0.0
 14
0.0
 24
0.0
 34
0.0
 15
7567158.85
 25
5717209.0
 35
142.599
146
0.0
 13
0.0
 23
0.0
 33
0.0
 16
1.0
 26
0.0
 36
0.0
 17
0.0
 27
1.0
 37
0.0
 76
     0
330
22
331
2
  0
MATERIAL
  5
100003C
102
{ACAD_REACTORS
330
100003A
102
}
330
100003A
100
AcDbMaterial
  1
ByBlock
 72
     1
 94
      127
  0
MATERIAL
  5
100003B
102
{ACAD_REACTORS
330
100003A
102
}
330
100003A
100
AcDbMaterial
  1
ByLayer
 72
     1
 94
      127
  0
MATERIAL
  5
100003D
102
{ACAD_REACTORS
330
100003A
102
}
330
100003A
100
AcDbMaterial
  1
Global
 72
     1
 94
      127
  0
MLEADERSTYLE
  5
1000041
102
{ACAD_REACTORS
330
1000040
102
}
330
1000040
100
AcDbMLeaderStyle
170
     2
171
     1
172
     0
 90
        2
 40
0.0
 41
0.0
173
     1
 91
-1056964608
340
4
 92
       -2
290
     1
 42
0.09
291
     1
 43
0.36
  3
Standard
341
0
 44
0.18
300

342
1A
174
     1
178
     1
175
     1
176
     0
 93
-1056964608
 45
0.18
292
     0
297
     0
 46
0.18
343
0
 94
-1056964608
 47
1.0
 49
1.0
140
1.0
293
     1
141
0.0
294
     1
177
     0
142
1.0
295
     0
296
     0
143
0.125
1001
ACAD_MLEADERVER
1070
     2
  0
MLINESTYLE
  5
8
330
187
100
AcDbMlineStyle
  2
L_0_02_M
 70
     0
  3

 62
   256
 51
90.0
 52
90.0
 71
     1
 49
0.0
 62
   256
  6
CONTINUOUS
  0
MLINESTYLE
  5
18A
102
{ACAD_REACTORS
330
187
102
}
330
187
100
AcDbMlineStyle
  2
Standard
 70
     0
  3

 62
   256
 51
90.0
 52
90.0
 71
     2
 49
0.5
 62
   256
  6
BYLAYER
 49
-0.5
 62
   256
  6
BYLAYER
  0
ACDBPLACEHOLDER
  5
E
330
189
  0
SCALE
  5
1000000
102
{ACAD_REACTORS
330
FFFFFF
102
}
330
FFFFFF
100
AcDbScale
 70
     0
300
1:1
140
1.0
141
1.0
290
     1
  0
SCALE
  5
1000001
102
{ACAD_REACTORS
330
FFFFFF
102
}
330
FFFFFF
100
AcDbScale
 70
     0
300
1:2
140
1.0
141
2.0
290
     0
  0
SCALE
  5
1000002
102
{ACAD_REACTORS
330
FFFFFF
102
}
330
FFFFFF
100
AcDbScale
 70
     0
300
1:4
140
1.0
141
4.0
290
     0
  0
SCALE
  5
1000003
102
{ACAD_REACTORS
330
FFFFFF
102
}
330
FFFFFF
100
AcDbScale
 70
     0
300
1:5
140
1.0
141
5.0
290
     0
  0
SCALE
  5
1000004
102
{ACAD_REACTORS
330
FFFFFF
102
}
330
FFFFFF
100
AcDbScale
 70
     0
300
1:8
140
1.0
141
8.0
290
     0
  0
SCALE
  5
1000005
102
{ACAD_REACTORS
330
FFFFFF
102
}
330
FFFFFF
100
AcDbScale
 70
     0
300
1:10
140
1.0
141
10.0
290
     0
  0
SCALE
  5
1000006
102
{ACAD_REACTORS
330
FFFFFF
102
}
330
FFFFFF
100
AcDbScale
 70
     0
300
1:16
140
1.0
141
16.0
290
     0
  0
SCALE
  5
1000007
102
{ACAD_REACTORS
330
FFFFFF
102
}
330
FFFFFF
100
AcDbScale
 70
     0
300
1:20
140
1.0
141
20.0
290
     0
  0
SCALE
  5
1000008
102
{ACAD_REACTORS
330
FFFFFF
102
}
330
FFFFFF
100
AcDbScale
 70
     0
300
1:30
140
1.0
141
30.0
290
     0
  0
SCALE
  5
1000009
102
{ACAD_REACTORS
330
FFFFFF
102
}
330
FFFFFF
100
AcDbScale
 70
     0
300
1:40
140
1.0
141
40.0
290
     0
  0
SCALE
  5
100000A
102
{ACAD_REACTORS
330
FFFFFF
102
}
330
FFFFFF
100
AcDbScale
 70
     0
300
1:50
140
1.0
141
50.0
290
     0
  0
SCALE
  5
100000B
102
{ACAD_REACTORS
330
FFFFFF
102
}
330
FFFFFF
100
AcDbScale
 70
     0
300
1:100
140
1.0
141
100.0
290
     0
  0
SCALE
  5
100000C
102
{ACAD_REACTORS
330
FFFFFF
102
}
330
FFFFFF
100
AcDbScale
 70
     0
300
2:1
140
2.0
141
1.0
290
     0
  0
SCALE
  5
100000D
102
{ACAD_REACTORS
330
FFFFFF
102
}
330
FFFFFF
100
AcDbScale
 70
     0
300
4:1
140
4.0
141
1.0
290
     0
  0
SCALE
  5
100000E
102
{ACAD_REACTORS
330
FFFFFF
102
}
330
FFFFFF
100
AcDbScale
 70
     0
300
8:1
140
8.0
141
1.0
290
     0
  0
SCALE
  5
100000F
102
{ACAD_REACTORS
330
FFFFFF
102
}
330
FFFFFF
100
AcDbScale
 70
     0
300
10:1
140
10.0
141
1.0
290
     0
  0
SCALE
  5
1000010
102
{ACAD_REACTORS
330
FFFFFF
102
}
330
FFFFFF
100
AcDbScale
 70
     0
300
100:1
140
100.0
141
1.0
290
     0
  0
SCALE
  5
1000011
102
{ACAD_REACTORS
330
FFFFFF
102
}
330
FFFFFF
100
AcDbScale
 70
     0
300
1/128" = 1'-0"
140
0.0078125
141
12.0
290
     0
  0
SCALE
  5
1000012
102
{ACAD_REACTORS
330
FFFFFF
102
}
330
FFFFFF
100
AcDbScale
 70
     0
300
1/64" = 1'-0"
140
0.015625
141
12.0
290
     0
  0
SCALE
  5
1000013
102
{ACAD_REACTORS
330
FFFFFF
102
}
330
FFFFFF
100
AcDbScale
 70
     0
300
1/32" = 1'-0"
140
0.03125
141
12.0
290
     0
  0
SCALE
  5
1000014
102
{ACAD_REACTORS
330
FFFFFF
102
}
330
FFFFFF
100
AcDbScale
 70
     0
300
1/16" = 1'-0"
140
0.0625
141
12.0
290
     0
  0
SCALE
  5
1000015
102
{ACAD_REACTORS
330
FFFFFF
102
}
330
FFFFFF
100
AcDbScale
 70
     0
300
3/32" = 1'-0"
140
0.09375
141
12.0
290
     0
  0
SCALE
  5
1000016
102
{ACAD_REACTORS
330
FFFFFF
102
}
330
FFFFFF
100
AcDbScale
 70
     0
300
1/8" = 1'-0"
140
0.125
141
12.0
290
     0
  0
SCALE
  5
1000017
102
{ACAD_REACTORS
330
FFFFFF
102
}
330
FFFFFF
100
AcDbScale
 70
     0
300
3/16" = 1'-0"
140
0.1875
141
12.0
290
     0
  0
SCALE
  5
1000018
102
{ACAD_REACTORS
330
FFFFFF
102
}
330
FFFFFF
100
AcDbScale
 70
     0
300
1/4" = 1'-0"
140
0.25
141
12.0
290
     0
  0
SCALE
  5
1000019
102
{ACAD_REACTORS
330
FFFFFF
102
}
330
FFFFFF
100
AcDbScale
 70
     0
300
3/8" = 1'-0"
140
0.375
141
12.0
290
     0
  0
SCALE
  5
100001A
102
{ACAD_REACTORS
330
FFFFFF
102
}
330
FFFFFF
100
AcDbScale
 70
     0
300
1/2" = 1'-0"
140
0.5
141
12.0
290
     0
  0
SCALE
  5
100001B
102
{ACAD_REACTORS
330
FFFFFF
102
}
330
FFFFFF
100
AcDbScale
 70
     0
300
3/4" = 1'-0"
140
0.75
141
12.0
290
     0
  0
SCALE
  5
100001C
102
{ACAD_REACTORS
330
FFFFFF
102
}
330
FFFFFF
100
AcDbScale
 70
     0
300
1" = 1'-0"
140
1.0
141
12.0
290
     0
  0
SCALE
  5
100001D
102
{ACAD_REACTORS
330
FFFFFF
102
}
330
FFFFFF
100
AcDbScale
 70
     0
300
1-1/2" = 1'-0"
140
1.5
141
12.0
290
     0
  0
SCALE
  5
100001E
102
{ACAD_REACTORS
330
FFFFFF
102
}
330
FFFFFF
100
AcDbScale
 70
     0
300
3" = 1'-0"
140
3.0
141
12.0
290
     0
  0
SCALE
  5
100001F
102
{ACAD_REACTORS
330
FFFFFF
102
}
330
FFFFFF
100
AcDbScale
 70
     0
300
6" = 1'-0"
140
6.0
141
12.0
290
     0
  0
SCALE
  5
1000020
102
{ACAD_REACTORS
330
FFFFFF
102
}
330
FFFFFF
100
AcDbScale
 70
     0
300
1'-0" = 1'-0"
140
12.0
141
12.0
290
     0
  0
TABLESTYLE
  5
100003F
102
{ACAD_REACTORS
330
100003E
102
}
102
{ACAD_XDICTIONARY
360
1000097
102
}
330
100003E
100
AcDbTableStyle
  3
Standard
 70
     0
 71
     0
 40
0.06
 41
0.06
280
     0
281
     0
  7
STANDARD
140
0.18
170
     2
 62
     0
 63
   257
283
     0
 90
        4
 91
        0
  1

274
    -2
284
     1
 64
     0
275
    -2
285
     1
 65
     0
276
    -2
286
     1
 66
     0
277
    -2
287
     1
 67
     0
278
    -2
288
     1
 68
     0
279
    -2
289
     1
 69
     0
  7
STANDARD
140
0.25
170
     5
 62
     0
 63
   257
283
     0
 90
        4
 91
        0
  1

274
    -2
284
     1
 64
     0
275
    -2
285
     1
 65
     0
276
    -2
286
     1
 66
     0
277
    -2
287
     1
 67
     0
278
    -2
288
     1
 68
     0
279
    -2
289
     1
 69
     0
  7
STANDARD
140
0.18
170
     5
 62
     0
 63
   257
283
     0
 90
        4
 91
        0
  1

274
    -2
284
     1
 64
     0
275
    -2
285
     1
 65
     0
276
    -2
286
     1
 66
     0
277
    -2
287
     1
 67
     0
278
    -2
288
     1
 68
     0
279
    -2
289
     1
 69
     0
  0
VISUALSTYLE
  5
1000026
102
{ACAD_REACTORS
330
1000021
102
}
330
1000021
100
AcDbVisualStyle
  2
2dWireframe
 70
     4
 71
     0
 72
     2
 73
     0
 90
        0
 40
0.6
 41
30.0
 62
     5
 63
     7
421
 16777215
 74
     1
 91
        4
 64
     7
 65
   257
 75
     1
175
     1
 42
1.0
 92
        0
 66
   257
 43
1.0
 76
     1
 77
     6
 78
     2
 67
     7
 79
     5
170
     0
171
     0
290
     0
174
     0
 93
        1
 44
0.0
173
     0
291
     0
 45
0.0
  0
VISUALSTYLE
  5
1000029
102
{ACAD_REACTORS
330
1000021
102
}
330
1000021
100
AcDbVisualStyle
  2
Basic
 70
     7
 71
     1
 72
     0
 73
     1
 90
        0
 40
0.6
 41
30.0
 62
     5
 63
     7
421
 16777215
 74
     0
 91
        4
 64
     7
 65
   257
 75
     1
175
     1
 42
1.0
 92
        8
 66
     7
 43
1.0
 76
     1
 77
     6
 78
     2
 67
     7
 79
     5
170
     0
171
     0
290
     0
174
     0
 93
        1
 44
0.0
173
     0
291
     1
 45
0.0
  0
VISUALSTYLE
  5
100002D
102
{ACAD_REACTORS
330
1000021
102
}
330
1000021
100
AcDbVisualStyle
  2
Brighten
 70
    12
 71
     2
 72
     2
 73
     0
 90
        0
 40
0.6
 41
30.0
 62
     5
 63
     7
421
 16777215
 74
     1
 91
        4
 64
     7
 65
   257
 75
     1
175
     1
 42
1.0
 92
        8
 66
     7
 43
1.0
 76
     1
 77
     6
 78
     2
 67
     7
 79
     5
170
     0
171
     0
290
     0
174
     0
 93
        1
 44
50.0
173
     0
291
     1
 45
0.0
  0
VISUALSTYLE
  5
1000031
102
{ACAD_REACTORS
330
1000021
102
}
330
1000021
100
AcDbVisualStyle
  2
ColorChange
 70
    16
 71
     2
 72
     2
 73
     3
 90
        0
 40
0.6
 41
30.0
 62
     5
 63
     8
421
  8421504
 74
     1
 91
        4
 64
     7
 65
   257
 75
     1
175
     1
 42
1.0
 92
        8
 66
     8
424
  8421504
 43
1.0
 76
     1
 77
     6
 78
     2
 67
     7
 79
     5
170
     0
171
     0
290
     0
174
     0
 93
        1
 44
0.0
173
     0
291
     1
 45
0.0
  0
VISUALSTYLE
  5
100002B
102
{ACAD_REACTORS
330
1000021
102
}
330
1000021
100
AcDbVisualStyle
  2
Conceptual
 70
     9
 71
     3
 72
     2
 73
     0
 90
        0
 40
0.6
 41
30.0
 62
     5
 63
     7
421
 16777215
 74
     2
 91
        2
 64
     7
 65
   257
 75
     1
175
     1
 42
179.0
 92
        8
 66
     7
 43
1.0
 76
     1
 77
     6
 78
     2
 67
     7
 79
     3
170
     0
171
     0
290
     0
174
     0
 93
        1
 44
0.0
173
     0
291
     0
 45
0.0
  0
VISUALSTYLE
  5
100002C
102
{ACAD_REACTORS
330
1000021
102
}
330
1000021
100
AcDbVisualStyle
  2
Dim
 70
    11
 71
     2
 72
     2
 73
     0
 90
        0
 40
0.6
 41
30.0
 62
     5
 63
     7
421
 16777215
 74
     1
 91
        4
 64
     7
 65
   257
 75
     1
175
     1
 42
1.0
 92
        8
 66
     7
 43
1.0
 76
     1
 77
     6
 78
     2
 67
     7
 79
     5
170
     0
171
     0
290
     0
174
     0
 93
        1
 44
-50.0
173
     0
291
     1
 45
0.0
  0
VISUALSTYLE
  5
1000034
102
{ACAD_REACTORS
330
1000021
102
}
330
1000021
100
AcDbVisualStyle
  2
EdgeColorOff
 70
    22
 71
     2
 72
     2
 73
     0
 90
        0
 40
0.6
 41
30.0
 62
     5
 63
     7
421
 16777215
 74
     1
 91
        4
 64
     7
 65
   257
 75
     1
175
     1
 42
1.0
 92
        8
 66
     7
 43
1.0
 76
     1
 77
     6
 78
     2
 67
     7
 79
     5
170
     0
171
     0
290
     0
174
     0
 93
        1
 44
0.0
173
     0
291
     1
 45
0.0
  0
VISUALSTYLE
  5
1000030
102
{ACAD_REACTORS
330
1000021
102
}
330
1000021
100
AcDbVisualStyle
  2
Facepattern
 70
    15
 71
     2
 72
     2
 73
     0
 90
        0
 40
0.6
 41
30.0
 62
     5
 63
     7
421
 16777215
 74
     1
 91
        4
 64
     7
 65
   257
 75
     1
175
     1
 42
1.0
 92
        8
 66
     7
 43
1.0
 76
     1
 77
     6
 78
     2
 67
     7
 79
     5
170
     0
171
     0
290
     0
174
     0
 93
        1
 44
0.0
173
     0
291
     1
 45
0.0
  0
VISUALSTYLE
  5
1000022
102
{ACAD_REACTORS
330
1000021
102
}
330
1000021
100
AcDbVisualStyle
  2
Flat
 70
     0
 71
     2
 72
     1
 73
     1
 90
        2
 40
0.6
 41
30.0
 62
     5
 63
     7
421
 16777215
 74
     0
 91
        0
 64
     7
 65
   257
 75
     1
175
     1
 42
1.0
 92
        8
 66
     7
 43
1.0
 76
     1
 77
     6
 78
     2
 67
     7
 79
     5
170
     0
171
     0
290
     0
174
     0
 93
       13
 44
0.0
173
     0
291
     1
 45
0.0
  0
VISUALSTYLE
  5
1000023
102
{ACAD_REACTORS
330
1000021
102
}
330
1000021
100
AcDbVisualStyle
  2
FlatWithEdges
 70
     1
 71
     2
 72
     1
 73
     1
 90
        2
 40
0.6
 41
30.0
 62
     5
 63
     7
421
 16777215
 74
     1
 91
        0
 64
     7
 65
   257
 75
     1
175
     1
 42
1.0
 92
        0
 66
   257
 43
1.0
 76
     1
 77
     6
 78
     2
 67
     7
 79
     5
170
     0
171
     0
290
     0
174
     0
 93
       13
 44
0.0
173
     0
291
     1
 45
0.0
  0
VISUALSTYLE
  5
1000024
102
{ACAD_REACTORS
330
1000021
102
}
330
1000021
100
AcDbVisualStyle
  2
Gouraud
 70
     2
 71
     2
 72
     2
 73
     1
 90
        2
 40
0.6
 41
30.0
 62
     5
 63
     7
421
 16777215
 74
     0
 91
        0
 64
     7
 65
   257
 75
     1
175
     1
 42
1.0
 92
        0
 66
     7
 43
1.0
 76
     1
 77
     6
 78
     2
 67
     7
 79
     5
170
     0
171
     0
290
     0
174
     0
 93
       13
 44
0.0
173
     0
291
     1
 45
0.0
  0
VISUALSTYLE
  5
1000025
102
{ACAD_REACTORS
330
1000021
102
}
330
1000021
100
AcDbVisualStyle
  2
GouraudWithEdges
 70
     3
 71
     2
 72
     2
 73
     1
 90
        2
 40
0.6
 41
30.0
 62
     5
 63
     7
421
 16777215
 74
     1
 91
        0
 64
     7
 65
   257
 75
     1
175
     1
 42
1.0
 92
        0
 66
   257
 43
1.0
 76
     1
 77
     6
 78
     2
 67
     7
 79
     5
170
     0
171
     0
290
     0
174
     0
 93
       13
 44
0.0
173
     0
291
     1
 45
0.0
  0
VISUALSTYLE
  5
1000028
102
{ACAD_REACTORS
330
1000021
102
}
330
1000021
100
AcDbVisualStyle
  2
Hidden
 70
     6
 71
     1
 72
     2
 73
     2
 90
        0
 40
0.6
 41
30.0
 62
     5
 63
     7
421
 16777215
 74
     2
 91
        2
 64
     7
 65
   257
 75
     2
175
     1
 42
40.0
 92
        0
 66
   257
 43
1.0
 76
     1
 77
     6
 78
     2
 67
     7
 79
     3
170
     0
171
     0
290
     0
174
     0
 93
        1
 44
0.0
173
     0
291
     0
 45
0.0
  0
VISUALSTYLE
  5
1000032
102
{ACAD_REACTORS
330
1000021
102
}
330
1000021
100
AcDbVisualStyle
  2
JitterOff
 70
    20
 71
     2
 72
     2
 73
     0
 90
        0
 40
0.6
 41
30.0
 62
     5
 63
     7
421
 16777215
 74
     1
 91
        4
 64
     7
 65
   257
 75
     1
175
     1
 42
1.0
 92
       10
 66
     7
 43
1.0
 76
     1
 77
     6
 78
     2
 67
     7
 79
     5
170
     0
171
     0
290
     0
174
     0
 93
        1
 44
0.0
173
     0
291
     1
 45
0.0
  0
VISUALSTYLE
  5
100002F
102
{ACAD_REACTORS
330
1000021
102
}
330
1000021
100
AcDbVisualStyle
  2
Linepattern
 70
    14
 71
     2
 72
     2
 73
     0
 90
        0
 40
0.6
 41
30.0
 62
     5
 63
     7
421
 16777215
 74
     1
 91
        4
 64
     7
 65
   257
 75
     7
175
     7
 42
1.0
 92
        8
 66
     7
 43
1.0
 76
     1
 77
     6
 78
     2
 67
     7
 79
     5
170
     0
171
     0
290
     0
174
     0
 93
        1
 44
0.0
173
     0
291
     1
 45
0.0
  0
VISUALSTYLE
  5
1000033
102
{ACAD_REACTORS
330
1000021
102
}
330
1000021
100
AcDbVisualStyle
  2
OverhangOff
 70
    21
 71
     2
 72
     2
 73
     0
 90
        0
 40
0.6
 41
30.0
 62
     5
 63
     7
421
 16777215
 74
     1
 91
        4
 64
     7
 65
   257
 75
     1
175
     1
 42
1.0
 92
        9
 66
     7
 43
1.0
 76
     1
 77
     6
 78
     2
 67
     7
 79
     5
170
     0
171
     0
290
     0
174
     0
 93
        1
 44
0.0
173
     0
291
     1
 45
0.0
  0
VISUALSTYLE
  5
100002A
102
{ACAD_REACTORS
330
1000021
102
}
330
1000021
100
AcDbVisualStyle
  2
Realistic
 70
     8
 71
     2
 72
     3
 73
     0
 90
        2
 40
0.6
 41
30.0
 62
     5
 63
     7
421
 16777215
 74
     0
 91
        0
 64
     7
 65
   257
 75
     1
175
     1
 42
1.0
 92
        8
 66
   257
 43
1.0
 76
     1
 77
     6
 78
     2
 67
     7
 79
     3
170
     0
171
     0
290
     0
174
     0
 93
       13
 44
0.0
173
     0
291
     0
 45
0.0
  0
VISUALSTYLE
  5
1000039
102
{ACAD_REACTORS
330
1000021
102
}
330
1000021
100
AcDbVisualStyle
  2
Shaded
 70
    27
 71
     2
 72
     2
 73
     1
 90
        2
 40
0.6
 41
30.0
 62
     5
 63
     7
421
 16777215
 74
     0
 91
        4
 64
     7
 65
   257
 75
     1
175
     1
 42
1.0
 92
        8
 66
   257
 43
1.0
 76
     1
 77
     6
 78
     2
 67
     8
425
  7895160
 79
     3
170
     0
171
     0
290
     0
174
     0
 93
        5
 44
0.0
173
     0
291
     0
 45
0.0
  0
VISUALSTYLE
  5
1000038
102
{ACAD_REACTORS
330
1000021
102
}
330
1000021
100
AcDbVisualStyle
  2
Shaded with edges
 70
    26
 71
     2
 72
     2
 73
     1
 90
        2
 40
0.6
 41
30.0
 62
     5
 63
     7
421
 16777215
 74
     1
 91
       10
 64
     7
 65
   257
 75
     2
175
     1
 42
1.0
 92
        8
 66
   257
 43
1.0
 76
     1
 77
     6
 78
     2
 67
     7
 79
     3
170
     0
171
     0
290
     0
174
     0
 93
        5
 44
0.0
173
     0
291
     0
 45
0.0
  0
VISUALSTYLE
  5
1000035
102
{ACAD_REACTORS
330
1000021
102
}
330
1000021
100
AcDbVisualStyle
  2
Shades of Gray
 70
    23
 71
     2
 72
     2
 73
     3
 90
        0
 40
0.6
 41
30.0
 62
     5
 63
     7
421
 16777215
 74
     2
 91
        2
 64
     7
 65
     7
 75
     1
175
     1
 42
40.0
 92
        8
 66
     7
 43
1.0
 76
     1
 77
     6
 78
     2
 67
     7
 79
     3
170
     0
171
     0
290
     0
174
     0
 93
        1
 44
0.0
173
     0
291
     0
 45
0.0
  0
VISUALSTYLE
  5
1000036
102
{ACAD_REACTORS
330
1000021
102
}
330
1000021
100
AcDbVisualStyle
  2
Sketchy
 70
    24
 71
     1
 72
     2
 73
     2
 90
        0
 40
0.6
 41
30.0
 62
     5
 63
     7
421
 16777215
 74
     2
 91
        2
 64
     7
 65
     7
 75
     1
175
     1
 42
40.0
 92
       11
 66
     7
 43
1.0
 76
     1
 77
     6
 78
     2
 67
     7
 79
     6
170
     0
171
     0
290
     0
174
     0
 93
        1
 44
0.0
173
     0
291
     0
 45
0.0
  0
VISUALSTYLE
  5
100002E
102
{ACAD_REACTORS
330
1000021
102
}
330
1000021
100
AcDbVisualStyle
  2
Thicken
 70
    13
 71
     2
 72
     2
 73
     0
 90
        0
 40
0.6
 41
30.0
 62
     5
 63
     7
421
 16777215
 74
     1
 91
        4
 64
     7
 65
   257
 75
     1
175
     1
 42
1.0
 92
       12
 66
     7
 43
1.0
 76
     1
 77
     6
 78
     2
 67
     7
 79
     5
170
     0
171
     0
290
     0
174
     0
 93
        1
 44
0.0
173
     0
291
     1
 45
0.0
  0
VISUALSTYLE
  5
1000027
102
{ACAD_REACTORS
330
1000021
102
}
330
1000021
100
AcDbVisualStyle
  2
Wireframe
 70
     5
 71
     0
 72
     2
 73
     0
 90
        0
 40
0.6
 41
30.0
 62
     5
 63
     7
421
 16777215
 74
     1
 91
        4
 64
     7
 65
   257
 75
     1
175
     1
 42
1.0
 92
        0
 66
   257
 43
1.0
 76
     1
 77
     6
 78
     2
 67
     7
 79
     3
170
     0
171
     0
290
     0
174
     0
 93
        1
 44
0.0
173
     0
291
     0
 45
0.0
  0
VISUALSTYLE
  5
1000037
102
{ACAD_REACTORS
330
1000021
102
}
330
1000021
100
AcDbVisualStyle
  2
X-Ray
 70
    25
 71
     2
 72
     2
 73
     1
 90
        1
 40
0.5
 41
30.0
 62
     5
 63
     7
421
 16777215
 74
     1
 91
        0
 64
     7
 65
   257
 75
     1
175
     1
 42
1.0
 92
        8
 66
     7
 43
1.0
 76
     1
 77
     6
 78
     2
 67
     7
 79
     3
170
     0
171
     0
290
     0
174
     0
 93
       13
 44
0.0
173
     0
291
     0
 45
0.0
  0
DICTIONARYVAR
  5
1000096
102
{ACAD_REACTORS
330
1000095
102
}
330
1000095
100
DictionaryVariables
280
     0
  1
1:1
  0
DICTIONARYVAR
  5
100009C
102
{ACAD_REACTORS
330
1000095
102
}
330
1000095
100
DictionaryVariables
280
     0
  1
Standard
  0
DICTIONARYVAR
  5
100009B
102
{ACAD_REACTORS
330
1000095
102
}
330
1000095
100
DictionaryVariables
280
     0
  1
Standard
  0
DICTIONARYVAR
  5
100009D
102
{ACAD_REACTORS
330
1000095
102
}
330
1000095
100
DictionaryVariables
280
     0
  1
0
  0
DICTIONARY
  5
1000097
330
100003F
100
AcDbDictionary
280
     1
281
     1
  3
ACAD_ROUNDTRIP_2008_TABLESTYLE_CELLSTYLEMAP
360
1000098
  0
CELLSTYLEMAP
  5
1000098
102
{ACAD_REACTORS
330
1000097
102
}
330
1000097
100
AcDbCellStyleMap
 90
        3
300
CELLSTYLE
  1
TABLEFORMAT_BEGIN
 90
        5
170
     1
 91
        0
 92
    32768
 62
   257
 93
        1
300
CONTENTFORMAT
  1
CONTENTFORMAT_BEGIN
 90
        0
 91
        0
 92
        4
 93
        0
300

 40
0.0
140
1.0
 94
        5
 62
     0
340
1A
144
0.25
309
CONTENTFORMAT_END
171
     1
301
MARGIN
  1
CELLMARGIN_BEGIN
 40
0.06
 40
0.06
 40
0.06
 40
0.06
 40
0.06
 40
0.06
309
CELLMARGIN_END
 94
        6
 95
        1
302
GRIDFORMAT
  1
GRIDFORMAT_BEGIN
 90
        0
 91
        1
 62
     0
 92
       -2
340
4
 93
        0
 40
0.045
309
GRIDFORMAT_END
 95
        2
302
GRIDFORMAT
  1
GRIDFORMAT_BEGIN
 90
        0
 91
        1
 62
     0
 92
       -2
340
4
 93
        0
 40
0.045
309
GRIDFORMAT_END
 95
        4
302
GRIDFORMAT
  1
GRIDFORMAT_BEGIN
 90
        0
 91
        1
 62
     0
 92
       -2
340
4
 93
        0
 40
0.045
309
GRIDFORMAT_END
 95
        8
302
GRIDFORMAT
  1
GRIDFORMAT_BEGIN
 90
        0
 91
        1
 62
     0
 92
       -2
340
4
 93
        0
 40
0.045
309
GRIDFORMAT_END
 95
       16
302
GRIDFORMAT
  1
GRIDFORMAT_BEGIN
 90
        0
 91
        1
 62
     0
 92
       -2
340
4
 93
        0
 40
0.045
309
GRIDFORMAT_END
 95
       32
302
GRIDFORMAT
  1
GRIDFORMAT_BEGIN
 90
        0
 91
        1
 62
     0
 92
       -2
340
4
 93
        0
 40
0.045
309
GRIDFORMAT_END
309
TABLEFORMAT_END
  1
CELLSTYLE_BEGIN
 90
        1
 91
        1
300
_TITLE
309
CELLSTYLE_END
300
CELLSTYLE
  1
TABLEFORMAT_BEGIN
 90
        5
170
     1
 91
        0
 92
        0
 62
   257
 93
        1
300
CONTENTFORMAT
  1
CONTENTFORMAT_BEGIN
 90
        0
 91
        0
 92
        4
 93
        0
300

 40
0.0
140
1.0
 94
        5
 62
     0
340
1A
144
0.18
309
CONTENTFORMAT_END
171
     1
301
MARGIN
  1
CELLMARGIN_BEGIN
 40
0.06
 40
0.06
 40
0.06
 40
0.06
 40
0.06
 40
0.06
309
CELLMARGIN_END
 94
        6
 95
        1
302
GRIDFORMAT
  1
GRIDFORMAT_BEGIN
 90
        0
 91
        1
 62
     0
 92
       -2
340
4
 93
        0
 40
0.045
309
GRIDFORMAT_END
 95
        2
302
GRIDFORMAT
  1
GRIDFORMAT_BEGIN
 90
        0
 91
        1
 62
     0
 92
       -2
340
4
 93
        0
 40
0.045
309
GRIDFORMAT_END
 95
        4
302
GRIDFORMAT
  1
GRIDFORMAT_BEGIN
 90
        0
 91
        1
 62
     0
 92
       -2
340
4
 93
        0
 40
0.045
309
GRIDFORMAT_END
 95
        8
302
GRIDFORMAT
  1
GRIDFORMAT_BEGIN
 90
        0
 91
        1
 62
     0
 92
       -2
340
4
 93
        0
 40
0.045
309
GRIDFORMAT_END
 95
       16
302
GRIDFORMAT
  1
GRIDFORMAT_BEGIN
 90
        0
 91
        1
 62
     0
 92
       -2
340
4
 93
        0
 40
0.045
309
GRIDFORMAT_END
 95
       32
302
GRIDFORMAT
  1
GRIDFORMAT_BEGIN
 90
        0
 91
        1
 62
     0
 92
       -2
340
4
 93
        0
 40
0.045
309
GRIDFORMAT_END
309
TABLEFORMAT_END
  1
CELLSTYLE_BEGIN
 90
        2
 91
        1
300
_HEADER
309
CELLSTYLE_END
300
CELLSTYLE
  1
TABLEFORMAT_BEGIN
 90
        5
170
     1
 91
        0
 92
        0
 62
   257
 93
        1
300
CONTENTFORMAT
  1
CONTENTFORMAT_BEGIN
 90
        0
 91
        0
 92
        4
 93
        0
300

 40
0.0
140
1.0
 94
        2
 62
     0
340
1A
144
0.18
309
CONTENTFORMAT_END
171
     1
301
MARGIN
  1
CELLMARGIN_BEGIN
 40
0.06
 40
0.06
 40
0.06
 40
0.06
 40
0.06
 40
0.06
309
CELLMARGIN_END
 94
        6
 95
        1
302
GRIDFORMAT
  1
GRIDFORMAT_BEGIN
 90
        0
 91
        1
 62
     0
 92
       -2
340
4
 93
        0
 40
0.045
309
GRIDFORMAT_END
 95
        2
302
GRIDFORMAT
  1
GRIDFORMAT_BEGIN
 90
        0
 91
        1
 62
     0
 92
       -2
340
4
 93
        0
 40
0.045
309
GRIDFORMAT_END
 95
        4
302
GRIDFORMAT
  1
GRIDFORMAT_BEGIN
 90
        0
 91
        1
 62
     0
 92
       -2
340
4
 93
        0
 40
0.045
309
GRIDFORMAT_END
 95
        8
302
GRIDFORMAT
  1
GRIDFORMAT_BEGIN
 90
        0
 91
        1
 62
     0
 92
       -2
340
4
 93
        0
 40
0.045
309
GRIDFORMAT_END
 95
       16
302
GRIDFORMAT
  1
GRIDFORMAT_BEGIN
 90
        0
 91
        1
 62
     0
 92
       -2
340
4
 93
        0
 40
0.045
309
GRIDFORMAT_END
 95
       32
302
GRIDFORMAT
  1
GRIDFORMAT_BEGIN
 90
        0
 91
        1
 62
     0
 92
       -2
340
4
 93
        0
 40
0.045
309
GRIDFORMAT_END
309
TABLEFORMAT_END
  1
CELLSTYLE_BEGIN
 90
        3
 91
        2
300
_DATA
309
CELLSTYLE_END
  0
ENDSEC
  0
EOF
