  0
SECTION
  2
HEADER
  9
$ACADVER
  1
AC1018
  9
$HANDSEED
  5
FFFFFF
  9
$EXTMAX
 10
7567158.84999999963
 20
5717208.79999999981
 30
1000000.00
  9
$EXTMIN
 10
7567054.53000000026
 20
5717088.48000000045
 30
0.00
  9
$LIMMIN
 10
7567054.53000000026
 20
5717088.48000000045
  9
$LIMMAX
 10
7567158.84999999963
 20
5717208.79999999981
  9
$DIMASZ
 40
2.5
  9
$DIMGAP
 40
0.625
  9
$INSUNITS
 70
6
  9
$DIMEXO
 40
0.625
  9
$DIMTXT
 40
2.5
  9
$DIMSTYLE
  2
Standard
  9
$PLIMMIN
 10
0.0
 20
0.0
  9
$PLIMMAX
 10
210.0
 20
297.0
  9
$DIMEXE
 40
1.25
  9
$TEXTSIZE
 40
2.5
  9
$TEXTSTYLE
  7
Standard
  9
$LWDISPLAY
290
1
  9
$TDCREATE
 40
43566.419192731
  9
$TDUCREATE
 40
43566.335859398
  9
$TDUPDATE
 40
43566.419192731
  9
$TDUUPDATE
 40
43566.335859398
  9
$TDINDWG
 40
0.0
  9
$TDUSRTIMER
 40
0.0
  9
$USRTIMER
 70
1
  0
ENDSEC
  0
SECTION
  2
TABLES
  0
TABLE
  2
VPORT
  5
1
100
AcDbSymbolTable
 70
1
  0
VPORT
  5
2
100
AcDbSymbolTableRecord
100
AcDbViewportTableRecord
  2
*ACTIVE
 70
0
 10
0.0
 20
0.0
 11
1.0
 21
1.0
 12
7567106.690
 22
5717148.640
 13
0.0
 23
0.0
 14
1.0
 24
1.0
 15
0.0
 25
0.0
 16
0.0
 26
0.0
 36
1.0
 17
0.0
 27
0.0
 37
0.0
 40
120.320
 41
0.867
 42
50.0
 43
0.0
 44
0.0
 50
0.0
 51
0.0
 71
0
 72
100
 73
1
 74
1
 75
0
 76
0
 77
0
 78
0
  0
ENDTAB
  0
TABLE
  2
LTYPE
  5
3
100
AcDbSymbolTable
 70
385
  0
LTYPE
  5
4
100
AcDbSymbolTableRecord
100
AcDbLinetypeTableRecord
  2
ByBlock
 70
0
  3

 72
65
 73
0
 40
0.0
  0
LTYPE
  5
5
100
AcDbSymbolTableRecord
100
AcDbLinetypeTableRecord
  2
ByLayer
 70
0
  3

 72
65
 73
0
 40
0.0
  0
LTYPE
  5
6
100
AcDbSymbolTableRecord
100
AcDbLinetypeTableRecord
  2
CONTINUOUS
 70
0
  3
Solid line
 72
65
 73
0
 40
0.0
  0
LTYPE
  5
7
100
AcDbSymbolTableRecord
100
AcDbLinetypeTableRecord
  2
L_0_02
 70
0
  3
Dzialka_ewidencyjna
 72
65
 73
0
 40
0.0
  0
LTYPE
  5
9
100
AcDbSymbolTableRecord
100
AcDbLinetypeTableRecord
  2
L_0_02_M
 70
0
  3
Dzialka_ewidencyjna (MLineStyle)
 72
65
 73
0
 40
0.0
  0
LTYPE
  5
A
100
AcDbSymbolTableRecord
100
AcDbLinetypeTableRecord
  2
L_0_03
 70
0
  3
Uzytek_gruntowy
 72
65
 73
2
 40
0.5
 49
0.25
 74
0
 49
-0.25
 74
0
  0
LTYPE
  5
B
100
AcDbSymbolTableRecord
100
AcDbLinetypeTableRecord
  2
L_0_04
 70
0
  3
Budynek_projektowany
 72
65
 73
2
 40
0.75
 49
0.5
 74
0
 49
-0.25
 74
0
  0
ENDTAB
  0
TABLE
  2
LAYER
  5
C
100
AcDbSymbolTable
 70
11
  0
LAYER
  5
D
100
AcDbSymbolTableRecord
100
AcDbLayerTableRecord
  2
0
 70
0
420
0
  6
CONTINUOUS
370
18
390
E
  0
LAYER
  5
F
100
AcDbSymbolTableRecord
100
AcDbLayerTableRecord
  2
budynki
 70
0
420
0
  6
CONTINUOUS
370
25
390
E
  0
LAYER
  5
10
100
AcDbSymbolTableRecord
100
AcDbLayerTableRecord
  2
fundament=sciana
 70
0
420
13762770
  6
CONTINUOUS
370
18
390
E
  0
LAYER
  5
11
100
AcDbSymbolTableRecord
100
AcDbLayerTableRecord
  2
granice
 70
0
420
32768
  6
L_0_02
370
18
390
E
  0
LAYER
  5
12
100
AcDbSymbolTableRecord
100
AcDbLayerTableRecord
  2
osnowa
 70
0
420
0
  6
CONTINUOUS
370
18
390
E
  0
LAYER
  5
13
100
AcDbSymbolTableRecord
100
AcDbLayerTableRecord
  2
pkt_bud
 70
0
420
0
  6
CONTINUOUS
370
18
390
E
  0
LAYER
  5
14
100
AcDbSymbolTableRecord
100
AcDbLayerTableRecord
  2
Projekt_bud
 70
0
420
0
  6
CONTINUOUS
370
18
390
E
  0
LAYER
  5
15
100
AcDbSymbolTableRecord
100
AcDbLayerTableRecord
  2
rzutowanie_budynku_na_granice
 70
0
420
16711680
  6
CONTINUOUS
370
18
390
E
  0
LAYER
  5
16
100
AcDbSymbolTableRecord
100
AcDbLayerTableRecord
  2
styrodur=sciana_drew
 70
0
420
12566272
  6
CONTINUOUS
370
18
390
E
  0
LAYER
  5
17
100
AcDbSymbolTableRecord
100
AcDbLayerTableRecord
  2
wymiary_scian
 70
0
420
0
  6
CONTINUOUS
370
18
390
E
  0
LAYER
  5
18
100
AcDbSymbolTableRecord
100
AcDbLayerTableRecord
  2
lawa_fundamentowa
 70
0
420
255
  6
CONTINUOUS
370
18
390
E
  0
ENDTAB
  0
TABLE
  2
STYLE
  5
19
100
AcDbSymbolTable
 70
1
  0
STYLE
  5
1A
100
AcDbSymbolTableRecord
100
AcDbTextStyleTableRecord
  2
STANDARD
 70
0
 40
0.0
 41
1.0
 50
0.0
 71
0
  3
simplex.shx
  4

  0
ENDTAB
  0
TABLE
  2
VIEW
  5
1B
100
AcDbSymbolTable
 70
0
  0
ENDTAB
  0
TABLE
  2
UCS
  5
1C
100
AcDbSymbolTable
 70
0
  0
ENDTAB
  0
TABLE
  2
APPID
  5
1D
100
AcDbSymbolTable
 70
1
  0
APPID
  5
1E
100
AcDbSymbolTableRecord
100
AcDbRegAppTableRecord
  2
ACAD
 70
0
  0
ENDTAB
  0
TABLE
  2
DIMSTYLE
  5
1F
100
AcDbSymbolTable
 70
1
100
AcDbDimStyleTable
  0
DIMSTYLE
105
20
100
AcDbSymbolTableRecord
100
AcDbDimStyleTableRecord
  2
Standard
 70
0
340
1A
  0
ENDTAB
  0
TABLE
  2
BLOCK_RECORD
  5
21
100
AcDbSymbolTable
 70
7
  0
BLOCK_RECORD
  5
22
100
AcDbSymbolTableRecord
100
AcDbBlockTableRecord
  2
*Model_Space
340
23
  0
BLOCK_RECORD
  5
24
100
AcDbSymbolTableRecord
100
AcDbBlockTableRecord
  2
*Paper_Space
340
25
  0
BLOCK_RECORD
  5
26
100
AcDbSymbolTableRecord
100
AcDbBlockTableRecord
  2
GRT
340
27
  0
BLOCK_RECORD
  5
28
100
AcDbSymbolTableRecord
100
AcDbBlockTableRecord
  2
GRO
340
29
  0
BLOCK_RECORD
  5
2A
100
AcDbSymbolTableRecord
100
AcDbBlockTableRecord
  2
pikieta
340
2B
  0
BLOCK_RECORD
  5
2C
100
AcDbSymbolTableRecord
100
AcDbBlockTableRecord
  2
L_0_02_1
340
2D
  0
BLOCK_RECORD
  5
2E
100
AcDbSymbolTableRecord
100
AcDbBlockTableRecord
  2
L_0_02_2
340
2F
  0
ENDTAB
  0
ENDSEC
  0
SECTION
  2
BLOCKS
  0
BLOCK
  5
30
100
AcDbEntity
  8
0
100
AcDbBlockBegin
  2
*Model_Space
 70
0
 10
0.0
 20
0.0
 30
0.0
  3
*Model_Space
  1

  0
ENDBLK
  5
31
100
AcDbEntity
  8
0
100
AcDbBlockEnd
  0
BLOCK
  5
32
100
AcDbEntity
 67
1
  8
0
100
AcDbBlockBegin
  2
*Paper_Space
 70
0
 10
0.0
 20
0.0
 30
0.0
  3
*Paper_Space
  1

  0
ENDBLK
  5
33
100
AcDbEntity
 67
1
  8
0
100
AcDbBlockEnd
  0
BLOCK
  5
27
100
AcDbEntity
  8
0
100
AcDbBlockBegin
 62
0
370
13
  2
GRT
 70
0
 10
0
 20
0
 30
0
  3
GRT
  0
HATCH
  5
34
100
AcDbEntity
  8
0
  6
CONTINUOUS
420
16777215
370
18
100
AcDbHatch
 10
0.0
 20
0.0
 30
0.0
210
0.0
220
0.0
230
1.0
  2
SOLID
 70
1
 71
1
 91
1
 92
3
 72
1
 73
1
 93
2
 10
0.0
 20
-0.5
 42
1.0
 10
0.0
 20
0.5
 42
1.0
 97
0
 75
0
 76
1
 98
0
  0
CIRCLE
  5
35
100
AcDbEntity
  8
0
  6
CONTINUOUS
 62
0
370
18
100
AcDbCircle
 10
0.0
 20
-0.0
 40
0.5
  0
ENDBLK
  5
36
100
AcDbEntity
  8
0
100
AcDbBlockEnd
  0
BLOCK
  5
29
100
AcDbEntity
  8
0
100
AcDbBlockBegin
 62
0
370
13
  2
GRO
 70
0
 10
0
 20
0
 30
0
  3
GRO
  0
HATCH
  5
37
100
AcDbEntity
  8
0
  6
CONTINUOUS
 62
0
370
13
100
AcDbHatch
 10
0.0
 20
0.0
 30
0.0
210
0.0
220
0.0
230
1.0
  2
SOLID
 70
1
 71
1
 91
1
 92
3
 72
1
 73
1
 93
2
 10
0.0
 20
-0.10000000000000001
 42
1.0
 10
0.0
 20
0.10000000000000001
 42
1.0
 97
0
 75
0
 76
1
 98
0
  0
CIRCLE
  5
38
100
AcDbEntity
  8
0
  6
CONTINUOUS
 62
0
370
13
100
AcDbCircle
 10
0.0
 20
-0.0
 40
0.10000000000000001
  0
ENDBLK
  5
39
100
AcDbEntity
  8
0
100
AcDbBlockEnd
  0
BLOCK
  5
2B
100
AcDbEntity
  8
0
100
AcDbBlockBegin
 62
0
370
13
  2
pikieta
 70
0
 10
0
 20
0
 30
0
  3
pikieta
  0
POINT
  5
3A
100
AcDbEntity
  8
0
100
AcDbPoint
 62
0
 10
0.0
 20
0.0
 30
0.000
  0
ENDBLK
  5
3B
100
AcDbEntity
  8
0
100
AcDbBlockEnd
  0
BLOCK
  5
2D
100
AcDbEntity
  8
0
100
AcDbBlockBegin
 62
0
370
13
  2
L_0_02_1
 70
0
 10
0
 20
0
 30
0
  3
L_0_02_1
  0
POINT
  5
3C
100
AcDbEntity
  8
0
100
AcDbPoint
 62
0
 10
0.0
 20
0.0
 30
0.000
  0
ENDBLK
  5
3D
100
AcDbEntity
  8
0
100
AcDbBlockEnd
  0
BLOCK
  5
2F
100
AcDbEntity
  8
0
100
AcDbBlockBegin
 62
0
370
13
  2
L_0_02_2
 70
0
 10
0
 20
0
 30
0
  3
L_0_02_2
  0
POINT
  5
3E
100
AcDbEntity
  8
0
100
AcDbPoint
 62
0
 10
-0.0
 20
-0.0
 30
0.000
  0
ENDBLK
  5
3F
100
AcDbEntity
  8
0
100
AcDbBlockEnd
  0
ENDSEC
  0
SECTION
  2
ENTITIES
  0
POLYLINE
  5
40
100
AcDbEntity
  8
budynki
  6
CONTINUOUS
370
18
100
AcDb3dPolyline
 66
1
 70
137
  0
VERTEX
  5
41
100
AcDbEntity
  8
budynki
100
AcDbVertex
100
AcDb3dPolylineVertex
 10
7567110.76587472949
 20
5717145.29900934361
 70
32
  0
VERTEX
  5
42
100
AcDbEntity
  8
budynki
100
AcDbVertex
100
AcDb3dPolylineVertex
 10
7567104.20517476276
 20
5717151.45966662932
 70
32
  0
VERTEX
  5
43
100
AcDbEntity
  8
budynki
100
AcDbVertex
100
AcDb3dPolylineVertex
 10
7567097.36000000034
 20
5717144.16999999993
 70
32
  0
VERTEX
  5
44
100
AcDbEntity
  8
budynki
100
AcDbVertex
100
AcDb3dPolylineVertex
 10
7567103.92069996707
 20
5717138.00934271421
 70
32
  0
SEQEND
  5
45
100
AcDbEntity
  8
budynki
  0
POLYLINE
  5
46
100
AcDbEntity
  8
fundament=sciana
  6
CONTINUOUS
370
18
100
AcDb3dPolyline
 66
1
 70
136
  0
VERTEX
  5
47
100
AcDbEntity
  8
fundament=sciana
100
AcDbVertex
100
AcDb3dPolylineVertex
 10
7567103.918776365
 20
5717138.07967713848
 70
32
  0
VERTEX
  5
48
100
AcDbEntity
  8
fundament=sciana
100
AcDbVertex
100
AcDb3dPolylineVertex
 10
7567110.69532576576
 20
5717145.29677650053
 70
32
  0
SEQEND
  5
49
100
AcDbEntity
  8
fundament=sciana
  0
POLYLINE
  5
4A
100
AcDbEntity
  8
fundament=sciana
  6
CONTINUOUS
370
18
100
AcDb3dPolyline
 66
1
 70
136
  0
VERTEX
  5
4B
100
AcDbEntity
  8
fundament=sciana
100
AcDbVertex
100
AcDb3dPolylineVertex
 10
7567110.69532576576
 20
5717145.29677650053
 70
32
  0
VERTEX
  5
4C
100
AcDbEntity
  8
fundament=sciana
100
AcDbVertex
100
AcDb3dPolylineVertex
 10
7567105.51922425255
 20
5717150.15732219629
 70
32
  0
SEQEND
  5
4D
100
AcDbEntity
  8
fundament=sciana
  0
POLYLINE
  5
4E
100
AcDbEntity
  8
fundament=sciana
  6
CONTINUOUS
370
18
100
AcDb3dPolyline
 66
1
 70
136
  0
VERTEX
  5
4F
100
AcDbEntity
  8
fundament=sciana
100
AcDbVertex
100
AcDb3dPolylineVertex
 10
7567105.51922425255
 20
5717150.15732219629
 70
32
  0
VERTEX
  5
50
100
AcDbEntity
  8
fundament=sciana
100
AcDbVertex
100
AcDb3dPolylineVertex
 10
7567103.70522446372
 20
5717148.22532242164
 70
32
  0
SEQEND
  5
51
100
AcDbEntity
  8
fundament=sciana
  0
POLYLINE
  5
52
100
AcDbEntity
  8
fundament=sciana
  6
CONTINUOUS
370
18
100
AcDb3dPolyline
 66
1
 70
136
  0
VERTEX
  5
53
100
AcDbEntity
  8
fundament=sciana
100
AcDbVertex
100
AcDb3dPolylineVertex
 10
7567103.70522446372
 20
5717148.22532242164
 70
32
  0
VERTEX
  5
54
100
AcDbEntity
  8
fundament=sciana
100
AcDbVertex
100
AcDb3dPolylineVertex
 10
7567102.393223566
 20
5717149.45732326433
 70
32
  0
SEQEND
  5
55
100
AcDbEntity
  8
fundament=sciana
  0
POLYLINE
  5
56
100
AcDbEntity
  8
fundament=sciana
  6
CONTINUOUS
370
18
100
AcDb3dPolyline
 66
1
 70
136
  0
VERTEX
  5
57
100
AcDbEntity
  8
fundament=sciana
100
AcDbVertex
100
AcDb3dPolylineVertex
 10
7567102.393223566
 20
5717149.45732326433
 70
32
  0
VERTEX
  5
58
100
AcDbEntity
  8
fundament=sciana
100
AcDbVertex
100
AcDb3dPolylineVertex
 10
7567097.43067451473
 20
5717144.17222332116
 70
32
  0
SEQEND
  5
59
100
AcDbEntity
  8
fundament=sciana
  0
POLYLINE
  5
5A
100
AcDbEntity
  8
fundament=sciana
  6
CONTINUOUS
370
18
100
AcDb3dPolyline
 66
1
 70
136
  0
VERTEX
  5
5B
100
AcDbEntity
  8
fundament=sciana
100
AcDbVertex
100
AcDb3dPolylineVertex
 10
7567097.43067451473
 20
5717144.17222332116
 70
32
  0
VERTEX
  5
5C
100
AcDbEntity
  8
fundament=sciana
100
AcDbVertex
100
AcDb3dPolylineVertex
 10
7567103.918776365
 20
5717138.07967713848
 70
32
  0
SEQEND
  5
5D
100
AcDbEntity
  8
fundament=sciana
  0
POLYLINE
  5
5E
100
AcDbEntity
  8
fundament=sciana
  6
CONTINUOUS
370
18
100
AcDb3dPolyline
 66
1
 70
136
  0
VERTEX
  5
5F
100
AcDbEntity
  8
fundament=sciana
100
AcDbVertex
100
AcDb3dPolylineVertex
 10
7567103.90799999982
 20
5717138.43300000019
 70
32
  0
VERTEX
  5
60
100
AcDbEntity
  8
fundament=sciana
100
AcDbVertex
100
AcDb3dPolylineVertex
 10
7567107.11500000022
 20
5717141.84800000023
 70
32
  0
VERTEX
  5
61
100
AcDbEntity
  8
fundament=sciana
100
AcDbVertex
100
AcDb3dPolylineVertex
 10
7567107.24500000011
 20
5717141.98699999973
 70
32
  0
VERTEX
  5
62
100
AcDbEntity
  8
fundament=sciana
100
AcDbVertex
100
AcDb3dPolylineVertex
 10
7567108.61400000006
 20
5717143.4450000003
 70
32
  0
VERTEX
  5
63
100
AcDbEntity
  8
fundament=sciana
100
AcDbVertex
100
AcDb3dPolylineVertex
 10
7567108.74399999995
 20
5717143.5839999998
 70
32
  0
VERTEX
  5
64
100
AcDbEntity
  8
fundament=sciana
100
AcDbVertex
100
AcDb3dPolylineVertex
 10
7567110.34200000018
 20
5717145.28600000031
 70
32
  0
SEQEND
  5
65
100
AcDbEntity
  8
fundament=sciana
  0
POLYLINE
  5
66
100
AcDbEntity
  8
fundament=sciana
  6
CONTINUOUS
370
18
100
AcDb3dPolyline
 66
1
 70
136
  0
VERTEX
  5
67
100
AcDbEntity
  8
fundament=sciana
100
AcDbVertex
100
AcDb3dPolylineVertex
 10
7567110.34200000018
 20
5717145.28600000031
 70
32
  0
VERTEX
  5
68
100
AcDbEntity
  8
fundament=sciana
100
AcDbVertex
100
AcDb3dPolylineVertex
 10
7567107.22200000007
 20
5717148.21600000002
 70
32
  0
VERTEX
  5
69
100
AcDbEntity
  8
fundament=sciana
100
AcDbVertex
100
AcDb3dPolylineVertex
 10
7567107.08299999964
 20
5717148.3459999999
 70
32
  0
VERTEX
  5
6A
100
AcDbEntity
  8
fundament=sciana
100
AcDbVertex
100
AcDb3dPolylineVertex
 10
7567105.53000000026
 20
5717149.80399999954
 70
32
  0
SEQEND
  5
6B
100
AcDbEntity
  8
fundament=sciana
  0
POLYLINE
  5
6C
100
AcDbEntity
  8
fundament=sciana
  6
CONTINUOUS
370
18
100
AcDb3dPolyline
 66
1
 70
136
  0
VERTEX
  5
6D
100
AcDbEntity
  8
fundament=sciana
100
AcDbVertex
100
AcDb3dPolylineVertex
 10
7567105.53000000026
 20
5717149.80399999954
 70
32
  0
VERTEX
  5
6E
100
AcDbEntity
  8
fundament=sciana
100
AcDbVertex
100
AcDb3dPolylineVertex
 10
7567103.71600000002
 20
5717147.87200000044
 70
32
  0
SEQEND
  5
6F
100
AcDbEntity
  8
fundament=sciana
  0
POLYLINE
  5
70
100
AcDbEntity
  8
fundament=sciana
  6
CONTINUOUS
370
18
100
AcDb3dPolyline
 66
1
 70
136
  0
VERTEX
  5
71
100
AcDbEntity
  8
fundament=sciana
100
AcDbVertex
100
AcDb3dPolylineVertex
 10
7567103.71600000002
 20
5717147.87200000044
 70
32
  0
VERTEX
  5
72
100
AcDbEntity
  8
fundament=sciana
100
AcDbVertex
100
AcDb3dPolylineVertex
 10
7567102.4040000001
 20
5717149.10400000028
 70
32
  0
SEQEND
  5
73
100
AcDbEntity
  8
fundament=sciana
  0
POLYLINE
  5
74
100
AcDbEntity
  8
fundament=sciana
  6
CONTINUOUS
370
18
100
AcDb3dPolyline
 66
1
 70
136
  0
VERTEX
  5
75
100
AcDbEntity
  8
fundament=sciana
100
AcDbVertex
100
AcDb3dPolylineVertex
 10
7567102.4040000001
 20
5717149.10400000028
 70
32
  0
VERTEX
  5
76
100
AcDbEntity
  8
fundament=sciana
100
AcDbVertex
100
AcDb3dPolylineVertex
 10
7567100.64499999955
 20
5717147.23000000045
 70
32
  0
VERTEX
  5
77
100
AcDbEntity
  8
fundament=sciana
100
AcDbVertex
100
AcDb3dPolylineVertex
 10
7567100.51499999966
 20
5717147.09200000018
 70
32
  0
VERTEX
  5
78
100
AcDbEntity
  8
fundament=sciana
100
AcDbVertex
100
AcDb3dPolylineVertex
 10
7567097.78399999998
 20
5717144.18300000019
 70
32
  0
SEQEND
  5
79
100
AcDbEntity
  8
fundament=sciana
  0
POLYLINE
  5
7A
100
AcDbEntity
  8
fundament=sciana
  6
CONTINUOUS
370
18
100
AcDb3dPolyline
 66
1
 70
136
  0
VERTEX
  5
7B
100
AcDbEntity
  8
fundament=sciana
100
AcDbVertex
100
AcDb3dPolylineVertex
 10
7567097.78399999998
 20
5717144.18300000019
 70
32
  0
VERTEX
  5
7C
100
AcDbEntity
  8
fundament=sciana
100
AcDbVertex
100
AcDb3dPolylineVertex
 10
7567103.90799999982
 20
5717138.43300000019
 70
32
  0
SEQEND
  5
7D
100
AcDbEntity
  8
fundament=sciana
  0
POLYLINE
  5
7E
100
AcDbEntity
  8
fundament=sciana
  6
CONTINUOUS
370
18
100
AcDb3dPolyline
 66
1
 70
136
  0
VERTEX
  5
7F
100
AcDbEntity
  8
fundament=sciana
100
AcDbVertex
100
AcDb3dPolylineVertex
 10
7567107.08299999964
 20
5717148.3459999999
 70
32
  0
VERTEX
  5
80
100
AcDbEntity
  8
fundament=sciana
100
AcDbVertex
100
AcDb3dPolylineVertex
 10
7567103.98554108851
 20
5717145.04719853587
 70
32
  0
SEQEND
  5
81
100
AcDbEntity
  8
fundament=sciana
  0
POLYLINE
  5
82
100
AcDbEntity
  8
fundament=sciana
  6
CONTINUOUS
370
18
100
AcDb3dPolyline
 66
1
 70
136
  0
VERTEX
  5
83
100
AcDbEntity
  8
fundament=sciana
100
AcDbVertex
100
AcDb3dPolylineVertex
 10
7567107.22200000007
 20
5717148.21600000002
 70
32
  0
VERTEX
  5
84
100
AcDbEntity
  8
fundament=sciana
100
AcDbVertex
100
AcDb3dPolylineVertex
 10
7567104.12399999984
 20
5717144.91700000036
 70
32
  0
SEQEND
  5
85
100
AcDbEntity
  8
fundament=sciana
  0
POLYLINE
  5
86
100
AcDbEntity
  8
fundament=sciana
  6
CONTINUOUS
370
18
100
AcDb3dPolyline
 66
1
 70
136
  0
VERTEX
  5
87
100
AcDbEntity
  8
fundament=sciana
100
AcDbVertex
100
AcDb3dPolylineVertex
 10
7567102.93560120277
 20
5717146.03295248747
 70
32
  0
VERTEX
  5
88
100
AcDbEntity
  8
fundament=sciana
100
AcDbVertex
100
AcDb3dPolylineVertex
 10
7567102.45985522494
 20
5717145.52632659674
 70
32
  0
SEQEND
  5
89
100
AcDbEntity
  8
fundament=sciana
  0
POLYLINE
  5
8A
100
AcDbEntity
  8
fundament=sciana
  6
CONTINUOUS
370
18
100
AcDb3dPolyline
 66
1
 70
136
  0
VERTEX
  5
8B
100
AcDbEntity
  8
fundament=sciana
100
AcDbVertex
100
AcDb3dPolylineVertex
 10
7567103.28668210655
 20
5717145.44269334804
 70
32
  0
VERTEX
  5
8C
100
AcDbEntity
  8
fundament=sciana
100
AcDbVertex
100
AcDb3dPolylineVertex
 10
7567102.81093612779
 20
5717144.93606745824
 70
32
  0
SEQEND
  5
8D
100
AcDbEntity
  8
fundament=sciana
  0
POLYLINE
  5
8E
100
AcDbEntity
  8
fundament=sciana
  6
CONTINUOUS
370
18
100
AcDb3dPolyline
 66
1
 70
136
  0
VERTEX
  5
8F
100
AcDbEntity
  8
fundament=sciana
100
AcDbVertex
100
AcDb3dPolylineVertex
 10
7567100.51499999966
 20
5717147.09200000018
 70
32
  0
VERTEX
  5
90
100
AcDbEntity
  8
fundament=sciana
100
AcDbVertex
100
AcDb3dPolylineVertex
 10
7567102.81099999975
 20
5717144.93599999975
 70
32
  0
SEQEND
  5
91
100
AcDbEntity
  8
fundament=sciana
  0
POLYLINE
  5
92
100
AcDbEntity
  8
fundament=sciana
  6
CONTINUOUS
370
18
100
AcDb3dPolyline
 66
1
 70
136
  0
VERTEX
  5
93
100
AcDbEntity
  8
fundament=sciana
100
AcDbVertex
100
AcDb3dPolylineVertex
 10
7567100.64499999955
 20
5717147.23000000045
 70
32
  0
VERTEX
  5
94
100
AcDbEntity
  8
fundament=sciana
100
AcDbVertex
100
AcDb3dPolylineVertex
 10
7567102.45999999996
 20
5717145.5259999996
 70
32
  0
SEQEND
  5
95
100
AcDbEntity
  8
fundament=sciana
  0
POLYLINE
  5
96
100
AcDbEntity
  8
fundament=sciana
  6
CONTINUOUS
370
18
100
AcDb3dPolyline
 66
1
 70
136
  0
VERTEX
  5
97
100
AcDbEntity
  8
fundament=sciana
100
AcDbVertex
100
AcDb3dPolylineVertex
 10
7567094.57720911223
 20
5717140.76762827858
 70
32
  0
VERTEX
  5
98
100
AcDbEntity
  8
fundament=sciana
100
AcDbVertex
100
AcDb3dPolylineVertex
 10
7567100.70120907947
 20
5717135.01762824412
 70
32
  0
SEQEND
  5
99
100
AcDbEntity
  8
fundament=sciana
  0
POLYLINE
  5
9A
100
AcDbEntity
  8
fundament=sciana
  6
CONTINUOUS
370
18
100
AcDb3dPolyline
 66
1
 70
136
  0
VERTEX
  5
9B
100
AcDbEntity
  8
fundament=sciana
100
AcDbVertex
100
AcDb3dPolylineVertex
 10
7567103.28699999955
 20
5717145.44299999997
 70
32
  0
VERTEX
  5
9C
100
AcDbEntity
  8
fundament=sciana
100
AcDbVertex
100
AcDb3dPolylineVertex
 10
7567107.11500000022
 20
5717141.84800000023
 70
32
  0
SEQEND
  5
9D
100
AcDbEntity
  8
fundament=sciana
  0
POLYLINE
  5
9E
100
AcDbEntity
  8
fundament=sciana
  6
CONTINUOUS
370
18
100
AcDb3dPolyline
 66
1
 70
136
  0
VERTEX
  5
9F
100
AcDbEntity
  8
fundament=sciana
100
AcDbVertex
100
AcDb3dPolylineVertex
 10
7567102.93599999975
 20
5717146.03299999982
 70
32
  0
VERTEX
  5
A0
100
AcDbEntity
  8
fundament=sciana
100
AcDbVertex
100
AcDb3dPolylineVertex
 10
7567107.24500000011
 20
5717141.98699999973
 70
32
  0
SEQEND
  5
A1
100
AcDbEntity
  8
fundament=sciana
  0
POLYLINE
  5
A2
100
AcDbEntity
  8
fundament=sciana
  6
CONTINUOUS
370
18
100
AcDb3dPolyline
 66
1
 70
136
  0
VERTEX
  5
A3
100
AcDbEntity
  8
fundament=sciana
100
AcDbVertex
100
AcDb3dPolylineVertex
 10
7567108.74399999995
 20
5717143.5839999998
 70
32
  0
VERTEX
  5
A4
100
AcDbEntity
  8
fundament=sciana
100
AcDbVertex
100
AcDb3dPolylineVertex
 10
7567107.98900000006
 20
5717144.29200000037
 70
32
  0
SEQEND
  5
A5
100
AcDbEntity
  8
fundament=sciana
  0
POLYLINE
  5
A6
100
AcDbEntity
  8
fundament=sciana
  6
CONTINUOUS
370
18
100
AcDb3dPolyline
 66
1
 70
136
  0
VERTEX
  5
A7
100
AcDbEntity
  8
fundament=sciana
100
AcDbVertex
100
AcDb3dPolylineVertex
 10
7567108.30070134997
 20
5717144.62385628745
 70
32
  0
VERTEX
  5
A8
100
AcDbEntity
  8
fundament=sciana
100
AcDbVertex
100
AcDb3dPolylineVertex
 10
7567107.71749260835
 20
5717145.17143257707
 70
32
  0
SEQEND
  5
A9
100
AcDbEntity
  8
fundament=sciana
  0
POLYLINE
  5
AA
100
AcDbEntity
  8
fundament=sciana
  6
CONTINUOUS
370
18
100
AcDb3dPolyline
 66
1
 70
136
  0
VERTEX
  5
AB
100
AcDbEntity
  8
fundament=sciana
100
AcDbVertex
100
AcDb3dPolylineVertex
 10
7567108.61400000006
 20
5717143.4450000003
 70
32
  0
VERTEX
  5
AC
100
AcDbEntity
  8
fundament=sciana
100
AcDbVertex
100
AcDb3dPolylineVertex
 10
7567105.49299999978
 20
5717146.375
 70
32
  0
SEQEND
  5
AD
100
AcDbEntity
  8
fundament=sciana
  0
POLYLINE
  5
AE
100
AcDbEntity
  8
fundament=sciana
  6
CONTINUOUS
370
18
100
AcDb3dPolyline
 66
1
 70
136
  0
VERTEX
  5
AF
100
AcDbEntity
  8
fundament=sciana
100
AcDbVertex
100
AcDb3dPolylineVertex
 10
7567107.98927506618
 20
5717144.29214905575
 70
32
  0
VERTEX
  5
B0
100
AcDbEntity
  8
fundament=sciana
100
AcDbVertex
100
AcDb3dPolylineVertex
 10
7567108.30070134997
 20
5717144.62385628745
 70
32
  0
SEQEND
  5
B1
100
AcDbEntity
  8
fundament=sciana
  0
POLYLINE
  5
B2
100
AcDbEntity
  8
fundament=sciana
  6
CONTINUOUS
370
18
100
AcDb3dPolyline
 66
1
 70
136
  0
VERTEX
  5
B3
100
AcDbEntity
  8
fundament=sciana
100
AcDbVertex
100
AcDb3dPolylineVertex
 10
7567107.40606632456
 20
5717144.83972534537
 70
32
  0
VERTEX
  5
B4
100
AcDbEntity
  8
fundament=sciana
100
AcDbVertex
100
AcDb3dPolylineVertex
 10
7567107.71749260835
 20
5717145.17143257707
 70
32
  0
SEQEND
  5
B5
100
AcDbEntity
  8
fundament=sciana
  0
POLYLINE
  5
B6
100
AcDbEntity
  8
fundament=sciana
  6
CONTINUOUS
370
18
100
AcDb3dPolyline
 66
1
 70
136
  0
VERTEX
  5
B7
100
AcDbEntity
  8
fundament=sciana
100
AcDbVertex
100
AcDb3dPolylineVertex
 10
7567107.40606632456
 20
5717144.83972534537
 70
32
  0
VERTEX
  5
B8
100
AcDbEntity
  8
fundament=sciana
100
AcDbVertex
100
AcDb3dPolylineVertex
 10
7567105.62319816649
 20
5717146.51366515923
 70
32
  0
SEQEND
  5
B9
100
AcDbEntity
  8
fundament=sciana
  0
POLYLINE
  5
BA
100
AcDbEntity
  8
fundament=sciana
  6
CONTINUOUS
370
18
100
AcDb3dPolyline
 66
1
 70
136
  0
VERTEX
  5
BB
100
AcDbEntity
  8
fundament=sciana
100
AcDbVertex
100
AcDb3dPolylineVertex
 10
7567106.41179230064
 20
5717145.51264285296
 70
32
  0
VERTEX
  5
BC
100
AcDbEntity
  8
fundament=sciana
100
AcDbVertex
100
AcDb3dPolylineVertex
 10
7567105.78876133263
 20
5717144.84918928333
 70
32
  0
SEQEND
  5
BD
100
AcDbEntity
  8
fundament=sciana
  0
POLYLINE
  5
BE
100
AcDbEntity
  8
fundament=sciana
  6
CONTINUOUS
370
18
100
AcDb3dPolyline
 66
1
 70
136
  0
VERTEX
  5
BF
100
AcDbEntity
  8
fundament=sciana
100
AcDbVertex
100
AcDb3dPolylineVertex
 10
7567106.55759501457
 20
5717145.37574934401
 70
32
  0
VERTEX
  5
C0
100
AcDbEntity
  8
fundament=sciana
100
AcDbVertex
100
AcDb3dPolylineVertex
 10
7567105.93457087316
 20
5717144.71230304427
 70
32
  0
SEQEND
  5
C1
100
AcDbEntity
  8
fundament=sciana
  0
POLYLINE
  5
C2
100
AcDbEntity
  8
fundament=sciana
  6
CONTINUOUS
370
18
100
AcDb3dPolyline
 66
1
 70
136
  0
VERTEX
  5
C3
100
AcDbEntity
  8
fundament=sciana
100
AcDbVertex
100
AcDb3dPolylineVertex
 10
7567105.93457087316
 20
5717144.71230304427
 70
32
  0
VERTEX
  5
C4
100
AcDbEntity
  8
fundament=sciana
100
AcDbVertex
100
AcDb3dPolylineVertex
 10
7567105.78876133263
 20
5717144.84918928333
 70
32
  0
SEQEND
  5
C5
100
AcDbEntity
  8
fundament=sciana
  0
INSERT
  5
C6
100
AcDbEntity
  8
granice
  6
CONTINUOUS
100
AcDbBlockReference
 66
0
  2
L_0_02_1
 10
7567158.84999999963
 20
5717190.15000000037
 41
0.25
 42
0.25
 43
0.25
 50
130.33
  0
INSERT
  5
C7
100
AcDbEntity
  8
granice
  6
CONTINUOUS
100
AcDbBlockReference
 66
0
  2
pikieta
 10
7567156.06499999948
 20
5717193.4299999997
 41
0.25
 42
0.25
 43
0.25
 50
130.33
  0
INSERT
  5
C8
100
AcDbEntity
  8
granice
  6
CONTINUOUS
100
AcDbBlockReference
 66
0
  2
L_0_02_2
 10
7567153.28000000026
 20
5717196.70999999996
 41
0.25
 42
0.25
 43
0.25
 50
310.33
  0
INSERT
  5
C9
100
AcDbEntity
  8
granice
  6
CONTINUOUS
100
AcDbBlockReference
 66
0
  2
L_0_02_1
 10
7567153.28000000026
 20
5717196.70999999996
 41
0.25
 42
0.25
 43
0.25
 50
140.78
  0
INSERT
  5
CA
100
AcDbEntity
  8
granice
  6
CONTINUOUS
100
AcDbBlockReference
 66
0
  2
pikieta
 10
7567148.54499999993
 20
5717200.57500000019
 41
0.25
 42
0.25
 43
0.25
 50
140.78
  0
INSERT
  5
CB
100
AcDbEntity
  8
granice
  6
CONTINUOUS
100
AcDbBlockReference
 66
0
  2
L_0_02_2
 10
7567143.80999999959
 20
5717204.44000000041
 41
0.25
 42
0.25
 43
0.25
 50
320.78
  0
INSERT
  5
CC
100
AcDbEntity
  8
granice
  6
CONTINUOUS
100
AcDbBlockReference
 66
0
  2
L_0_02_1
 10
7567143.80999999959
 20
5717204.44000000041
 41
0.25
 42
0.25
 43
0.25
 50
209.26
  0
INSERT
  5
CD
100
AcDbEntity
  8
granice
  6
CONTINUOUS
100
AcDbBlockReference
 66
0
  2
pikieta
 10
7567136.6799999997
 20
5717200.4450000003
 41
0.25
 42
0.25
 43
0.25
 50
209.26
  0
INSERT
  5
CE
100
AcDbEntity
  8
granice
  6
CONTINUOUS
100
AcDbBlockReference
 66
0
  2
L_0_02_2
 10
7567129.54999999981
 20
5717196.45000000019
 41
0.25
 42
0.25
 43
0.25
 50
29.26
  0
INSERT
  5
CF
100
AcDbEntity
  8
granice
  6
CONTINUOUS
100
AcDbBlockReference
 66
0
  2
L_0_02_1
 10
7567129.54999999981
 20
5717196.45000000019
 41
0.25
 42
0.25
 43
0.25
 50
225.94
  0
INSERT
  5
D0
100
AcDbEntity
  8
granice
  6
CONTINUOUS
100
AcDbBlockReference
 66
0
  2
pikieta
 10
7567120.83999999985
 20
5717187.45000000019
 41
0.25
 42
0.25
 43
0.25
 50
225.94
  0
INSERT
  5
D1
100
AcDbEntity
  8
granice
  6
CONTINUOUS
100
AcDbBlockReference
 66
0
  2
L_0_02_2
 10
7567112.12999999989
 20
5717178.45000000019
 41
0.25
 42
0.25
 43
0.25
 50
45.94
  0
INSERT
  5
D2
100
AcDbEntity
  8
granice
  6
CONTINUOUS
100
AcDbBlockReference
 66
0
  2
L_0_02_1
 10
7567112.12999999989
 20
5717178.45000000019
 41
0.25
 42
0.25
 43
0.25
 50
226.44
  0
INSERT
  5
D3
100
AcDbEntity
  8
granice
  6
CONTINUOUS
100
AcDbBlockReference
 66
0
  2
pikieta
 10
7567094.92499999981
 20
5717160.35500000045
 41
0.25
 42
0.25
 43
0.25
 50
226.44
  0
INSERT
  5
D4
100
AcDbEntity
  8
granice
  6
CONTINUOUS
100
AcDbBlockReference
 66
0
  2
L_0_02_2
 10
7567077.71999999974
 20
5717142.25999999978
 41
0.25
 42
0.25
 43
0.25
 50
46.44
  0
INSERT
  5
D5
100
AcDbEntity
  8
granice
  6
CONTINUOUS
100
AcDbBlockReference
 66
0
  2
L_0_02_1
 10
7567077.71999999974
 20
5717142.25999999978
 41
0.25
 42
0.25
 43
0.25
 50
229.20
  0
INSERT
  5
D6
100
AcDbEntity
  8
granice
  6
CONTINUOUS
100
AcDbBlockReference
 66
0
  2
pikieta
 10
7567066.125
 20
5717128.82499999926
 41
0.25
 42
0.25
 43
0.25
 50
229.20
  0
INSERT
  5
D7
100
AcDbEntity
  8
granice
  6
CONTINUOUS
100
AcDbBlockReference
 66
0
  2
L_0_02_2
 10
7567054.53000000026
 20
5717115.38999999966
 41
0.25
 42
0.25
 43
0.25
 50
49.20
  0
INSERT
  5
D8
100
AcDbEntity
  8
granice
  6
CONTINUOUS
100
AcDbBlockReference
 66
0
  2
L_0_02_1
 10
7567054.53000000026
 20
5717115.38999999966
 41
0.25
 42
0.25
 43
0.25
 50
317.28
  0
INSERT
  5
D9
100
AcDbEntity
  8
granice
  6
CONTINUOUS
100
AcDbBlockReference
 66
0
  2
pikieta
 10
7567062.48000000045
 20
5717108.04999999981
 41
0.25
 42
0.25
 43
0.25
 50
317.28
  0
INSERT
  5
DA
100
AcDbEntity
  8
granice
  6
CONTINUOUS
100
AcDbBlockReference
 66
0
  2
L_0_02_2
 10
7567070.4299999997
 20
5717100.70999999996
 41
0.25
 42
0.25
 43
0.25
 50
137.28
  0
INSERT
  5
DB
100
AcDbEntity
  8
granice
  6
CONTINUOUS
100
AcDbBlockReference
 66
0
  2
L_0_02_1
 10
7567070.4299999997
 20
5717100.70999999996
 41
0.25
 42
0.25
 43
0.25
 50
317.54
  0
INSERT
  5
DC
100
AcDbEntity
  8
granice
  6
CONTINUOUS
100
AcDbBlockReference
 66
0
  2
pikieta
 10
7567071.60500000045
 20
5717099.63499999978
 41
0.25
 42
0.25
 43
0.25
 50
317.54
  0
INSERT
  5
DD
100
AcDbEntity
  8
granice
  6
CONTINUOUS
100
AcDbBlockReference
 66
0
  2
L_0_02_2
 10
7567072.78000000026
 20
5717098.55999999959
 41
0.25
 42
0.25
 43
0.25
 50
137.54
  0
INSERT
  5
DE
100
AcDbEntity
  8
granice
  6
CONTINUOUS
100
AcDbBlockReference
 66
0
  2
L_0_02_1
 10
7567072.78000000026
 20
5717098.55999999959
 41
0.25
 42
0.25
 43
0.25
 50
46.78
  0
INSERT
  5
DF
100
AcDbEntity
  8
granice
  6
CONTINUOUS
100
AcDbBlockReference
 66
0
  2
pikieta
 10
7567115.81499999948
 20
5717144.35500000045
 41
0.25
 42
0.25
 43
0.25
 50
46.78
  0
INSERT
  5
E0
100
AcDbEntity
  8
granice
  6
CONTINUOUS
100
AcDbBlockReference
 66
0
  2
L_0_02_2
 10
7567158.84999999963
 20
5717190.15000000037
 41
0.25
 42
0.25
 43
0.25
 50
226.78
  0
MLINE
  5
E1
100
AcDbEntity
  8
granice
  6
L_0_02_M
370
18
100
AcDbMline
  2
L_0_02_M
340
8
 40
1.0
 70
1
 71
3
 72
9
 73
1
 10
7567158.84999999963
 20
5717190.15000000037
 30
0.0
210
0.0
220
0.0
230
1.0
 11
7567158.84999999963
 21
5717190.15000000037
 12
-0.64724356218827461
 22
0.76228326179041406
 13
-0.99968281497283695
 23
0.02518470662891608
 74
3
 41
0.0
 41
0.125
 41
8.48072483801153787
 75
0
 11
7567153.28000000026
 21
5717196.70999999996
 12
-0.77468573468846091
 22
0.63234643390328338
 13
-0.70022023239875442
 23
-0.71392690531974934
 74
3
 41
0.0
 41
0.125
 41
12.09931184237425406
 75
0
 11
7567143.80999999959
 21
5717204.44000000041
 12
-0.87239123748041769
 22
-0.48880827403736249
 13
-0.08681815566677825
 23
-0.99622417549797437
 74
3
 41
0.0
 41
0.125
 41
16.2208771559435476
 75
0
 11
7567129.54999999981
 21
5717196.45000000019
 12
-0.69543472745355606
 22
-0.71858927062098432
 13
0.61014802246829647
 23
-0.79228744195400902
 74
3
 41
0.0
 41
0.125
 41
24.9240798233668492
 75
0
 11
7567112.12999999989
 21
5717178.45000000019
 12
-0.6890599045020156
 22
-0.72470438663476655
 13
0.72165386776527851
 23
-0.69225406834442937
 74
3
 41
0.0
 41
0.125
 41
49.8126030666262025
 75
0
 11
7567077.71999999974
 21
5717142.25999999978
 12
-0.65336309607905463
 22
-0.75704469133730268
 13
0.74108950070195012
 23
-0.67140624956082606
 74
3
 41
0.0
 41
0.125
 41
35.3682810540504562
 75
0
 11
7567054.53000000026
 21
5717115.38999999966
 12
0.73473257605599629
 22
-0.67835686897246028
 13
0.99839711967980971
 23
0.05659674385562945
 74
3
 41
0.0
 41
0.125
 41
21.5155267951933276
 75
0
 11
7567070.4299999997
 21
5717100.70999999996
 12
0.737805412052985
 22
-0.67501346204748014
 13
0.67668690973117096
 23
0.73627089185874939
 74
3
 41
0.0
 41
0.125
 41
3.06012166239034045
 75
0
 11
7567072.78000000026
 21
5717098.55999999959
 12
0.68480609062674358
 22
0.72872533799814887
 13
-0.03772894674444972
 23
0.99928800982377175
 74
3
 41
0.0
 41
0.125
 41
125.5602139276306701
 75
0
  0
POLYLINE
  5
E2
100
AcDbEntity
  8
rzutowanie_budynku_na_granice
  6
L_0_03
370
13
100
AcDb3dPolyline
 66
1
 70
136
  0
VERTEX
  5
E3
100
AcDbEntity
  8
rzutowanie_budynku_na_granice
100
AcDbVertex
100
AcDb3dPolylineVertex
 10
7567103.92069996707
 20
5717138.00934271421
 70
32
  0
VERTEX
  5
E4
100
AcDbEntity
  8
rzutowanie_budynku_na_granice
100
AcDbVertex
100
AcDb3dPolylineVertex
 10
7567107.07034759037
 20
5717135.04951941129
 70
32
  0
SEQEND
  5
E5
100
AcDbEntity
  8
rzutowanie_budynku_na_granice
  0
POLYLINE
  5
E6
100
AcDbEntity
  8
rzutowanie_budynku_na_granice
  6
L_0_03
370
13
100
AcDb3dPolyline
 66
1
 70
136
  0
VERTEX
  5
E7
100
AcDbEntity
  8
rzutowanie_budynku_na_granice
100
AcDbVertex
100
AcDb3dPolylineVertex
 10
7567110.76587472949
 20
5717145.29900934361
 70
32
  0
VERTEX
  5
E8
100
AcDbEntity
  8
rzutowanie_budynku_na_granice
100
AcDbVertex
100
AcDb3dPolylineVertex
 10
7567113.92068851367
 20
5717142.3391990345
 70
32
  0
SEQEND
  5
E9
100
AcDbEntity
  8
rzutowanie_budynku_na_granice
  0
POLYLINE
  5
EA
100
AcDbEntity
  8
rzutowanie_budynku_na_granice
  6
L_0_03
370
13
100
AcDb3dPolyline
 66
1
 70
136
  0
VERTEX
  5
EB
100
AcDbEntity
  8
rzutowanie_budynku_na_granice
100
AcDbVertex
100
AcDb3dPolylineVertex
 10
7567097.36000000034
 20
5717144.16999999993
 70
32
  0
VERTEX
  5
EC
100
AcDbEntity
  8
rzutowanie_budynku_na_granice
100
AcDbVertex
100
AcDb3dPolylineVertex
 10
7567087.99892840628
 20
5717153.07064861991
 70
32
  0
SEQEND
  5
ED
100
AcDbEntity
  8
rzutowanie_budynku_na_granice
  0
POLYLINE
  5
EE
100
AcDbEntity
  8
rzutowanie_budynku_na_granice
  6
L_0_03
370
13
100
AcDb3dPolyline
 66
1
 70
136
  0
VERTEX
  5
EF
100
AcDbEntity
  8
rzutowanie_budynku_na_granice
100
AcDbVertex
100
AcDb3dPolylineVertex
 10
7567104.20517476276
 20
5717151.45966662932
 70
32
  0
VERTEX
  5
F0
100
AcDbEntity
  8
rzutowanie_budynku_na_granice
100
AcDbVertex
100
AcDb3dPolylineVertex
 10
7567094.89170165826
 20
5717160.31997916382
 70
32
  0
SEQEND
  5
F1
100
AcDbEntity
  8
rzutowanie_budynku_na_granice
  0
POLYLINE
  5
F2
100
AcDbEntity
  8
styrodur=sciana_drew
  6
CONTINUOUS
370
18
100
AcDb3dPolyline
 66
1
 70
136
  0
VERTEX
  5
F3
100
AcDbEntity
  8
styrodur=sciana_drew
100
AcDbVertex
100
AcDb3dPolylineVertex
 10
7567103.92069996707
 20
5717138.00934271421
 70
32
  0
VERTEX
  5
F4
100
AcDbEntity
  8
styrodur=sciana_drew
100
AcDbVertex
100
AcDb3dPolylineVertex
 10
7567110.76587472949
 20
5717145.29900934361
 70
32
  0
VERTEX
  5
F5
100
AcDbEntity
  8
styrodur=sciana_drew
100
AcDbVertex
100
AcDb3dPolylineVertex
 10
7567105.51746425126
 20
5717150.22755185887
 70
32
  0
VERTEX
  5
F6
100
AcDbEntity
  8
styrodur=sciana_drew
100
AcDbVertex
100
AcDb3dPolylineVertex
 10
7567103.70348335896
 20
5717148.29579911847
 70
32
  0
VERTEX
  5
F7
100
AcDbEntity
  8
styrodur=sciana_drew
100
AcDbVertex
100
AcDb3dPolylineVertex
 10
7567102.39134942181
 20
5717149.52793708257
 70
32
  0
VERTEX
  5
F8
100
AcDbEntity
  8
styrodur=sciana_drew
100
AcDbVertex
100
AcDb3dPolylineVertex
 10
7567097.36000000034
 20
5717144.16999999993
 70
32
  0
VERTEX
  5
F9
100
AcDbEntity
  8
styrodur=sciana_drew
100
AcDbVertex
100
AcDb3dPolylineVertex
 10
7567103.92069996707
 20
5717138.00934271421
 70
32
  0
SEQEND
  5
FA
100
AcDbEntity
  8
styrodur=sciana_drew
  0
POLYLINE
  5
FB
100
AcDbEntity
  8
lawa_fundamentowa
  6
CONTINUOUS
370
18
100
AcDb3dPolyline
 66
1
 70
136
  0
VERTEX
  5
FC
100
AcDbEntity
  8
lawa_fundamentowa
100
AcDbVertex
100
AcDb3dPolylineVertex
 10
7567103.90098728705
 20
5717138.6450942494
 70
32
  0
VERTEX
  5
FD
100
AcDbEntity
  8
lawa_fundamentowa
100
AcDbVertex
100
AcDb3dPolylineVertex
 10
7567110.12993189134
 20
5717145.27898850199
 70
32
  0
SEQEND
  5
FE
100
AcDbEntity
  8
lawa_fundamentowa
  0
POLYLINE
  5
FF
100
AcDbEntity
  8
lawa_fundamentowa
  6
CONTINUOUS
370
18
100
AcDb3dPolyline
 66
1
 70
136
  0
VERTEX
  5
100
100
AcDbEntity
  8
lawa_fundamentowa
100
AcDbVertex
100
AcDb3dPolylineVertex
 10
7567110.12993189134
 20
5717145.27898850199
 70
32
  0
VERTEX
  5
101
100
AcDbEntity
  8
lawa_fundamentowa
100
AcDbVertex
100
AcDb3dPolylineVertex
 10
7567105.53701827396
 20
5717149.59189976659
 70
32
  0
SEQEND
  5
102
100
AcDbEntity
  8
lawa_fundamentowa
  0
POLYLINE
  5
103
100
AcDbEntity
  8
lawa_fundamentowa
  6
CONTINUOUS
370
18
100
AcDb3dPolyline
 66
1
 70
136
  0
VERTEX
  5
104
100
AcDbEntity
  8
lawa_fundamentowa
100
AcDbVertex
100
AcDb3dPolylineVertex
 10
7567105.53701827396
 20
5717149.59189976659
 70
32
  0
VERTEX
  5
105
100
AcDbEntity
  8
lawa_fundamentowa
100
AcDbVertex
100
AcDb3dPolylineVertex
 10
7567103.72302017547
 20
5717147.65990179125
 70
32
  0
SEQEND
  5
106
100
AcDbEntity
  8
lawa_fundamentowa
  0
POLYLINE
  5
107
100
AcDbEntity
  8
lawa_fundamentowa
  6
CONTINUOUS
370
18
100
AcDb3dPolyline
 66
1
 70
136
  0
VERTEX
  5
108
100
AcDbEntity
  8
lawa_fundamentowa
100
AcDbVertex
100
AcDb3dPolylineVertex
 10
7567103.72302017547
 20
5717147.65990179125
 70
32
  0
VERTEX
  5
109
100
AcDbEntity
  8
lawa_fundamentowa
100
AcDbVertex
100
AcDb3dPolylineVertex
 10
7567102.41101209167
 20
5717148.89190938231
 70
32
  0
SEQEND
  5
10A
100
AcDbEntity
  8
lawa_fundamentowa
  0
POLYLINE
  5
10B
100
AcDbEntity
  8
lawa_fundamentowa
  6
CONTINUOUS
370
18
100
AcDb3dPolyline
 66
1
 70
136
  0
VERTEX
  5
10C
100
AcDbEntity
  8
lawa_fundamentowa
100
AcDbVertex
100
AcDb3dPolylineVertex
 10
7567102.41101209167
 20
5717148.89190938231
 70
32
  0
VERTEX
  5
10D
100
AcDbEntity
  8
lawa_fundamentowa
100
AcDbVertex
100
AcDb3dPolylineVertex
 10
7567097.99607063085
 20
5717144.19000989012
 70
32
  0
SEQEND
  5
10E
100
AcDbEntity
  8
lawa_fundamentowa
  0
POLYLINE
  5
10F
100
AcDbEntity
  8
lawa_fundamentowa
  6
CONTINUOUS
370
18
100
AcDb3dPolyline
 66
1
 70
136
  0
VERTEX
  5
110
100
AcDbEntity
  8
lawa_fundamentowa
100
AcDbVertex
100
AcDb3dPolylineVertex
 10
7567097.99607063085
 20
5717144.19000989012
 70
32
  0
VERTEX
  5
111
100
AcDbEntity
  8
lawa_fundamentowa
100
AcDbVertex
100
AcDb3dPolylineVertex
 10
7567103.90098728705
 20
5717138.6450942494
 70
32
  0
SEQEND
  5
112
100
AcDbEntity
  8
lawa_fundamentowa
  0
POLYLINE
  5
113
100
AcDbEntity
  8
lawa_fundamentowa
  6
CONTINUOUS
370
18
100
AcDb3dPolyline
 66
1
 70
136
  0
VERTEX
  5
114
100
AcDbEntity
  8
lawa_fundamentowa
100
AcDbVertex
100
AcDb3dPolylineVertex
 10
7567103.92767090444
 20
5717137.79696858302
 70
32
  0
VERTEX
  5
115
100
AcDbEntity
  8
lawa_fundamentowa
100
AcDbVertex
100
AcDb3dPolylineVertex
 10
7567110.97802270297
 20
5717145.30567049887
 70
32
  0
SEQEND
  5
116
100
AcDbEntity
  8
lawa_fundamentowa
  0
POLYLINE
  5
117
100
AcDbEntity
  8
lawa_fundamentowa
  6
CONTINUOUS
370
18
100
AcDb3dPolyline
 66
1
 70
136
  0
VERTEX
  5
118
100
AcDbEntity
  8
lawa_fundamentowa
100
AcDbVertex
100
AcDb3dPolylineVertex
 10
7567110.97802270297
 20
5717145.30567049887
 70
32
  0
VERTEX
  5
119
100
AcDbEntity
  8
lawa_fundamentowa
100
AcDbVertex
100
AcDb3dPolylineVertex
 10
7567105.51032724232
 20
5717150.44003341068
 70
32
  0
SEQEND
  5
11A
100
AcDbEntity
  8
lawa_fundamentowa
  0
POLYLINE
  5
11B
100
AcDbEntity
  8
lawa_fundamentowa
  6
CONTINUOUS
370
18
100
AcDb3dPolyline
 66
1
 70
136
  0
VERTEX
  5
11C
100
AcDbEntity
  8
lawa_fundamentowa
100
AcDbVertex
100
AcDb3dPolylineVertex
 10
7567105.51032724232
 20
5717150.44003341068
 70
32
  0
VERTEX
  5
11D
100
AcDbEntity
  8
lawa_fundamentowa
100
AcDbVertex
100
AcDb3dPolylineVertex
 10
7567103.69632660784
 20
5717148.50803273637
 70
32
  0
SEQEND
  5
11E
100
AcDbEntity
  8
lawa_fundamentowa
  0
POLYLINE
  5
11F
100
AcDbEntity
  8
lawa_fundamentowa
  6
CONTINUOUS
370
18
100
AcDb3dPolyline
 66
1
 70
136
  0
VERTEX
  5
120
100
AcDbEntity
  8
lawa_fundamentowa
100
AcDbVertex
100
AcDb3dPolylineVertex
 10
7567103.69632660784
 20
5717148.50803273637
 70
32
  0
VERTEX
  5
121
100
AcDbEntity
  8
lawa_fundamentowa
100
AcDbVertex
100
AcDb3dPolylineVertex
 10
7567102.38432930224
 20
5717149.74003020581
 70
32
  0
SEQEND
  5
122
100
AcDbEntity
  8
lawa_fundamentowa
  0
POLYLINE
  5
123
100
AcDbEntity
  8
lawa_fundamentowa
  6
CONTINUOUS
370
18
100
AcDb3dPolyline
 66
1
 70
136
  0
VERTEX
  5
124
100
AcDbEntity
  8
lawa_fundamentowa
100
AcDbVertex
100
AcDb3dPolylineVertex
 10
7567102.38432930224
 20
5717149.74003020581
 70
32
  0
VERTEX
  5
125
100
AcDbEntity
  8
lawa_fundamentowa
100
AcDbVertex
100
AcDb3dPolylineVertex
 10
7567097.14797645714
 20
5717144.16333003715
 70
32
  0
SEQEND
  5
126
100
AcDbEntity
  8
lawa_fundamentowa
  0
POLYLINE
  5
127
100
AcDbEntity
  8
lawa_fundamentowa
  6
CONTINUOUS
370
18
100
AcDb3dPolyline
 66
1
 70
136
  0
VERTEX
  5
128
100
AcDbEntity
  8
lawa_fundamentowa
100
AcDbVertex
100
AcDb3dPolylineVertex
 10
7567097.14797645714
 20
5717144.16333003715
 70
32
  0
VERTEX
  5
129
100
AcDbEntity
  8
lawa_fundamentowa
100
AcDbVertex
100
AcDb3dPolylineVertex
 10
7567103.92767090444
 20
5717137.79696858302
 70
32
  0
SEQEND
  5
12A
100
AcDbEntity
  8
lawa_fundamentowa
  0
INSERT
  5
12B
100
AcDbEntity
  8
osnowa
  6
CONTINUOUS
100
AcDbBlockReference
 66
1
  2
pikieta
 10
7567145.66000000015
 20
5717208.79999999981
 30
142.599
 41
0.25
 42
0.25
 43
0.25
 50
0.00
  0
ATTRIB
  5
12C
100
AcDbEntity
  8
osnowa
100
AcDbText
 10
7567145.66000000015
 20
5717208.79999999981
 30
142.599
 40
0.2
  1
PS1
 50
0.00
 41
0.62
 51
0.00
  7
STANDARD
100
AcDbAttribute
  2
Nr
 70
0
  0
SEQEND
  5
12D
100
AcDbEntity
  8
osnowa
  0
INSERT
  5
12E
100
AcDbEntity
  8
osnowa
  6
CONTINUOUS
100
AcDbBlockReference
 66
1
  2
pikieta
 10
7567068.61000000034
 20
5717144.0700000003
 30
140.787
 41
0.25
 42
0.25
 43
0.25
 50
0.00
  0
ATTRIB
  5
12F
100
AcDbEntity
  8
osnowa
100
AcDbText
 10
7567068.61000000034
 20
5717144.0700000003
 30
140.787
 40
0.2
  1
PS2
 50
0.00
 41
0.62
 51
0.00
  7
STANDARD
100
AcDbAttribute
  2
Nr
 70
0
  0
SEQEND
  5
130
100
AcDbEntity
  8
osnowa
  0
INSERT
  5
131
100
AcDbEntity
  8
osnowa
  6
CONTINUOUS
100
AcDbBlockReference
 66
1
  2
pikieta
 10
7567071.65000000037
 20
5717088.48000000045
 30
138.869
 41
0.25
 42
0.25
 43
0.25
 50
0.00
  0
ATTRIB
  5
132
100
AcDbEntity
  8
osnowa
100
AcDbText
 10
7567071.65000000037
 20
5717088.48000000045
 30
138.869
 40
0.2
  1
PS3
 50
0.00
 41
0.62
 51
0.00
  7
STANDARD
100
AcDbAttribute
  2
Nr
 70
0
  0
SEQEND
  5
133
100
AcDbEntity
  8
osnowa
  0
INSERT
  5
134
100
AcDbEntity
  8
osnowa
  6
CONTINUOUS
100
AcDbBlockReference
 66
1
  2
pikieta
 10
7567090.54212110955
 20
5717150.47119509242
 30
141.353
 41
0.25
 42
0.25
 43
0.25
 50
0.00
  0
ATTRIB
  5
135
100
AcDbEntity
  8
osnowa
100
AcDbText
 10
7567090.54212110955
 20
5717150.47119509242
 30
141.353
 40
0.2
  1
S101
 50
0.00
 41
0.62
 51
0.00
  7
STANDARD
100
AcDbAttribute
  2
Nr
 70
0
  0
SEQEND
  5
136
100
AcDbEntity
  8
osnowa
  0
INSERT
  5
137
100
AcDbEntity
  8
osnowa
  6
CONTINUOUS
100
AcDbBlockReference
 66
1
  2
pikieta
 10
7567072.79999999981
 20
5717099.93099999987
 30
139.635
 41
0.25
 42
0.25
 43
0.25
 50
0.00
  0
ATTRIB
  5
138
100
AcDbEntity
  8
osnowa
100
AcDbText
 10
7567072.79999999981
 20
5717099.93099999987
 30
139.635
 40
0.2
  1
S100
 50
0.00
 41
0.62
 51
0.00
  7
STANDARD
100
AcDbAttribute
  2
Nr
 70
0
  0
SEQEND
  5
139
100
AcDbEntity
  8
osnowa
  0
INSERT
  5
13A
100
AcDbEntity
  8
osnowa
  6
CONTINUOUS
100
AcDbBlockReference
 66
1
  2
pikieta
 10
7567117.7653164817
 20
5717146.37934539374
 30
141.492
 41
0.25
 42
0.25
 43
0.25
 50
0.00
  0
ATTRIB
  5
13B
100
AcDbEntity
  8
osnowa
100
AcDbText
 10
7567117.7653164817
 20
5717146.37934539374
 30
141.492
 40
0.2
  1
S104
 50
0.00
 41
0.62
 51
0.00
  7
STANDARD
100
AcDbAttribute
  2
Nr
 70
0
  0
SEQEND
  5
13C
100
AcDbEntity
  8
osnowa
  0
INSERT
  5
13D
100
AcDbEntity
  8
osnowa
  6
CONTINUOUS
100
AcDbBlockReference
 66
1
  2
pikieta
 10
7567128.48966660257
 20
5717114.24113026634
 41
0.25
 42
0.25
 43
0.25
 50
0.00
  0
ATTRIB
  5
13E
100
AcDbEntity
  8
osnowa
100
AcDbText
 10
7567128.48966660257
 20
5717114.24113026634
 40
0.2
  1
S103
 50
0.00
 41
0.62
 51
0.00
  7
STANDARD
100
AcDbAttribute
  2
Nr
 70
0
  0
SEQEND
  5
13F
100
AcDbEntity
  8
osnowa
  0
INSERT
  5
140
100
AcDbEntity
  8
osnowa
  6
CONTINUOUS
100
AcDbBlockReference
 66
1
  2
pikieta
 10
7567155.761792887
 20
5717188.32840505429
 30
141.884
 41
0.25
 42
0.25
 43
0.25
 50
0.00
  0
ATTRIB
  5
141
100
AcDbEntity
  8
osnowa
100
AcDbText
 10
7567155.761792887
 20
5717188.32840505429
 30
141.884
 40
0.2
  1
S102
 50
0.00
 41
0.62
 51
0.00
  7
STANDARD
100
AcDbAttribute
  2
Nr
 70
0
  0
SEQEND
  5
142
100
AcDbEntity
  8
osnowa
  0
INSERT
  5
143
100
AcDbEntity
  8
osnowa
  6
CONTINUOUS
100
AcDbBlockReference
 66
1
  2
pikieta
 10
7567072.73563740123
 20
5717098.51882975828
 30
139.679
 41
0.25
 42
0.25
 43
0.25
 50
0.00
  0
ATTRIB
  5
144
100
AcDbEntity
  8
osnowa
100
AcDbText
 10
7567072.73563740123
 20
5717098.51882975828
 30
139.679
 40
0.2
  1
S105
 50
0.00
 41
0.62
 51
0.00
  7
STANDARD
100
AcDbAttribute
  2
Nr
 70
0
  0
SEQEND
  5
145
100
AcDbEntity
  8
osnowa
  0
INSERT
  5
146
100
AcDbEntity
  8
pkt_bud
  6
CONTINUOUS
100
AcDbBlockReference
 66
1
  2
pikieta
 10
7567103.92069996707
 20
5717138.00934271421
 41
0.25
 42
0.25
 43
0.25
 50
0.00
  0
ATTRIB
  5
147
100
AcDbEntity
  8
pkt_bud
100
AcDbText
 10
7567103.92069996707
 20
5717138.00934271421
 40
0.2
  1
B1
 50
0.00
 41
0.62
 51
0.00
  7
STANDARD
100
AcDbAttribute
  2
Nr
 70
0
  0
SEQEND
  5
148
100
AcDbEntity
  8
pkt_bud
  0
INSERT
  5
149
100
AcDbEntity
  8
pkt_bud
  6
CONTINUOUS
100
AcDbBlockReference
 66
1
  2
pikieta
 10
7567110.76587472949
 20
5717145.29900934361
 41
0.25
 42
0.25
 43
0.25
 50
0.00
  0
ATTRIB
  5
14A
100
AcDbEntity
  8
pkt_bud
100
AcDbText
 10
7567110.76587472949
 20
5717145.29900934361
 40
0.2
  1
B2
 50
0.00
 41
0.62
 51
0.00
  7
STANDARD
100
AcDbAttribute
  2
Nr
 70
0
  0
SEQEND
  5
14B
100
AcDbEntity
  8
pkt_bud
  0
INSERT
  5
14C
100
AcDbEntity
  8
pkt_bud
  6
CONTINUOUS
100
AcDbBlockReference
 66
1
  2
pikieta
 10
7567104.20517476276
 20
5717151.45966662932
 41
0.25
 42
0.25
 43
0.25
 50
0.00
  0
ATTRIB
  5
14D
100
AcDbEntity
  8
pkt_bud
100
AcDbText
 10
7567104.20517476276
 20
5717151.45966662932
 40
0.2
  1
B3
 50
0.00
 41
0.62
 51
0.00
  7
STANDARD
100
AcDbAttribute
  2
Nr
 70
0
  0
SEQEND
  5
14E
100
AcDbEntity
  8
pkt_bud
  0
INSERT
  5
14F
100
AcDbEntity
  8
pkt_bud
  6
CONTINUOUS
100
AcDbBlockReference
 66
1
  2
pikieta
 10
7567097.36000000034
 20
5717144.16999999993
 41
0.25
 42
0.25
 43
0.25
 50
0.00
  0
ATTRIB
  5
150
100
AcDbEntity
  8
pkt_bud
100
AcDbText
 10
7567097.36000000034
 20
5717144.16999999993
 40
0.2
  1
B4
 50
0.00
 41
0.62
 51
0.00
  7
STANDARD
100
AcDbAttribute
  2
Nr
 70
0
  0
SEQEND
  5
151
100
AcDbEntity
  8
pkt_bud
  0
TEXT
  5
152
100
AcDbEntity
  8
budynki
370
15
100
AcDbText
 39
0.15
 10
7567107.28004913312
 20
5717149.08756142389
 40
0.38
  1
-9.000-
 50
-43.00
 41
0.66
  7
STANDARD
100
AcDbText
  0
TEXT
  5
153
100
AcDbEntity
  8
budynki
370
15
100
AcDbText
 39
0.15
 10
7567100.16138555575
 20
5717147.36861779261
 40
0.38
  1
-10.000-
 50
-313.00
 41
0.66
  7
STANDARD
100
AcDbText
  0
TEXT
  5
154
100
AcDbEntity
  8
budynki
370
15
100
AcDbText
 39
0.15
 10
7567099.02004913334
 20
5717140.73756142426
 40
0.38
  1
-9.000-
 50
-43.00
 41
0.66
  7
STANDARD
100
AcDbText
  0
TEXT
  5
155
100
AcDbEntity
  8
budynki
370
15
100
AcDbText
 39
0.15
 10
7567107.78850123007
 20
5717140.48148472421
 40
0.38
  1
-10.000-
 50
-313.00
 41
0.66
  7
STANDARD
100
AcDbText
  0
TEXT
  5
156
100
AcDbEntity
  8
budynki
370
5
100
AcDbText
 39
0.05
 10
7567105.16122749914
 20
5717144.9607127551
 40
0.17
  1
-13.453-
 50
-355.20
 41
0.66
  7
STANDARD
100
AcDbText
  0
TEXT
  5
157
100
AcDbEntity
  8
budynki
370
5
100
AcDbText
 39
0.05
 10
7567104.1026701536
 20
5717143.01007676125
 40
0.17
  1
-13.454-
 50
-271.20
 41
0.66
  7
STANDARD
100
AcDbText
  0
TEXT
  5
158
100
AcDbEntity
  8
granice
370
25
100
AcDbText
 39
0.25
 10
7567103.66249999963
 20
5717153.67750000022
 40
0.63
  1
12-688
 50
0.00
 41
0.66
  7
STANDARD
100
AcDbText
  0
TEXT
  5
159
100
AcDbEntity
  8
rzutowanie_budynku_na_granice
370
18
100
AcDbText
 39
0.18
 10
7567106.91632449161
 20
5717134.88550146949
 40
0.45
  1
50.07
 50
316.80
 41
0.66
  7
STANDARD
100
AcDbText
  0
TEXT
  5
15A
100
AcDbEntity
  8
rzutowanie_budynku_na_granice
370
18
100
AcDbText
 39
0.18
 10
7567105.29035639111
 20
5717136.96902025584
 40
0.45
  1
4.32
 50
316.80
 41
0.66
  7
STANDARD
100
AcDbText
  0
TEXT
  5
15B
100
AcDbEntity
  8
rzutowanie_budynku_na_granice
370
18
100
AcDbText
 39
0.18
 10
7567113.76666541491
 20
5717142.17518109269
 40
0.45
  1
60.08
 50
316.80
 41
0.66
  7
STANDARD
100
AcDbText
  0
TEXT
  5
15C
100
AcDbEntity
  8
rzutowanie_budynku_na_granice
370
18
100
AcDbText
 39
0.18
 10
7567112.14052685257
 20
5717144.25886006746
 40
0.45
  1
4.32
 50
316.80
 41
0.66
  7
STANDARD
100
AcDbText
  0
TEXT
  5
15D
100
AcDbEntity
  8
rzutowanie_budynku_na_granice
370
18
100
AcDbText
 39
0.18
 10
7567086.49014225882
 20
5717152.79288331699
 40
0.45
  1
14.92
 50
316.40
 41
0.66
  7
STANDARD
100
AcDbText
  0
TEXT
  5
15E
100
AcDbEntity
  8
rzutowanie_budynku_na_granice
370
18
100
AcDbText
 39
0.18
 10
7567092.39624904841
 20
5717149.13858623896
 40
0.45
  1
12.92
 50
316.40
 41
0.66
  7
STANDARD
100
AcDbText
  0
TEXT
  5
15F
100
AcDbEntity
  8
rzutowanie_budynku_na_granice
370
18
100
AcDbText
 39
0.18
 10
7567093.52014225908
 20
5717160.03288331721
 40
0.45
  1
24.92
 50
316.40
 41
0.66
  7
STANDARD
100
AcDbText
  0
TEXT
  5
160
100
AcDbEntity
  8
rzutowanie_budynku_na_granice
370
18
100
AcDbText
 39
0.18
 10
7567099.26763567422
 20
5717156.40825151093
 40
0.45
  1
12.86
 50
316.40
 41
0.66
  7
STANDARD
100
AcDbText
  0
TEXT
  5
161
100
AcDbEntity
  8
wymiary_scian
370
5
100
AcDbText
 39
0.05
 10
7567107.4436517898
 20
5717144.57846889552
 40
0.13
  1
-2.821-
 50
-43.20
 41
0.66
  7
STANDARD
100
AcDbText
  0
TEXT
  5
162
100
AcDbEntity
  8
wymiary_scian
370
5
100
AcDbText
 39
0.05
 10
7567106.07853110507
 20
5717144.90165178943
 40
0.13
  1
-0.911-
 50
-313.20
 41
0.66
  7
STANDARD
100
AcDbText
  0
TEXT
  5
163
100
AcDbEntity
  8
wymiary_scian
370
5
100
AcDbText
 39
0.05
 10
7567105.7196517894
 20
5717144.94846889563
 40
0.13
  1
-0.200-
 50
-43.20
 41
0.66
  7
STANDARD
100
AcDbText
  0
TEXT
  5
164
100
AcDbEntity
  8
wymiary_scian
370
5
100
AcDbText
 39
0.05
 10
7567105.93253110442
 20
5717145.03865178954
 40
0.13
  1
-0.911-
 50
-313.20
 41
0.66
  7
STANDARD
100
AcDbText
  0
TEXT
  5
165
100
AcDbEntity
  8
wymiary_scian
370
5
100
AcDbText
 39
0.05
 10
7567105.81015178934
 20
5717146.11196889542
 40
0.13
  1
-1.260-
 50
-43.20
 41
0.66
  7
STANDARD
100
AcDbText
  0
TEXT
  5
166
100
AcDbEntity
  8
wymiary_scian
370
5
100
AcDbText
 39
0.05
 10
7567104.64053110406
 20
5717145.50365178939
 40
0.13
  1
-2.000-
 50
-313.20
 41
0.66
  7
STANDARD
100
AcDbText
  0
TEXT
  5
167
100
AcDbEntity
  8
wymiary_scian
370
5
100
AcDbText
 39
0.05
 10
7567106.37215178926
 20
5717145.84496889543
 40
0.13
  1
-2.446-
 50
-43.20
 41
0.66
  7
STANDARD
100
AcDbText
  0
TEXT
  5
168
100
AcDbEntity
  8
wymiary_scian
370
5
100
AcDbText
 39
0.05
 10
7567107.39353110455
 20
5717144.86315178964
 40
0.13
  1
-0.454-
 50
-313.20
 41
0.66
  7
STANDARD
100
AcDbText
  0
TEXT
  5
169
100
AcDbEntity
  8
wymiary_scian
370
5
100
AcDbText
 39
0.05
 10
7567107.86635884643
 20
5717145.06522019487
 40
0.13
  1
-0.800-
 50
-43.10
 41
0.66
  7
STANDARD
100
AcDbText
  0
TEXT
  5
16A
100
AcDbEntity
  8
wymiary_scian
370
5
100
AcDbText
 39
0.05
 10
7567107.97703110427
 20
5717144.31565179024
 40
0.13
  1
-0.456-
 50
-313.20
 41
0.66
  7
STANDARD
100
AcDbText
  0
TEXT
  5
16B
100
AcDbEntity
  8
wymiary_scian
370
5
100
AcDbText
 39
0.05
 10
7567108.22415178921
 20
5717144.10596889537
 40
0.13
  1
-1.035-
 50
-43.20
 41
0.66
  7
STANDARD
100
AcDbText
  0
TEXT
  5
16C
100
AcDbEntity
  8
wymiary_scian
370
5
100
AcDbText
 39
0.05
 10
7567105.54215178918
 20
5717143.61996889487
 40
0.13
  1
-4.281-
 50
-43.20
 41
0.66
  7
STANDARD
100
AcDbText
  0
TEXT
  5
16D
100
AcDbEntity
  8
wymiary_scian
370
5
100
AcDbText
 39
0.05
 10
7567105.05865178909
 20
5717143.81346889585
 40
0.13
  1
-5.251-
 50
-43.20
 41
0.66
  7
STANDARD
100
AcDbText
  0
TEXT
  5
16E
100
AcDbEntity
  8
wymiary_scian
370
5
100
AcDbText
 39
0.05
 10
7567102.88103110436
 20
5717145.04715179
 40
0.13
  1
-0.695-
 50
-313.20
 41
0.66
  7
STANDARD
100
AcDbText
  0
TEXT
  5
16F
100
AcDbEntity
  8
wymiary_scian
370
5
100
AcDbText
 39
0.05
 10
7567101.52065178938
 20
5717146.18196889572
 40
0.13
  1
-3.150-
 50
-43.20
 41
0.66
  7
STANDARD
100
AcDbText
  0
TEXT
  5
170
100
AcDbEntity
  8
wymiary_scian
370
5
100
AcDbText
 39
0.05
 10
7567101.4101517899
 20
5717146.54596889578
 40
0.13
  1
-2.490-
 50
-43.20
 41
0.66
  7
STANDARD
100
AcDbText
  0
TEXT
  5
171
100
AcDbEntity
  8
wymiary_scian
370
5
100
AcDbText
 39
0.05
 10
7567102.53003110457
 20
5717145.63715178985
 40
0.13
  1
-0.695-
 50
-313.20
 41
0.66
  7
STANDARD
100
AcDbText
  0
TEXT
  5
172
100
AcDbEntity
  8
wymiary_scian
370
5
100
AcDbText
 39
0.05
 10
7567103.31865178887
 20
5717145.70796889532
 40
0.13
  1
-1.440-
 50
-43.20
 41
0.66
  7
STANDARD
100
AcDbText
  0
TEXT
  5
173
100
AcDbEntity
  8
wymiary_scian
370
5
100
AcDbText
 39
0.05
 10
7567105.36653110385
 20
5717146.55415178929
 40
0.13
  1
-4.525-
 50
-313.20
 41
0.66
  7
STANDARD
100
AcDbText
  0
TEXT
  5
174
100
AcDbEntity
  8
wymiary_scian
370
5
100
AcDbText
 39
0.05
 10
7567106.25453110412
 20
5717147.2226517899
 40
0.13
  1
-2.335-
 50
-313.20
 41
0.66
  7
STANDARD
100
AcDbText
  0
TEXT
  5
175
100
AcDbEntity
  8
wymiary_scian
370
5
100
AcDbText
 39
0.05
 10
7567103.91294516716
 20
5717145.15021708421
 40
0.13
  1
-0.190-
 50
-43.30
 41
0.66
  7
STANDARD
100
AcDbText
  0
TEXT
  5
176
100
AcDbEntity
  8
wymiary_scian
370
5
100
AcDbText
 39
0.05
 10
7567100.41178291664
 20
5717147.01894516777
 40
0.13
  1
-0.190-
 50
-313.30
 41
0.66
  7
STANDARD
100
AcDbText
  0
TEXT
  5
177
100
AcDbEntity
  8
wymiary_scian
370
5
100
AcDbText
 39
0.05
 10
7567105.34353110474
 20
5717139.99815178942
 40
0.13
  1
-4.685-
 50
-313.20
 41
0.66
  7
STANDARD
100
AcDbText
  0
TEXT
  5
178
100
AcDbEntity
  8
wymiary_scian
370
5
100
AcDbText
 39
0.05
 10
7567107.0122798048
 20
5717141.77485884726
 40
0.13
  1
-0.190-
 50
-313.10
 41
0.66
  7
STANDARD
100
AcDbText
  0
TEXT
  5
179
100
AcDbEntity
  8
wymiary_scian
370
5
100
AcDbText
 39
0.05
 10
7567107.76153110526
 20
5717142.57365178969
 40
0.13
  1
-2.000-
 50
-313.20
 41
0.66
  7
STANDARD
100
AcDbText
  0
TEXT
  5
17A
100
AcDbEntity
  8
wymiary_scian
370
5
100
AcDbText
 39
0.05
 10
7567108.51127980463
 20
5717143.3718588464
 40
0.13
  1
-0.190-
 50
-313.10
 41
0.66
  7
STANDARD
100
AcDbText
  0
TEXT
  5
17B
100
AcDbEntity
  8
wymiary_scian
370
5
100
AcDbText
 39
0.05
 10
7567109.37503110431
 20
5717144.29265179019
 40
0.13
  1
-2.335-
 50
-313.20
 41
0.66
  7
STANDARD
100
AcDbText
  0
TEXT
  5
17C
100
AcDbEntity
  8
wymiary_scian
370
5
100
AcDbText
 39
0.05
 10
7567108.63965178933
 20
5717146.91896889545
 40
0.13
  1
-4.280-
 50
-43.20
 41
0.66
  7
STANDARD
100
AcDbText
  0
TEXT
  5
17D
100
AcDbEntity
  8
wymiary_scian
370
5
100
AcDbText
 39
0.05
 10
7567107.00985884666
 20
5717148.4487201944
 40
0.13
  1
-0.190-
 50
-43.10
 41
0.66
  7
STANDARD
100
AcDbText
  0
TEXT
  5
17E
100
AcDbEntity
  8
wymiary_scian
370
5
100
AcDbText
 39
0.05
 10
7567106.16415178962
 20
5717149.24296889454
 40
0.13
  1
-2.130-
 50
-43.20
 41
0.66
  7
STANDARD
100
AcDbText
  0
TEXT
  5
17F
100
AcDbEntity
  8
wymiary_scian
370
5
100
AcDbText
 39
0.05
 10
7567104.45503110439
 20
5717148.6956517892
 40
0.13
  1
-2.650-
 50
-313.20
 41
0.66
  7
STANDARD
100
AcDbText
  0
TEXT
  5
180
100
AcDbEntity
  8
wymiary_scian
370
5
100
AcDbText
 39
0.05
 10
7567102.91765179019
 20
5717148.65596889518
 40
0.13
  1
-1.800-
 50
-43.20
 41
0.66
  7
STANDARD
100
AcDbText
  0
TEXT
  5
181
100
AcDbEntity
  8
wymiary_scian
370
5
100
AcDbText
 39
0.05
 10
7567101.35653110407
 20
5717148.02465179004
 40
0.13
  1
-2.570-
 50
-313.20
 41
0.66
  7
STANDARD
100
AcDbText
  0
TEXT
  5
182
100
AcDbEntity
  8
wymiary_scian
370
5
100
AcDbText
 39
0.05
 10
7567098.98153110407
 20
5717145.49515178986
 40
0.13
  1
-3.990-
 50
-313.20
 41
0.66
  7
STANDARD
100
AcDbText
  0
TEXT
  5
183
100
AcDbEntity
  8
wymiary_scian
370
5
100
AcDbText
 39
0.05
 10
7567100.70365178958
 20
5717141.47596889548
 40
0.13
  1
-8.400-
 50
-43.20
 41
0.66
  7
STANDARD
100
AcDbText
  0
ENDSEC
  0
SECTION
  2
OBJECTS
  0
DICTIONARY
  5
184
330
0
100
AcDbDictionary
280
0
281
1
  3
ACAD_GROUP
350
185
  3
ACAD_LAYOUT
350
186
  3
ACAD_MLINESTYLE
350
187
  3
ACAD_PLOTSETTINGS
350
188
  3
ACAD_PLOTSTYLENAME
350
189
  0
DICTIONARY
  5
185
102
{ACAD_REACTORS
330
184
102
}
330
184
100
AcDbDictionary
280
0
281
1
  0
DICTIONARY
  5
186
102
{ACAD_REACTORS
330
184
102
}
330
184
100
AcDbDictionary
280
0
281
1
  3
Layout
350
25
  3
Model
350
23
  0
DICTIONARY
  5
187
102
{ACAD_REACTORS
330
184
102
}
330
184
100
AcDbDictionary
280
0
281
1
  3
Standard
350
18A
  3
L_0_02_M
350
8
  0
DICTIONARY
  5
188
102
{ACAD_REACTORS
330
184
102
}
330
184
100
AcDbDictionary
280
0
281
1
  0
ACDBDICTIONARYWDFLT
  5
189
102
{ACAD_REACTORS
330
184
102
}
330
184
100
AcDbDictionary
281
1
  3
Normal
350
E
100
AcDbDictionaryWithDefault
340
E
  0
LAYOUT
  5
25
100
AcDbPlotSettings
  1

  2

  4

  6

 40
0.0
 41
0.0
 42
0.0
 43
0.0
 44
0.0
 45
0.0
 46
0.0
 47
0.0
 48
0.0
 49
0.0
140
0.0
141
0.0
142
1.0
143
1.0
 70
688
 72
1
 73
0
 74
5
  7

 75
0
147
1.0
148
0.0
149
0.0
100
AcDbLayout
  1
Layout
 70
1
 71
1
 10
0.0
 20
0.0
 11
420.0
 21
297.0
 12
0.0
 22
0.0
 32
0.0
 14
100000000000000000000.0
 24
100000000000000000000.0
 34
100000000000000000000.0
 15
-100000000000000000000.0
 25
-100000000000000000000.0
 35
-100000000000000000000.0
146
0.0
 13
0.0
 23
0.0
 33
0.0
 16
1.0
 26
0.0
 36
0.0
 17
0.0
 27
1.0
 37
0.0
 76
0
330
24
  0
LAYOUT
  5
23
100
AcDbPlotSettings
  1

  2

  4

  6

 40
0.0
 41
0.0
 42
0.0
 43
0.0
 44
0.0
 45
0.0
 46
0.0
 47
0.0
 48
0.0
 49
0.0
140
0.0
141
0.0
142
1.0
143
1.0
 70
1712
 72
1
 73
0
 74
0
  7

 75
0
147
1.0
148
0.0
149
0.0
100
AcDbLayout
  1
Model
 70
1
 71
0
 10
0.0
 20
0.0
 11
12.0
 21
9.0
 12
0.0
 22
0.0
 32
0.0
 14
0.0
 24
0.0
 34
0.0
 15
0.0
 25
0.0
 35
0.0
146
0.0
 13
0.0
 23
0.0
 33
0.0
 16
1.0
 26
0.0
 36
0.0
 17
0.0
 27
1.0
 37
0.0
 76
0
330
22
  0
MLINESTYLE
  5
18A
102
{ACAD_REACTORS
330
187
102
}
330
187
100
AcDbMlineStyle
  2
Standard
 70
0
  3

 62
256
 51
90.0
 52
90.0
  2
Standard
 71
2
 49
0.5
 62
256
  6
ByLayer
 49
-0.5
 62
256
  6
ByLayer
  0
MLINESTYLE
  5
8
100
AcDbMlineStyle
  2
L_0_02_M
 70
0
  3

 51
90.0
 52
90.0
 71
1
 49
0.0
 62
256
  6
CONTINUOUS
  0
ACDBPLACEHOLDER
  5
E
  0
ENDSEC
  0
EOF
