  0
SECTION
  2
HEADER
  9
$ACADVER
  1
AC1018
  9
$HANDSEED
  5
FFFFFF
  9
$EXTMAX
 10
7567122.49500000011
 20
5717165.61099999957
 30
1000000.00
  9
$EXTMIN
 10
7567096.01499999966
 20
5717130.01099999994
 30
0.00
  9
$LIMMIN
 10
7567096.01499999966
 20
5717130.01099999994
  9
$LIMMAX
 10
7567122.49500000011
 20
5717165.61099999957
  9
$DIMASZ
 40
2.5
  9
$DIMGAP
 40
0.625
  9
$INSUNITS
 70
6
  9
$DIMEXO
 40
0.625
  9
$DIMTXT
 40
2.5
  9
$DIMSTYLE
  2
Standard
  9
$PLIMMIN
 10
0.0
 20
0.0
  9
$PLIMMAX
 10
210.0
 20
297.0
  9
$DIMEXE
 40
1.25
  9
$TEXTSIZE
 40
2.5
  9
$TEXTSTYLE
  7
Standard
  9
$LWDISPLAY
290
1
  9
$TDCREATE
 40
45099.529558553
  9
$TDUCREATE
 40
45099.446225220
  9
$TDUPDATE
 40
45099.529558553
  9
$TDUUPDATE
 40
45099.446225220
  9
$TDINDWG
 40
0.0
  9
$TDUSRTIMER
 40
0.0
  9
$USRTIMER
 70
1
  0
ENDSEC
  0
SECTION
  2
TABLES
  0
TABLE
  2
VPORT
  5
1
100
AcDbSymbolTable
 70
1
  0
VPORT
  5
2
100
AcDbSymbolTableRecord
100
AcDbViewportTableRecord
  2
*ACTIVE
 70
0
 10
0.0
 20
0.0
 11
1.0
 21
1.0
 12
7567109.255
 22
5717147.811
 13
0.0
 23
0.0
 14
1.0
 24
1.0
 15
0.0
 25
0.0
 16
0.0
 26
0.0
 36
1.0
 17
0.0
 27
0.0
 37
0.0
 40
35.600
 41
0.744
 42
50.0
 43
0.0
 44
0.0
 50
0.0
 51
0.0
 71
0
 72
100
 73
1
 74
1
 75
0
 76
0
 77
0
 78
0
  0
ENDTAB
  0
TABLE
  2
LTYPE
  5
3
100
AcDbSymbolTable
 70
3
  0
LTYPE
  5
4
100
AcDbSymbolTableRecord
100
AcDbLinetypeTableRecord
  2
ByBlock
 70
0
  3

 72
65
 73
0
 40
0.0
  0
LTYPE
  5
5
100
AcDbSymbolTableRecord
100
AcDbLinetypeTableRecord
  2
ByLayer
 70
0
  3

 72
65
 73
0
 40
0.0
  0
LTYPE
  5
6
100
AcDbSymbolTableRecord
100
AcDbLinetypeTableRecord
  2
CONTINUOUS
 70
0
  3
Solid line
 72
65
 73
0
 40
0.0
  0
LTYPE
  5
8
100
AcDbSymbolTableRecord
100
AcDbLinetypeTableRecord
  2
L_0_02
 70
0
  3
Dzialka_ewidencyjna (MLineStyle)
 72
65
 73
0
 40
0.0
  0
LTYPE
  5
9
100
AcDbSymbolTableRecord
100
AcDbLinetypeTableRecord
  2
L_0_03
 70
0
  3
Uzytek_gruntowy
 72
65
 73
2
 40
0.5
 49
0.25
 74
0
 49
-0.25
 74
0
  0
LTYPE
  5
A
100
AcDbSymbolTableRecord
100
AcDbLinetypeTableRecord
  2
L_0_04
 70
0
  3
Budynek_projektowany
 72
65
 73
2
 40
0.75
 49
0.5
 74
0
 49
-0.25
 74
0
  0
LTYPE
  5
B
100
AcDbSymbolTableRecord
100
AcDbLinetypeTableRecord
  2
L_0_14
 70
0
  3
Zywoplot
 72
65
 73
7
 40
1.25
 49
0.0
 74
0
 49
-0.125
 74
4
 75
1
340
C
 46
0.025
 50
0.0
 44
0.0
 45
0.0
 49
-0.25
 74
4
 75
2
340
C
 46
0.025
 50
0.0
 44
0.0
 45
0.0
 49
-0.25
 74
4
 75
3
340
C
 46
0.025
 50
0.0
 44
0.0
 45
0.0
 49
-0.25
 74
4
 75
4
340
C
 46
0.025
 50
0.0
 44
0.0
 45
0.0
 49
-0.25
 74
4
 75
5
340
C
 46
0.025
 50
0.0
 44
0.0
 45
0.0
 49
-0.125
 74
0
  0
LTYPE
  5
D
100
AcDbSymbolTableRecord
100
AcDbLinetypeTableRecord
  2
L_0_23_SHX
 70
0
  3
Jaz__prog_wodny
 72
65
 73
3
 40
0.375
 49
0.0
 74
0
 49
-0.1875
 74
4
 75
6
340
C
 46
0.025
 50
0.0
 44
0.0
 45
0.0
 49
-0.1875
 74
0
  0
LTYPE
  5
F
100
AcDbSymbolTableRecord
100
AcDbLinetypeTableRecord
  2
L_0_23
 70
0
  3
Jaz__prog_wodny (MLineStyle)
 72
65
 73
0
 40
0.0
  0
LTYPE
  5
10
100
AcDbSymbolTableRecord
100
AcDbLinetypeTableRecord
  2
L_0_45
 70
0
  3
Uzytek_gruntowy_1_5000
 72
65
 73
2
 40
0.25
 49
0.125
 74
0
 49
-0.125
 74
0
  0
LTYPE
  5
11
100
AcDbSymbolTableRecord
100
AcDbLinetypeTableRecord
  2
L_0_4B
 70
0
  3
L_0_4B
 72
65
 73
4
 40
0.55
 49
0.375
 74
0
 49
-0.0875
 74
0
 49
0.0
 74
0
 49
-0.0875
 74
0
  0
LTYPE
  5
12
100
AcDbSymbolTableRecord
100
AcDbLinetypeTableRecord
  2
L_0_6D
 70
0
  3
L_0_6D
 72
65
 73
6
 40
0.95
 49
0.0
 74
0
 49
-0.11875
 74
4
 75
7
340
C
 46
0.025
 50
0.0
 44
0.0
 45
0.0
 49
-0.2375
 74
4
 75
8
340
C
 46
0.025
 50
0.0
 44
0.0
 45
0.0
 49
-0.2375
 74
4
 75
9
340
C
 46
0.025
 50
0.0
 44
0.0
 45
0.0
 49
-0.2375
 74
4
 75
10
340
C
 46
0.025
 50
0.0
 44
0.0
 45
0.0
 49
-0.11875
 74
0
  0
LTYPE
  5
13
100
AcDbSymbolTableRecord
100
AcDbLinetypeTableRecord
  2
L_0_9C_SHX
 70
0
  3
Wyciag_narciarski_1_500
 72
65
 73
6
 40
1.0
 49
0.0
 74
0
 49
-0.125
 74
0
 49
-0.25
 74
4
 75
11
340
C
 46
0.025
 50
0.0
 44
0.0
 45
0.0
 49
-0.25
 74
4
 75
12
340
C
 46
0.025
 50
0.0
 44
0.0
 45
0.0
 49
-0.25
 74
0
 49
-0.125
 74
0
  0
LTYPE
  5
15
100
AcDbSymbolTableRecord
100
AcDbLinetypeTableRecord
  2
L_0_9C
 70
0
  3
Wyciag_narciarski_1_500 (MLineStyle)
 72
65
 73
0
 40
0.0
  0
ENDTAB
  0
TABLE
  2
LAYER
  5
16
100
AcDbSymbolTable
 70
3
  0
LAYER
  5
17
100
AcDbSymbolTableRecord
100
AcDbLayerTableRecord
  2
0
 70
0
420
0
  6
CONTINUOUS
370
18
390
18
  0
LAYER
  5
19
100
AcDbSymbolTableRecord
100
AcDbLayerTableRecord
  2
projekt_kraw
 70
0
420
13762770
  6
CONTINUOUS
370
18
390
18
  0
LAYER
  5
1A
100
AcDbSymbolTableRecord
100
AcDbLayerTableRecord
  2
projekt_kraw_obnizony
 70
0
420
255
  6
CONTINUOUS
370
35
390
18
  0
ENDTAB
  0
TABLE
  2
STYLE
  5
1B
100
AcDbSymbolTable
 70
3
  0
STYLE
  5
1C
100
AcDbSymbolTableRecord
100
AcDbTextStyleTableRecord
  2
STANDARD
 70
0
 40
0.0
 41
1.0
 50
0.0
 71
0
  3
simplex.shx
  4

  0
STYLE
  5
1D
100
AcDbSymbolTableRecord
100
AcDbTextStyleTableRecord
  2
STANDARD_ITALIC
 70
0
 40
0.0
 41
1.0
 50
15.0
 71
0
  3
simplex.shx
  4

  0
STYLE
  5
C
100
AcDbSymbolTableRecord
100
AcDbTextStyleTableRecord
  2

 70
1
 40
0.0
 41
0.025
 50
0.0
 71
0
  3
proj_kraw_wokol_ronda.shx
  4

  0
ENDTAB
  0
TABLE
  2
VIEW
  5
1E
100
AcDbSymbolTable
 70
0
  0
ENDTAB
  0
TABLE
  2
UCS
  5
1F
100
AcDbSymbolTable
 70
0
  0
ENDTAB
  0
TABLE
  2
APPID
  5
20
100
AcDbSymbolTable
 70
1
  0
APPID
  5
21
100
AcDbSymbolTableRecord
100
AcDbRegAppTableRecord
  2
ACAD
 70
0
  0
ENDTAB
  0
TABLE
  2
DIMSTYLE
  5
22
100
AcDbSymbolTable
 70
1
100
AcDbDimStyleTable
  0
DIMSTYLE
105
23
100
AcDbSymbolTableRecord
100
AcDbDimStyleTableRecord
  2
Standard
 70
0
340
1C
  0
ENDTAB
  0
TABLE
  2
BLOCK_RECORD
  5
24
100
AcDbSymbolTable
 70
9
  0
BLOCK_RECORD
  5
25
100
AcDbSymbolTableRecord
100
AcDbBlockTableRecord
  2
*Model_Space
340
26
  0
BLOCK_RECORD
  5
27
100
AcDbSymbolTableRecord
100
AcDbBlockTableRecord
  2
*Paper_Space
340
28
  0
BLOCK_RECORD
  5
29
100
AcDbSymbolTableRecord
100
AcDbBlockTableRecord
  2
GRT
340
2A
  0
BLOCK_RECORD
  5
2B
100
AcDbSymbolTableRecord
100
AcDbBlockTableRecord
  2
GRO
340
2C
  0
BLOCK_RECORD
  5
2D
100
AcDbSymbolTableRecord
100
AcDbBlockTableRecord
  2
WLZ
340
2E
  0
BLOCK_RECORD
  5
2F
100
AcDbSymbolTableRecord
100
AcDbBlockTableRecord
  2
DIG
340
30
  0
BLOCK_RECORD
  5
31
100
AcDbSymbolTableRecord
100
AcDbBlockTableRecord
  2
DLI
340
32
  0
BLOCK_RECORD
  5
33
100
AcDbSymbolTableRecord
100
AcDbBlockTableRecord
  2
L_0_02_1
340
34
  0
BLOCK_RECORD
  5
35
100
AcDbSymbolTableRecord
100
AcDbBlockTableRecord
  2
L_0_02_2
340
36
  0
ENDTAB
  0
ENDSEC
  0
SECTION
  2
BLOCKS
  0
BLOCK
  5
37
100
AcDbEntity
  8
0
100
AcDbBlockBegin
  2
*Model_Space
 70
0
 10
0.0
 20
0.0
 30
0.0
  3
*Model_Space
  1

  0
ENDBLK
  5
38
100
AcDbEntity
  8
0
100
AcDbBlockEnd
  0
BLOCK
  5
39
100
AcDbEntity
 67
1
  8
0
100
AcDbBlockBegin
  2
*Paper_Space
 70
0
 10
0.0
 20
0.0
 30
0.0
  3
*Paper_Space
  1

  0
ENDBLK
  5
3A
100
AcDbEntity
 67
1
  8
0
100
AcDbBlockEnd
  0
BLOCK
  5
2A
100
AcDbEntity
  8
0
100
AcDbBlockBegin
 62
0
370
13
  2
GRT
 70
0
 10
0
 20
0
 30
0
  3
GRT
  0
HATCH
  5
3B
100
AcDbEntity
  8
0
  6
CONTINUOUS
420
16777215
370
18
100
AcDbHatch
 10
0.0
 20
0.0
 30
0.0
210
0.0
220
0.0
230
1.0
  2
SOLID
 70
1
 71
1
 91
1
 92
3
 72
1
 73
1
 93
2
 10
0.0
 20
-0.5
 42
1.0
 10
0.0
 20
0.5
 42
1.0
 97
0
 75
0
 76
1
 98
0
  0
CIRCLE
  5
3C
100
AcDbEntity
  8
0
  6
CONTINUOUS
 62
0
370
18
100
AcDbCircle
 10
0.0
 20
-0.0
 40
0.5
  0
ENDBLK
  5
3D
100
AcDbEntity
  8
0
100
AcDbBlockEnd
  0
BLOCK
  5
2C
100
AcDbEntity
  8
0
100
AcDbBlockBegin
 62
0
370
13
  2
GRO
 70
0
 10
0
 20
0
 30
0
  3
GRO
  0
HATCH
  5
3E
100
AcDbEntity
  8
0
  6
CONTINUOUS
 62
0
370
13
100
AcDbHatch
 10
0.0
 20
0.0
 30
0.0
210
0.0
220
0.0
230
1.0
  2
SOLID
 70
1
 71
1
 91
1
 92
3
 72
1
 73
1
 93
2
 10
0.0
 20
-0.1
 42
1.0
 10
0.0
 20
0.1
 42
1.0
 97
0
 75
0
 76
1
 98
0
  0
CIRCLE
  5
3F
100
AcDbEntity
  8
0
  6
CONTINUOUS
 62
0
370
13
100
AcDbCircle
 10
0.0
 20
-0.0
 40
0.1
  0
ENDBLK
  5
40
100
AcDbEntity
  8
0
100
AcDbBlockEnd
  0
BLOCK
  5
2E
100
AcDbEntity
  8
0
100
AcDbBlockBegin
 62
0
370
13
  2
WLZ
 70
0
 10
0
 20
0
 30
0
  3
WLZ
  0
HATCH
  5
41
100
AcDbEntity
  8
0
  6
CONTINUOUS
420
16777215
370
18
100
AcDbHatch
 10
0.0
 20
0.0
 30
0.0
210
0.0
220
0.0
230
1.0
  2
SOLID
 70
1
 71
1
 91
1
 92
3
 72
1
 73
1
 93
2
 10
0.0
 20
-0.5
 42
1.0
 10
0.0
 20
0.5
 42
1.0
 97
0
 75
0
 76
1
 98
0
  0
CIRCLE
  5
42
100
AcDbEntity
  8
0
  6
CONTINUOUS
 62
0
370
18
100
AcDbCircle
 10
0.0
 20
-0.0
 40
0.5
  0
ENDBLK
  5
43
100
AcDbEntity
  8
0
100
AcDbBlockEnd
  0
BLOCK
  5
30
100
AcDbEntity
  8
0
100
AcDbBlockBegin
 62
0
370
13
  2
DIG
 70
0
 10
0
 20
0
 30
0
  3
DIG
  0
POLYLINE
  5
44
100
AcDbEntity
  8
0
  6
CONTINUOUS
 62
0
370
18
100
AcDb2dPolyline
 66
1
 70
128
  0
VERTEX
  5
45
100
AcDbEntity
  8
0
100
AcDbVertex
100
AcDb2dVertex
 10
0.0
 20
-1.74
  0
VERTEX
  5
46
100
AcDbEntity
  8
0
100
AcDbVertex
100
AcDb2dVertex
 10
-0.35
 20
-0.48
  0
VERTEX
  5
47
100
AcDbEntity
  8
0
100
AcDbVertex
100
AcDb2dVertex
 10
-1.65
 20
-0.54
  0
VERTEX
  5
48
100
AcDbEntity
  8
0
100
AcDbVertex
100
AcDb2dVertex
 10
-0.57
 20
0.18
  0
VERTEX
  5
49
100
AcDbEntity
  8
0
100
AcDbVertex
100
AcDb2dVertex
 10
-1.02
 20
1.4
  0
VERTEX
  5
4A
100
AcDbEntity
  8
0
100
AcDbVertex
100
AcDb2dVertex
 10
0.0
 20
0.6
  0
VERTEX
  5
4B
100
AcDbEntity
  8
0
100
AcDbVertex
100
AcDb2dVertex
 10
1.02
 20
1.4
  0
VERTEX
  5
4C
100
AcDbEntity
  8
0
100
AcDbVertex
100
AcDb2dVertex
 10
0.57
 20
0.18
  0
VERTEX
  5
4D
100
AcDbEntity
  8
0
100
AcDbVertex
100
AcDb2dVertex
 10
1.65
 20
-0.54
  0
VERTEX
  5
4E
100
AcDbEntity
  8
0
100
AcDbVertex
100
AcDb2dVertex
 10
0.35
 20
-0.48
  0
VERTEX
  5
4F
100
AcDbEntity
  8
0
100
AcDbVertex
100
AcDb2dVertex
 10
0.0
 20
-1.74
  0
SEQEND
  5
50
100
AcDbEntity
  8
0
  0
HATCH
  5
51
100
AcDbEntity
  8
0
  6
CONTINUOUS
 62
0
370
18
100
AcDbHatch
 10
0.0
 20
0.0
 30
0.0
210
0.0
220
0.0
230
1.0
  2
SOLID
 70
1
 71
1
 91
1
 92
3
 72
1
 73
1
 93
2
 10
0.0
 20
-0.1
 42
1.0
 10
0.0
 20
0.1
 42
1.0
 97
0
 75
0
 76
1
 98
0
  0
CIRCLE
  5
52
100
AcDbEntity
  8
0
  6
CONTINUOUS
 62
0
370
18
100
AcDbCircle
 10
0.0
 20
-0.0
 40
0.1
  0
ENDBLK
  5
53
100
AcDbEntity
  8
0
100
AcDbBlockEnd
  0
BLOCK
  5
32
100
AcDbEntity
  8
0
100
AcDbBlockBegin
 62
0
370
13
  2
DLI
 70
0
 10
0
 20
0
 30
0
  3
DLI
  0
ARC
  5
54
100
AcDbEntity
  8
0
  6
CONTINUOUS
 62
0
370
18
100
AcDbCircle
 10
0.0000000000
 20
0.8000000000
 30
0
 40
0.7000000000
100
AcDbArc
 50
29.8459319497
 51
150.1540680503
  0
ARC
  5
55
100
AcDbEntity
  8
0
  6
CONTINUOUS
 62
0
370
18
100
AcDbCircle
 10
0.7700000000
 20
0.2500000000
 30
0
 40
0.7000000000
100
AcDbArc
 50
317.3373058591
 51
78.3663660011
  0
ARC
  5
56
100
AcDbEntity
  8
0
  6
CONTINUOUS
 62
0
370
18
100
AcDbCircle
 10
0.4600000000
 20
-0.6400000000
 30
0
 40
0.7100000000
100
AcDbArc
 50
247.4427533653
 51
5.6306827576
  0
ARC
  5
57
100
AcDbEntity
  8
0
  6
CONTINUOUS
 62
0
370
18
100
AcDbCircle
 10
-0.4600000000
 20
-0.6400000000
 30
0
 40
0.7100000000
100
AcDbArc
 50
174.3693172424
 51
292.5572466347
  0
ARC
  5
58
100
AcDbEntity
  8
0
  6
CONTINUOUS
 62
0
370
18
100
AcDbCircle
 10
-0.7700000000
 20
0.2500000000
 30
0
 40
0.7000000000
100
AcDbArc
 50
101.6336339989
 51
222.6626941409
  0
HATCH
  5
59
100
AcDbEntity
  8
0
  6
CONTINUOUS
 62
0
370
18
100
AcDbHatch
 10
0.0
 20
0.0
 30
0.0
210
0.0
220
0.0
230
1.0
  2
SOLID
 70
1
 71
1
 91
1
 92
3
 72
1
 73
1
 93
2
 10
0.0
 20
-0.1
 42
1.0
 10
0.0
 20
0.1
 42
1.0
 97
0
 75
0
 76
1
 98
0
  0
CIRCLE
  5
5A
100
AcDbEntity
  8
0
  6
CONTINUOUS
 62
0
370
18
100
AcDbCircle
 10
0.0
 20
-0.0
 40
0.1
  0
ENDBLK
  5
5B
100
AcDbEntity
  8
0
100
AcDbBlockEnd
  0
BLOCK
  5
34
100
AcDbEntity
  8
0
100
AcDbBlockBegin
 62
0
370
13
  2
L_0_02_1
 70
0
 10
0
 20
0
 30
0
  3
L_0_02_1
  0
POINT
  5
5C
100
AcDbEntity
  8
0
100
AcDbPoint
 62
0
 10
0.0
 20
0.0
 30
0.000
  0
ENDBLK
  5
5D
100
AcDbEntity
  8
0
100
AcDbBlockEnd
  0
BLOCK
  5
36
100
AcDbEntity
  8
0
100
AcDbBlockBegin
 62
0
370
13
  2
L_0_02_2
 70
0
 10
0
 20
0
 30
0
  3
L_0_02_2
  0
POINT
  5
5E
100
AcDbEntity
  8
0
100
AcDbPoint
 62
0
 10
-0.0
 20
-0.0
 30
0.000
  0
ENDBLK
  5
5F
100
AcDbEntity
  8
0
100
AcDbBlockEnd
  0
ENDSEC
  0
SECTION
  2
ENTITIES
  0
ARC
  5
60
100
AcDbEntity
  8
projekt_kraw
  6
ByLayer
370
18
100
AcDbCircle
 10
7567105.2661704756
 20
5717151.1173126530
 30
0
 40
3.0000000010
100
AcDbArc
 50
16.0153504738
 51
110.5723670031
  0
ARC
  5
61
100
AcDbEntity
  8
projekt_kraw
  6
ByLayer
370
18
100
AcDbCircle
 10
7567109.1598367728
 20
5717146.4137746254
 30
0
 40
3.0000000008
100
AcDbArc
 50
323.2309093353
 51
40.1949786557
  0
ARC
  5
62
100
AcDbEntity
  8
projekt_kraw
  6
ByLayer
370
18
100
AcDbCircle
 10
7567115.0975964796
 20
5717155.0444111656
 30
0
 40
7.6230335656
100
AcDbArc
 50
204.0810171065
 51
241.4246704949
  0
ARC
  5
63
100
AcDbEntity
  8
projekt_kraw
  6
ByLayer
370
18
100
AcDbCircle
 10
7567108.9631571770
 20
5717146.2543439185
 30
0
 40
2.1017331427
100
AcDbArc
 50
333.0354219261
 51
57.3517583223
  0
ARC
  5
64
100
AcDbEntity
  8
projekt_kraw
  6
ByLayer
370
18
100
AcDbCircle
 10
7567114.2603525715
 20
5717154.2878859872
 30
0
 40
7.5262855995
100
AcDbArc
 50
202.6789335002
 51
236.4148991592
  0
POLYLINE
  5
65
100
AcDbEntity
  8
projekt_kraw
  6
CONTINUOUS
370
18
100
AcDb2dPolyline
 66
1
 70
128
  0
VERTEX
  5
66
100
AcDbEntity
  8
projekt_kraw
100
AcDbVertex
100
AcDb2dVertex
 10
7567115.02099999972
 20
5717162.44600000046
  0
VERTEX
  5
67
100
AcDbEntity
  8
projekt_kraw
100
AcDbVertex
100
AcDb2dVertex
 10
7567117.45624601841
 20
5717162.03962931316
  0
SEQEND
  5
68
100
AcDbEntity
  8
projekt_kraw
  0
POLYLINE
  5
69
100
AcDbEntity
  8
projekt_kraw
  6
CONTINUOUS
370
18
100
AcDb2dPolyline
 66
1
 70
128
  0
VERTEX
  5
6A
100
AcDbEntity
  8
projekt_kraw
100
AcDbVertex
100
AcDb2dVertex
 10
7567117.45624601841
 20
5717162.03962931316
  0
VERTEX
  5
6B
100
AcDbEntity
  8
projekt_kraw
100
AcDbVertex
100
AcDb2dVertex
 10
7567119.62759534456
 20
5717160.86455382127
  0
SEQEND
  5
6C
100
AcDbEntity
  8
projekt_kraw
  0
POLYLINE
  5
6D
100
AcDbEntity
  8
projekt_kraw
  6
CONTINUOUS
370
18
100
AcDb2dPolyline
 66
1
 70
128
  0
VERTEX
  5
6E
100
AcDbEntity
  8
projekt_kraw
100
AcDbVertex
100
AcDb2dVertex
 10
7567119.62759534456
 20
5717160.86455382127
  0
VERTEX
  5
6F
100
AcDbEntity
  8
projekt_kraw
100
AcDbVertex
100
AcDb2dVertex
 10
7567121.29974858649
 20
5717159.04811118636
  0
SEQEND
  5
70
100
AcDbEntity
  8
projekt_kraw
  0
POLYLINE
  5
71
100
AcDbEntity
  8
projekt_kraw
  6
CONTINUOUS
370
18
100
AcDb2dPolyline
 66
1
 70
128
  0
VERTEX
  5
72
100
AcDbEntity
  8
projekt_kraw
100
AcDbVertex
100
AcDb2dVertex
 10
7567121.29974858649
 20
5717159.04811118636
  0
VERTEX
  5
73
100
AcDbEntity
  8
projekt_kraw
100
AcDbVertex
100
AcDb2dVertex
 10
7567122.29150199424
 20
5717156.78714115359
  0
SEQEND
  5
74
100
AcDbEntity
  8
projekt_kraw
  0
POLYLINE
  5
75
100
AcDbEntity
  8
projekt_kraw
  6
CONTINUOUS
370
18
100
AcDb2dPolyline
 66
1
 70
128
  0
VERTEX
  5
76
100
AcDbEntity
  8
projekt_kraw
100
AcDbVertex
100
AcDb2dVertex
 10
7567122.29150199424
 20
5717156.78714115359
  0
VERTEX
  5
77
100
AcDbEntity
  8
projekt_kraw
100
AcDbVertex
100
AcDb2dVertex
 10
7567122.49538369756
 20
5717154.32665490918
  0
SEQEND
  5
78
100
AcDbEntity
  8
projekt_kraw
  0
POLYLINE
  5
79
100
AcDbEntity
  8
projekt_kraw
  6
CONTINUOUS
370
18
100
AcDb2dPolyline
 66
1
 70
128
  0
VERTEX
  5
7A
100
AcDbEntity
  8
projekt_kraw
100
AcDbVertex
100
AcDb2dVertex
 10
7567122.49538369756
 20
5717154.32665490918
  0
VERTEX
  5
7B
100
AcDbEntity
  8
projekt_kraw
100
AcDbVertex
100
AcDb2dVertex
 10
7567121.88929994963
 20
5717151.93328431528
  0
SEQEND
  5
7C
100
AcDbEntity
  8
projekt_kraw
  0
POLYLINE
  5
7D
100
AcDbEntity
  8
projekt_kraw
  6
CONTINUOUS
370
18
100
AcDb2dPolyline
 66
1
 70
128
  0
VERTEX
  5
7E
100
AcDbEntity
  8
projekt_kraw
100
AcDbVertex
100
AcDb2dVertex
 10
7567121.88929994963
 20
5717151.93328431528
  0
VERTEX
  5
7F
100
AcDbEntity
  8
projekt_kraw
100
AcDbVertex
100
AcDb2dVertex
 10
7567120.53892933018
 20
5717149.86638821289
  0
SEQEND
  5
80
100
AcDbEntity
  8
projekt_kraw
  0
POLYLINE
  5
81
100
AcDbEntity
  8
projekt_kraw
  6
CONTINUOUS
370
18
100
AcDb2dPolyline
 66
1
 70
128
  0
VERTEX
  5
82
100
AcDbEntity
  8
projekt_kraw
100
AcDbVertex
100
AcDb2dVertex
 10
7567120.52999999654
 20
5717149.86999999732
  0
VERTEX
  5
83
100
AcDbEntity
  8
projekt_kraw
100
AcDbVertex
100
AcDb2dVertex
 10
7567101.95400000177
 20
5717130.0110000018
  0
SEQEND
  5
84
100
AcDbEntity
  8
projekt_kraw
  0
POLYLINE
  5
85
100
AcDbEntity
  8
projekt_kraw
  6
CONTINUOUS
370
18
100
AcDb2dPolyline
 66
1
 70
128
  0
VERTEX
  5
86
100
AcDbEntity
  8
projekt_kraw
100
AcDbVertex
100
AcDb2dVertex
 10
7567104.21200000029
 20
5717153.92599999998
  0
VERTEX
  5
87
100
AcDbEntity
  8
projekt_kraw
100
AcDbVertex
100
AcDb2dVertex
 10
7567096.01499999966
 20
5717145.24700000044
  0
SEQEND
  5
88
100
AcDbEntity
  8
projekt_kraw
  0
POLYLINE
  5
89
100
AcDbEntity
  8
projekt_kraw
  6
CONTINUOUS
370
18
100
AcDb2dPolyline
 66
1
 70
129
  0
VERTEX
  5
8A
100
AcDbEntity
  8
projekt_kraw
100
AcDbVertex
100
AcDb2dVertex
 10
7567113.30300000031
 20
5717157.5700000003
  0
VERTEX
  5
8B
100
AcDbEntity
  8
projekt_kraw
100
AcDbVertex
100
AcDb2dVertex
 10
7567114.43793629017
 20
5717158.02771002986
  0
VERTEX
  5
8C
100
AcDbEntity
  8
projekt_kraw
100
AcDbVertex
100
AcDb2dVertex
 10
7567115.66163874418
 20
5717158.0162576437
  0
VERTEX
  5
8D
100
AcDbEntity
  8
projekt_kraw
100
AcDbVertex
100
AcDb2dVertex
 10
7567116.78780975658
 20
5717157.53738636337
  0
VERTEX
  5
8E
100
AcDbEntity
  8
projekt_kraw
100
AcDbVertex
100
AcDb2dVertex
 10
7567117.64499999955
 20
5717156.66399999987
  0
VERTEX
  5
8F
100
AcDbEntity
  8
projekt_kraw
100
AcDbVertex
100
AcDb2dVertex
 10
7567118.10271002911
 20
5717155.52906371001
  0
VERTEX
  5
90
100
AcDbEntity
  8
projekt_kraw
100
AcDbVertex
100
AcDb2dVertex
 10
7567118.09125764295
 20
5717154.305361256
  0
VERTEX
  5
91
100
AcDbEntity
  8
projekt_kraw
100
AcDbVertex
100
AcDb2dVertex
 10
7567117.61238636263
 20
5717153.17919024359
  0
VERTEX
  5
92
100
AcDbEntity
  8
projekt_kraw
100
AcDbVertex
100
AcDb2dVertex
 10
7567116.73899999913
 20
5717152.32200000063
  0
VERTEX
  5
93
100
AcDbEntity
  8
projekt_kraw
100
AcDbVertex
100
AcDb2dVertex
 10
7567115.60406370927
 20
5717151.86428997107
  0
VERTEX
  5
94
100
AcDbEntity
  8
projekt_kraw
100
AcDbVertex
100
AcDb2dVertex
 10
7567114.38036125526
 20
5717151.87574235722
  0
VERTEX
  5
95
100
AcDbEntity
  8
projekt_kraw
100
AcDbVertex
100
AcDb2dVertex
 10
7567113.25419024285
 20
5717152.35461363755
  0
VERTEX
  5
96
100
AcDbEntity
  8
projekt_kraw
100
AcDbVertex
100
AcDb2dVertex
 10
7567112.39699999988
 20
5717153.22800000105
  0
VERTEX
  5
97
100
AcDbEntity
  8
projekt_kraw
100
AcDbVertex
100
AcDb2dVertex
 10
7567111.93928997032
 20
5717154.36293629091
  0
VERTEX
  5
98
100
AcDbEntity
  8
projekt_kraw
100
AcDbVertex
100
AcDb2dVertex
 10
7567111.95074235648
 20
5717155.58663874492
  0
VERTEX
  5
99
100
AcDbEntity
  8
projekt_kraw
100
AcDbVertex
100
AcDb2dVertex
 10
7567112.42961363681
 20
5717156.71280975733
  0
SEQEND
  5
9A
100
AcDbEntity
  8
projekt_kraw
  0
POLYLINE
  5
9B
100
AcDbEntity
  8
projekt_kraw_obnizony
  6
CONTINUOUS
370
35
100
AcDb2dPolyline
 66
1
 70
128
  0
VERTEX
  5
9C
100
AcDbEntity
  8
projekt_kraw_obnizony
100
AcDbVertex
100
AcDb2dVertex
 10
7567113.50500000175
 20
5717162.18700000178
  0
VERTEX
  5
9D
100
AcDbEntity
  8
projekt_kraw_obnizony
100
AcDbVertex
100
AcDb2dVertex
 10
7567115.02099999972
 20
5717162.44600000046
  0
SEQEND
  5
9E
100
AcDbEntity
  8
projekt_kraw_obnizony
  0
POLYLINE
  5
9F
100
AcDbEntity
  8
projekt_kraw_obnizony
  6
CONTINUOUS
370
35
100
AcDb2dPolyline
 66
1
 70
128
  0
VERTEX
  5
A0
100
AcDbEntity
  8
projekt_kraw_obnizony
100
AcDbVertex
100
AcDb2dVertex
 10
7567109.8459999999
 20
5717165.61099999957
  0
VERTEX
  5
A1
100
AcDbEntity
  8
projekt_kraw_obnizony
100
AcDbVertex
100
AcDb2dVertex
 10
7567113.5
 20
5717162.19000000041
  0
SEQEND
  5
A2
100
AcDbEntity
  8
projekt_kraw_obnizony
  0
ENDSEC
  0
SECTION
  2
OBJECTS
  0
DICTIONARY
  5
A3
330
0
100
AcDbDictionary
280
0
281
1
  3
ACAD_GROUP
350
A4
  3
ACAD_LAYOUT
350
A5
  3
ACAD_MLINESTYLE
350
A6
  3
ACAD_PLOTSETTINGS
350
A7
  3
ACAD_PLOTSTYLENAME
350
A8
  0
DICTIONARY
  5
A4
102
{ACAD_REACTORS
330
A3
102
}
330
A3
100
AcDbDictionary
280
0
281
1
  0
DICTIONARY
  5
A5
102
{ACAD_REACTORS
330
A3
102
}
330
A3
100
AcDbDictionary
280
0
281
1
  3
Layout
350
28
  3
Model
350
26
  0
DICTIONARY
  5
A6
102
{ACAD_REACTORS
330
A3
102
}
330
A3
100
AcDbDictionary
280
0
281
1
  3
Standard
350
A9
  3
L_0_02
350
7
  3
L_0_23
350
E
  3
L_0_9C
350
14
  0
DICTIONARY
  5
A7
102
{ACAD_REACTORS
330
A3
102
}
330
A3
100
AcDbDictionary
280
0
281
1
  0
ACDBDICTIONARYWDFLT
  5
A8
102
{ACAD_REACTORS
330
A3
102
}
330
A3
100
AcDbDictionary
281
1
  3
Normal
350
18
100
AcDbDictionaryWithDefault
340
18
  0
LAYOUT
  5
28
100
AcDbPlotSettings
  1

  2

  4

  6

 40
0.0
 41
0.0
 42
0.0
 43
0.0
 44
0.0
 45
0.0
 46
0.0
 47
0.0
 48
0.0
 49
0.0
140
0.0
141
0.0
142
1.0
143
1.0
 70
688
 72
1
 73
0
 74
5
  7

 75
0
147
1.0
148
0.0
149
0.0
100
AcDbLayout
  1
Layout
 70
1
 71
1
 10
0.0
 20
0.0
 11
420.0
 21
297.0
 12
0.0
 22
0.0
 32
0.0
 14
100000000000000000000.0
 24
100000000000000000000.0
 34
100000000000000000000.0
 15
-100000000000000000000.0
 25
-100000000000000000000.0
 35
-100000000000000000000.0
146
0.0
 13
0.0
 23
0.0
 33
0.0
 16
1.0
 26
0.0
 36
0.0
 17
0.0
 27
1.0
 37
0.0
 76
0
330
27
  0
LAYOUT
  5
26
100
AcDbPlotSettings
  1

  2

  4

  6

 40
0.0
 41
0.0
 42
0.0
 43
0.0
 44
0.0
 45
0.0
 46
0.0
 47
0.0
 48
0.0
 49
0.0
140
0.0
141
0.0
142
1.0
143
1.0
 70
1712
 72
1
 73
0
 74
0
  7

 75
0
147
1.0
148
0.0
149
0.0
100
AcDbLayout
  1
Model
 70
1
 71
0
 10
0.0
 20
0.0
 11
12.0
 21
9.0
 12
0.0
 22
0.0
 32
0.0
 14
0.0
 24
0.0
 34
0.0
 15
0.0
 25
0.0
 35
0.0
146
0.0
 13
0.0
 23
0.0
 33
0.0
 16
1.0
 26
0.0
 36
0.0
 17
0.0
 27
1.0
 37
0.0
 76
0
330
25
  0
MLINESTYLE
  5
A9
102
{ACAD_REACTORS
330
A6
102
}
330
A6
100
AcDbMlineStyle
  2
Standard
 70
0
  3

 62
256
 51
90.0
 52
90.0
  2
Standard
 71
2
 49
0.5
 62
256
  6
ByLayer
 49
-0.5
 62
256
  6
ByLayer
  0
MLINESTYLE
  5
7
100
AcDbMlineStyle
  2
L_0_02
 70
0
  3

 51
90.0
 52
90.0
 71
1
 49
0.0
 62
256
  6
CONTINUOUS
  0
MLINESTYLE
  5
E
100
AcDbMlineStyle
  2
L_0_23
 70
0
  3

 51
90.0
 52
90.0
 71
2
 49
0.0
 62
256
  6
CONTINUOUS
 49
0.0
 62
256
  6
L_0_23_SHX
  0
MLINESTYLE
  5
14
100
AcDbMlineStyle
  2
L_0_9C
 70
0
  3

 51
90.0
 52
90.0
 71
2
 49
0.0
 62
256
  6
CONTINUOUS
 49
0.0
 62
256
  6
L_0_9C_SHX
  0
ACDBPLACEHOLDER
  5
18
  0
ENDSEC
  0
EOF
