  0
SECTION
  2
HEADER
  9
$ACADVER
  1
AC1018
  9
$HANDSEED
  5
FFFFFF
  9
$EXTMAX
 10
8412653.34999999963
 20
5786828.24000000022
 30
1000000.00
  9
$EXTMIN
 10
8412476.22000000067
 20
5786645.69000000041
 30
0.00
  9
$LIMMIN
 10
8412476.22000000067
 20
5786645.69000000041
  9
$LIMMAX
 10
8412653.34999999963
 20
5786828.24000000022
  9
$DIMASZ
 40
2.5
  9
$DIMGAP
 40
0.625
  9
$INSUNITS
 70
6
  9
$DIMEXO
 40
0.625
  9
$DIMTXT
 40
2.5
  9
$DIMSTYLE
  2
Standard
  9
$PLIMMIN
 10
0.0
 20
0.0
  9
$PLIMMAX
 10
210.0
 20
297.0
  9
$DIMEXE
 40
1.25
  9
$TEXTSIZE
 40
2.5
  9
$TEXTSTYLE
  7
Standard
  9
$LWDISPLAY
290
1
  9
$TDCREATE
 40
43658.620171250
  9
$TDUCREATE
 40
43658.536837917
  9
$TDUPDATE
 40
43658.620171250
  9
$TDUUPDATE
 40
43658.536837917
  9
$TDINDWG
 40
0.0
  9
$TDUSRTIMER
 40
0.0
  9
$USRTIMER
 70
1
  0
ENDSEC
  0
SECTION
  2
TABLES
  0
TABLE
  2
VPORT
  5
1
100
AcDbSymbolTable
 70
1
  0
VPORT
  5
2
100
AcDbSymbolTableRecord
100
AcDbViewportTableRecord
  2
*ACTIVE
 70
0
 10
0.0
 20
0.0
 11
1.0
 21
1.0
 12
8412564.79
 22
5786736.96
 13
0.0
 23
0.0
 14
1.0
 24
1.0
 15
0.0
 25
0.0
 16
0.0
 26
0.0
 36
1.0
 17
0.0
 27
0.0
 37
0.0
 40
182.55
 41
0.97
 42
50.0
 43
0.0
 44
0.0
 50
0.0
 51
0.0
 71
0
 72
100
 73
1
 74
1
 75
0
 76
0
 77
0
 78
0
  0
ENDTAB
  0
TABLE
  2
LTYPE
  5
3
100
AcDbSymbolTable
 70
385
  0
LTYPE
  5
4
100
AcDbSymbolTableRecord
100
AcDbLinetypeTableRecord
  2
ByBlock
 70
0
  3

 72
65
 73
0
 40
0.0
  0
LTYPE
  5
5
100
AcDbSymbolTableRecord
100
AcDbLinetypeTableRecord
  2
ByLayer
 70
0
  3

 72
65
 73
0
 40
0.0
  0
LTYPE
  5
6
100
AcDbSymbolTableRecord
100
AcDbLinetypeTableRecord
  2
CONTINUOUS
 70
0
  3
Solid line
 72
65
 73
0
 40
0.0
  0
LTYPE
  5
7
100
AcDbSymbolTableRecord
100
AcDbLinetypeTableRecord
  2
L_0_02
 70
0
  3
Dzialka_ewidencyjna
 72
65
 73
0
 40
0.0
  0
LTYPE
  5
9
100
AcDbSymbolTableRecord
100
AcDbLinetypeTableRecord
  2
L_0_02_M
 70
0
  3
Dzialka_ewidencyjna (MLineStyle)
 72
65
 73
0
 40
0.0
  0
ENDTAB
  0
TABLE
  2
LAYER
  5
A
100
AcDbSymbolTable
 70
2
  0
LAYER
  5
B
100
AcDbSymbolTableRecord
100
AcDbLayerTableRecord
  2
0
 70
0
420
0
  6
CONTINUOUS
370
18
390
C
  0
LAYER
  5
D
100
AcDbSymbolTableRecord
100
AcDbLayerTableRecord
  2
PZT_KRAWEZNIKI
 70
0
420
65535
  6
CONTINUOUS
370
25
390
C
  0
ENDTAB
  0
TABLE
  2
STYLE
  5
E
100
AcDbSymbolTable
 70
1
  0
STYLE
  5
F
100
AcDbSymbolTableRecord
100
AcDbTextStyleTableRecord
  2
STANDARD
 70
0
 40
0.0
 41
1.0
 50
0.0
 71
0
  3
simplex.shx
  4

  0
ENDTAB
  0
TABLE
  2
VIEW
  5
10
100
AcDbSymbolTable
 70
0
  0
ENDTAB
  0
TABLE
  2
UCS
  5
11
100
AcDbSymbolTable
 70
0
  0
ENDTAB
  0
TABLE
  2
APPID
  5
12
100
AcDbSymbolTable
 70
1
  0
APPID
  5
13
100
AcDbSymbolTableRecord
100
AcDbRegAppTableRecord
  2
ACAD
 70
0
  0
ENDTAB
  0
TABLE
  2
DIMSTYLE
  5
14
100
AcDbSymbolTable
 70
1
100
AcDbDimStyleTable
  0
DIMSTYLE
105
15
100
AcDbSymbolTableRecord
100
AcDbDimStyleTableRecord
  2
Standard
 70
0
340
F
  0
ENDTAB
  0
TABLE
  2
BLOCK_RECORD
  5
16
100
AcDbSymbolTable
 70
6
  0
BLOCK_RECORD
  5
17
100
AcDbSymbolTableRecord
100
AcDbBlockTableRecord
  2
*Model_Space
340
18
  0
BLOCK_RECORD
  5
19
100
AcDbSymbolTableRecord
100
AcDbBlockTableRecord
  2
*Paper_Space
340
1A
  0
BLOCK_RECORD
  5
1B
100
AcDbSymbolTableRecord
100
AcDbBlockTableRecord
  2
GRT
340
1C
  0
BLOCK_RECORD
  5
1D
100
AcDbSymbolTableRecord
100
AcDbBlockTableRecord
  2
GRO
340
1E
  0
BLOCK_RECORD
  5
1F
100
AcDbSymbolTableRecord
100
AcDbBlockTableRecord
  2
L_0_02_1
340
20
  0
BLOCK_RECORD
  5
21
100
AcDbSymbolTableRecord
100
AcDbBlockTableRecord
  2
L_0_02_2
340
22
  0
ENDTAB
  0
ENDSEC
  0
SECTION
  2
BLOCKS
  0
BLOCK
  5
23
100
AcDbEntity
  8
0
100
AcDbBlockBegin
  2
*Model_Space
 70
0
 10
0.0
 20
0.0
 30
0.0
  3
*Model_Space
  1

  0
ENDBLK
  5
24
100
AcDbEntity
  8
0
100
AcDbBlockEnd
  0
BLOCK
  5
25
100
AcDbEntity
 67
1
  8
0
100
AcDbBlockBegin
  2
*Paper_Space
 70
0
 10
0.0
 20
0.0
 30
0.0
  3
*Paper_Space
  1

  0
ENDBLK
  5
26
100
AcDbEntity
 67
1
  8
0
100
AcDbBlockEnd
  0
BLOCK
  5
1C
100
AcDbEntity
  8
0
100
AcDbBlockBegin
 62
0
370
13
  2
GRT
 70
0
 10
0
 20
0
 30
0
  3
GRT
  0
HATCH
  5
27
100
AcDbEntity
  8
0
  6
CONTINUOUS
420
16777215
370
18
100
AcDbHatch
 10
0.0
 20
0.0
 30
0.0
210
0.0
220
0.0
230
1.0
  2
SOLID
 70
1
 71
1
 91
1
 92
3
 72
1
 73
1
 93
2
 10
0.0
 20
-0.5
 42
1.0
 10
0.0
 20
0.5
 42
1.0
 97
0
 75
0
 76
1
 98
0
  0
CIRCLE
  5
28
100
AcDbEntity
  8
0
  6
CONTINUOUS
 62
0
370
18
100
AcDbCircle
 10
0.0
 20
-0.0
 40
0.5
  0
ENDBLK
  5
29
100
AcDbEntity
  8
0
100
AcDbBlockEnd
  0
BLOCK
  5
1E
100
AcDbEntity
  8
0
100
AcDbBlockBegin
 62
0
370
13
  2
GRO
 70
0
 10
0
 20
0
 30
0
  3
GRO
  0
HATCH
  5
2A
100
AcDbEntity
  8
0
  6
CONTINUOUS
 62
0
370
13
100
AcDbHatch
 10
0.0
 20
0.0
 30
0.0
210
0.0
220
0.0
230
1.0
  2
SOLID
 70
1
 71
1
 91
1
 92
3
 72
1
 73
1
 93
2
 10
0.0
 20
-0.10000000000000001
 42
1.0
 10
0.0
 20
0.10000000000000001
 42
1.0
 97
0
 75
0
 76
1
 98
0
  0
CIRCLE
  5
2B
100
AcDbEntity
  8
0
  6
CONTINUOUS
 62
0
370
13
100
AcDbCircle
 10
0.0
 20
-0.0
 40
0.10000000000000001
  0
ENDBLK
  5
2C
100
AcDbEntity
  8
0
100
AcDbBlockEnd
  0
BLOCK
  5
20
100
AcDbEntity
  8
0
100
AcDbBlockBegin
 62
0
370
13
  2
L_0_02_1
 70
0
 10
0
 20
0
 30
0
  3
L_0_02_1
  0
POINT
  5
2D
100
AcDbEntity
  8
0
100
AcDbPoint
 62
0
 10
0.0
 20
0.0
 30
0.000
  0
ENDBLK
  5
2E
100
AcDbEntity
  8
0
100
AcDbBlockEnd
  0
BLOCK
  5
22
100
AcDbEntity
  8
0
100
AcDbBlockBegin
 62
0
370
13
  2
L_0_02_2
 70
0
 10
0
 20
0
 30
0
  3
L_0_02_2
  0
POINT
  5
2F
100
AcDbEntity
  8
0
100
AcDbPoint
 62
0
 10
-0.0
 20
-0.0
 30
0.000
  0
ENDBLK
  5
30
100
AcDbEntity
  8
0
100
AcDbBlockEnd
  0
ENDSEC
  0
SECTION
  2
ENTITIES
  0
ARC
  5
31
100
AcDbEntity
  8
PZT_KRAWEZNIKI
  6
CONTINUOUS
370
25
100
AcDbCircle
 10
8412502.3320773672
 20
5786797.3362213839
 30
0
 40
9.9642533070
100
AcDbArc
 50
344.4945386264
 51
12.0126371254
  0
ARC
  5
32
100
AcDbEntity
  8
PZT_KRAWEZNIKI
  6
CONTINUOUS
370
25
100
AcDbCircle
 10
8412504.9334840719
 20
5786805.5837990474
 30
0
 40
5.0086294242
100
AcDbArc
 50
23.8577363636
 51
74.2576402939
  0
ARC
  5
33
100
AcDbEntity
  8
PZT_KRAWEZNIKI
  6
CONTINUOUS
370
25
100
AcDbCircle
 10
8412485.2468825076
 20
5786722.5649146214
 30
0
 40
9.9797573996
100
AcDbArc
 50
344.5119602777
 51
57.4310106770
  0
ARC
  5
34
100
AcDbEntity
  8
PZT_KRAWEZNIKI
  6
CONTINUOUS
370
25
100
AcDbCircle
 10
8412498.2926574498
 20
5786762.3598383237
 30
0
 40
5.0142102119
100
AcDbArc
 50
253.2973427105
 51
326.9335180194
  0
ARC
  5
35
100
AcDbEntity
  8
PZT_KRAWEZNIKI
  6
CONTINUOUS
370
25
100
AcDbCircle
 10
8412494.7182521280
 20
5786763.3198476825
 30
0
 40
4.9931942542
100
AcDbArc
 50
166.5758016955
 51
254.6449843786
  0
ARC
  5
36
100
AcDbEntity
  8
PZT_KRAWEZNIKI
  6
CONTINUOUS
370
25
100
AcDbCircle
 10
8412490.8048041593
 20
5786747.8154344233
 30
0
 40
5.0079776800
100
AcDbArc
 50
74.5200611326
 51
152.8958593317
  0
ARC
  5
37
100
AcDbEntity
  8
PZT_KRAWEZNIKI
  6
CONTINUOUS
370
25
100
AcDbCircle
 10
8412494.0289975647
 20
5786746.9276398299
 30
0
 40
4.9889337955
100
AcDbArc
 50
344.4640181262
 51
73.2900016657
  0
ARC
  5
38
100
AcDbEntity
  8
PZT_KRAWEZNIKI
  6
CONTINUOUS
370
25
100
AcDbCircle
 10
8412521.6904461049
 20
5786790.5067160605
 30
0
 40
5.0083554241
100
AcDbArc
 50
74.6922245978
 51
164.4303520838
  0
ARC
  5
39
100
AcDbEntity
  8
PZT_KRAWEZNIKI
  6
CONTINUOUS
370
25
100
AcDbCircle
 10
8412522.4824038278
 20
5786798.1322609764
 30
0
 40
4.0040585159
100
AcDbArc
 50
74.4746467250
 51
85.7856664178
  0
ARC
  5
3A
100
AcDbEntity
  8
PZT_KRAWEZNIKI
  6
CONTINUOUS
370
25
100
AcDbCircle
 10
8412552.9110701550
 20
5786793.3645340884
 30
0
 40
0.5073621075
100
AcDbArc
 50
345.1128676306
 51
73.9351115013
  0
ARC
  5
3B
100
AcDbEntity
  8
PZT_KRAWEZNIKI
  6
CONTINUOUS
370
25
100
AcDbCircle
 10
8412552.5314625949
 20
5786791.9365841681
 30
0
 40
0.4840107456
100
AcDbArc
 50
253.3949407200
 51
345.9144402594
  0
ARC
  5
3C
100
AcDbEntity
  8
PZT_KRAWEZNIKI
  6
CONTINUOUS
370
25
100
AcDbCircle
 10
8412523.9335403629
 20
5786803.2482371777
 30
0
 40
10.0332968914
100
AcDbArc
 50
45.3434879641
 51
73.8895227437
  0
ARC
  5
3D
100
AcDbEntity
  8
PZT_KRAWEZNIKI
  6
CONTINUOUS
370
25
100
AcDbCircle
 10
8412545.0048915800
 20
5786810.6138639385
 30
0
 40
10.0219558893
100
AcDbArc
 50
225.3310638646
 51
254.5764057740
  0
ARC
  5
3E
100
AcDbEntity
  8
PZT_KRAWEZNIKI
  6
CONTINUOUS
370
25
100
AcDbCircle
 10
8412522.7319443040
 20
5786801.6358671365
 30
0
 40
0.4893091105
100
AcDbArc
 50
84.7815300687
 51
229.3140951470
  0
ARC
  5
3F
100
AcDbEntity
  8
PZT_KRAWEZNIKI
  6
CONTINUOUS
370
25
100
AcDbCircle
 10
8412526.9524958804
 20
5786802.5756364763
 30
0
 40
4.0224642241
100
AcDbArc
 50
228.0670179580
 51
254.6824785588
  0
ARC
  5
40
100
AcDbEntity
  8
PZT_KRAWEZNIKI
  6
CONTINUOUS
370
25
100
AcDbCircle
 10
8412505.6946825571
 20
5786747.8858664148
 30
0
 40
1.0076888351
100
AcDbArc
 50
74.8208507729
 51
164.2309707579
  0
ARC
  5
41
100
AcDbEntity
  8
PZT_KRAWEZNIKI
  6
CONTINUOUS
370
25
100
AcDbCircle
 10
8412504.8896847479
 20
5786744.9962374168
 30
0
 40
0.9895049560
100
AcDbArc
 50
164.3094684314
 51
255.1908111003
  0
ARC
  5
42
100
AcDbEntity
  8
PZT_KRAWEZNIKI
  6
CONTINUOUS
370
25
100
AcDbCircle
 10
8412502.3320773672
 20
5786797.3362213839
 30
0
 40
9.9642533070
100
AcDbArc
 50
344.4945386264
 51
12.0126371254
  0
ARC
  5
43
100
AcDbEntity
  8
PZT_KRAWEZNIKI
  6
CONTINUOUS
370
25
100
AcDbCircle
 10
8412504.9334840719
 20
5786805.5837990474
 30
0
 40
5.0086294242
100
AcDbArc
 50
23.8577363636
 51
74.2576402939
  0
ARC
  5
44
100
AcDbEntity
  8
PZT_KRAWEZNIKI
  6
CONTINUOUS
370
25
100
AcDbCircle
 10
8412485.2468825076
 20
5786722.5649146214
 30
0
 40
9.9797573996
100
AcDbArc
 50
344.5119602777
 51
57.4310106770
  0
ARC
  5
45
100
AcDbEntity
  8
PZT_KRAWEZNIKI
  6
CONTINUOUS
370
25
100
AcDbCircle
 10
8412498.2926574498
 20
5786762.3598383237
 30
0
 40
5.0142102119
100
AcDbArc
 50
253.2973427105
 51
326.9335180194
  0
ARC
  5
46
100
AcDbEntity
  8
PZT_KRAWEZNIKI
  6
CONTINUOUS
370
25
100
AcDbCircle
 10
8412494.7182521280
 20
5786763.3198476825
 30
0
 40
4.9931942542
100
AcDbArc
 50
166.5758016955
 51
254.6449843786
  0
ARC
  5
47
100
AcDbEntity
  8
PZT_KRAWEZNIKI
  6
CONTINUOUS
370
25
100
AcDbCircle
 10
8412490.8048041593
 20
5786747.8154344233
 30
0
 40
5.0079776800
100
AcDbArc
 50
74.5200611326
 51
152.8958593317
  0
ARC
  5
48
100
AcDbEntity
  8
PZT_KRAWEZNIKI
  6
CONTINUOUS
370
25
100
AcDbCircle
 10
8412494.0289975647
 20
5786746.9276398299
 30
0
 40
4.9889337955
100
AcDbArc
 50
344.4640181262
 51
73.2900016657
  0
ARC
  5
49
100
AcDbEntity
  8
PZT_KRAWEZNIKI
  6
CONTINUOUS
370
25
100
AcDbCircle
 10
8412521.6904461049
 20
5786790.5067160605
 30
0
 40
5.0083554241
100
AcDbArc
 50
74.6922245978
 51
164.4303520838
  0
ARC
  5
4A
100
AcDbEntity
  8
PZT_KRAWEZNIKI
  6
CONTINUOUS
370
25
100
AcDbCircle
 10
8412522.4824038278
 20
5786798.1322609764
 30
0
 40
4.0040585159
100
AcDbArc
 50
74.4746467250
 51
85.7856664178
  0
ARC
  5
4B
100
AcDbEntity
  8
PZT_KRAWEZNIKI
  6
CONTINUOUS
370
25
100
AcDbCircle
 10
8412552.9110701550
 20
5786793.3645340884
 30
0
 40
0.5073621075
100
AcDbArc
 50
345.1128676306
 51
73.9351115013
  0
ARC
  5
4C
100
AcDbEntity
  8
PZT_KRAWEZNIKI
  6
CONTINUOUS
370
25
100
AcDbCircle
 10
8412552.5314625949
 20
5786791.9365841681
 30
0
 40
0.4840107456
100
AcDbArc
 50
253.3949407200
 51
345.9144402594
  0
ARC
  5
4D
100
AcDbEntity
  8
PZT_KRAWEZNIKI
  6
CONTINUOUS
370
25
100
AcDbCircle
 10
8412522.7319443040
 20
5786801.6358671365
 30
0
 40
0.4893091105
100
AcDbArc
 50
84.7815300687
 51
229.3140951470
  0
ARC
  5
4E
100
AcDbEntity
  8
PZT_KRAWEZNIKI
  6
CONTINUOUS
370
25
100
AcDbCircle
 10
8412526.9524958804
 20
5786802.5756364763
 30
0
 40
4.0224642241
100
AcDbArc
 50
228.0670179580
 51
254.6824785588
  0
ARC
  5
4F
100
AcDbEntity
  8
PZT_KRAWEZNIKI
  6
CONTINUOUS
370
25
100
AcDbCircle
 10
8412505.6946825571
 20
5786747.8858664148
 30
0
 40
1.0076888351
100
AcDbArc
 50
74.8208507729
 51
164.2309707579
  0
ARC
  5
50
100
AcDbEntity
  8
PZT_KRAWEZNIKI
  6
CONTINUOUS
370
25
100
AcDbCircle
 10
8412504.8896847479
 20
5786744.9962374168
 30
0
 40
0.9895049560
100
AcDbArc
 50
164.3094684314
 51
255.1908111003
  0
POLYLINE
  5
51
100
AcDbEntity
  8
PZT_KRAWEZNIKI
  6
CONTINUOUS
370
25
100
AcDb3dPolyline
 66
1
 70
136
  0
VERTEX
  5
52
100
AcDbEntity
  8
PZT_KRAWEZNIKI
100
AcDbVertex
100
AcDb3dPolylineVertex
 10
8412510.35139399953
 20
5786764.28870901093
 70
32
  0
VERTEX
  5
53
100
AcDbEntity
  8
PZT_KRAWEZNIKI
100
AcDbVertex
100
AcDb3dPolylineVertex
 10
8412518.18542280234
 20
5786792.53207253292
 70
32
  0
SEQEND
  5
54
100
AcDbEntity
  8
PZT_KRAWEZNIKI
  0
POLYLINE
  5
55
100
AcDbEntity
  8
PZT_KRAWEZNIKI
  6
CONTINUOUS
370
25
100
AcDb3dPolyline
 66
1
 70
136
  0
VERTEX
  5
56
100
AcDbEntity
  8
PZT_KRAWEZNIKI
100
AcDbVertex
100
AcDb3dPolylineVertex
 10
8412503.72000000067
 20
5786765.05999999959
 30
0.000
 70
32
  0
VERTEX
  5
57
100
AcDbEntity
  8
PZT_KRAWEZNIKI
100
AcDbVertex
100
AcDb3dPolylineVertex
 10
8412511.9299999997
 20
5786794.66999999993
 30
0.000
 70
32
  0
SEQEND
  5
58
100
AcDbEntity
  8
PZT_KRAWEZNIKI
  0
POLYLINE
  5
59
100
AcDbEntity
  8
PZT_KRAWEZNIKI
  6
CONTINUOUS
370
25
100
AcDb3dPolyline
 66
1
 70
136
  0
VERTEX
  5
5A
100
AcDbEntity
  8
PZT_KRAWEZNIKI
100
AcDbVertex
100
AcDb3dPolylineVertex
 10
8412512.08000000007
 20
5786799.41000000015
 30
0.000
 70
32
  0
VERTEX
  5
5B
100
AcDbEntity
  8
PZT_KRAWEZNIKI
100
AcDbVertex
100
AcDb3dPolylineVertex
 10
8412509.50999999978
 20
5786807.61000000034
 30
0.000
 70
32
  0
SEQEND
  5
5C
100
AcDbEntity
  8
PZT_KRAWEZNIKI
  0
POLYLINE
  5
5D
100
AcDbEntity
  8
PZT_KRAWEZNIKI
  6
CONTINUOUS
370
25
100
AcDb3dPolyline
 66
1
 70
136
  0
VERTEX
  5
5E
100
AcDbEntity
  8
PZT_KRAWEZNIKI
100
AcDbVertex
100
AcDb3dPolylineVertex
 10
8412489.51463692635
 20
5786700.62364588864
 70
32
  0
VERTEX
  5
5F
100
AcDbEntity
  8
PZT_KRAWEZNIKI
100
AcDbVertex
100
AcDb3dPolylineVertex
 10
8412494.92710592225
 20
5786720.13676399551
 70
32
  0
SEQEND
  5
60
100
AcDbEntity
  8
PZT_KRAWEZNIKI
  0
POLYLINE
  5
61
100
AcDbEntity
  8
PZT_KRAWEZNIKI
  6
CONTINUOUS
370
25
100
AcDb3dPolyline
 66
1
 70
136
  0
VERTEX
  5
62
100
AcDbEntity
  8
PZT_KRAWEZNIKI
100
AcDbVertex
100
AcDb3dPolylineVertex
 10
8412573.43389053456
 20
5786672.03434544522
 30
0.000
 70
32
  0
VERTEX
  5
63
100
AcDbEntity
  8
PZT_KRAWEZNIKI
100
AcDbVertex
100
AcDb3dPolylineVertex
 10
8412563.0163243264
 20
5786674.90976701304
 30
0.000
 70
32
  0
SEQEND
  5
64
100
AcDbEntity
  8
PZT_KRAWEZNIKI
  0
POLYLINE
  5
65
100
AcDbEntity
  8
PZT_KRAWEZNIKI
  6
CONTINUOUS
370
25
100
AcDb3dPolyline
 66
1
 70
136
  0
VERTEX
  5
66
100
AcDbEntity
  8
PZT_KRAWEZNIKI
100
AcDbVertex
100
AcDb3dPolylineVertex
 10
8412496.82854413427
 20
5786757.54916952364
 30
0.000
 70
32
  0
VERTEX
  5
67
100
AcDbEntity
  8
PZT_KRAWEZNIKI
100
AcDbVertex
100
AcDb3dPolylineVertex
 10
8412492.48653166182
 20
5786758.74753889255
 70
32
  0
SEQEND
  5
68
100
AcDbEntity
  8
PZT_KRAWEZNIKI
  0
POLYLINE
  5
69
100
AcDbEntity
  8
PZT_KRAWEZNIKI
  6
CONTINUOUS
370
25
100
AcDb3dPolyline
 66
1
 70
136
  0
VERTEX
  5
6A
100
AcDbEntity
  8
PZT_KRAWEZNIKI
100
AcDbVertex
100
AcDb3dPolylineVertex
 10
8412495.4613249246
 20
5786751.69777710643
 30
0.000
 70
32
  0
VERTEX
  5
6B
100
AcDbEntity
  8
PZT_KRAWEZNIKI
100
AcDbVertex
100
AcDb3dPolylineVertex
 10
8412491.54878212325
 20
5786752.7859302517
 70
32
  0
SEQEND
  5
6C
100
AcDbEntity
  8
PZT_KRAWEZNIKI
  0
POLYLINE
  5
6D
100
AcDbEntity
  8
PZT_KRAWEZNIKI
  6
CONTINUOUS
370
25
100
AcDb3dPolyline
 66
1
 70
136
  0
VERTEX
  5
6E
100
AcDbEntity
  8
PZT_KRAWEZNIKI
100
AcDbVertex
100
AcDb3dPolylineVertex
 10
8412497.6564760711
 20
5786741.32741169911
 70
32
  0
VERTEX
  5
6F
100
AcDbEntity
  8
PZT_KRAWEZNIKI
100
AcDbVertex
100
AcDb3dPolylineVertex
 10
8412497.5165221598
 20
5786740.82284766901
 70
32
  0
SEQEND
  5
70
100
AcDbEntity
  8
PZT_KRAWEZNIKI
  0
POLYLINE
  5
71
100
AcDbEntity
  8
PZT_KRAWEZNIKI
  6
CONTINUOUS
370
25
100
AcDb3dPolyline
 66
1
 70
136
  0
VERTEX
  5
72
100
AcDbEntity
  8
PZT_KRAWEZNIKI
100
AcDbVertex
100
AcDb3dPolylineVertex
 10
8412525.78689916432
 20
5786749.08923567086
 30
0.000
 70
32
  0
VERTEX
  5
73
100
AcDbEntity
  8
PZT_KRAWEZNIKI
100
AcDbVertex
100
AcDb3dPolylineVertex
 10
8412520.1774552092
 20
5786728.86598034296
 30
0.000
 70
32
  0
SEQEND
  5
74
100
AcDbEntity
  8
PZT_KRAWEZNIKI
  0
POLYLINE
  5
75
100
AcDbEntity
  8
PZT_KRAWEZNIKI
  6
CONTINUOUS
370
25
100
AcDb3dPolyline
 66
1
 70
136
  0
VERTEX
  5
76
100
AcDbEntity
  8
PZT_KRAWEZNIKI
100
AcDbVertex
100
AcDb3dPolylineVertex
 10
8412484.67276726291
 20
5786695.7049736008
 30
0.000
 70
32
  0
VERTEX
  5
77
100
AcDbEntity
  8
PZT_KRAWEZNIKI
100
AcDbVertex
100
AcDb3dPolylineVertex
 10
8412484.86546595581
 20
5786696.48070393503
 30
0.000
 70
32
  0
VERTEX
  5
78
100
AcDbEntity
  8
PZT_KRAWEZNIKI
100
AcDbVertex
100
AcDb3dPolylineVertex
 10
8412563.0163243264
 20
5786674.90976701304
 30
0.000
 70
32
  0
VERTEX
  5
79
100
AcDbEntity
  8
PZT_KRAWEZNIKI
100
AcDbVertex
100
AcDb3dPolylineVertex
 10
8412562.80263126642
 20
5786674.13935744017
 30
0.000
 70
32
  0
VERTEX
  5
7A
100
AcDbEntity
  8
PZT_KRAWEZNIKI
100
AcDbVertex
100
AcDb3dPolylineVertex
 10
8412485.44521084428
 20
5786695.49176151771
 30
0.000
 70
32
  0
SEQEND
  5
7B
100
AcDbEntity
  8
PZT_KRAWEZNIKI
  0
POLYLINE
  5
7C
100
AcDbEntity
  8
PZT_KRAWEZNIKI
  6
CONTINUOUS
370
25
100
AcDb3dPolyline
 66
1
 70
136
  0
VERTEX
  5
7D
100
AcDbEntity
  8
PZT_KRAWEZNIKI
100
AcDbVertex
100
AcDb3dPolylineVertex
 10
8412498.20826630481
 20
5786763.4520509569
 30
0.000
 70
32
  0
VERTEX
  5
7E
100
AcDbEntity
  8
PZT_KRAWEZNIKI
100
AcDbVertex
100
AcDb3dPolylineVertex
 10
8412495.4613249246
 20
5786751.69777710643
 30
0.000
 70
32
  0
SEQEND
  5
7F
100
AcDbEntity
  8
PZT_KRAWEZNIKI
  0
POLYLINE
  5
80
100
AcDbEntity
  8
PZT_KRAWEZNIKI
  6
CONTINUOUS
370
25
100
AcDb3dPolyline
 66
1
 70
136
  0
VERTEX
  5
81
100
AcDbEntity
  8
PZT_KRAWEZNIKI
100
AcDbVertex
100
AcDb3dPolylineVertex
 10
8412495.4613249246
 20
5786751.69777710643
 30
0.000
 70
32
  0
VERTEX
  5
82
100
AcDbEntity
  8
PZT_KRAWEZNIKI
100
AcDbVertex
100
AcDb3dPolylineVertex
 10
8412493.18897772767
 20
5786741.97360159364
 30
0.000
 70
32
  0
VERTEX
  5
83
100
AcDbEntity
  8
PZT_KRAWEZNIKI
100
AcDbVertex
100
AcDb3dPolylineVertex
 10
8412493.12121410295
 20
5786741.68361712806
 30
0.000
 70
32
  0
SEQEND
  5
84
100
AcDbEntity
  8
PZT_KRAWEZNIKI
  0
POLYLINE
  5
85
100
AcDbEntity
  8
PZT_KRAWEZNIKI
  6
CONTINUOUS
370
25
100
AcDb3dPolyline
 66
1
 70
136
  0
VERTEX
  5
86
100
AcDbEntity
  8
PZT_KRAWEZNIKI
100
AcDbVertex
100
AcDb3dPolylineVertex
 10
8412484.86546595581
 20
5786696.48070393503
 30
0.000
 70
32
  0
VERTEX
  5
87
100
AcDbEntity
  8
PZT_KRAWEZNIKI
100
AcDbVertex
100
AcDb3dPolylineVertex
 10
8412481.40797894262
 20
5786682.56219965313
 70
32
  0
SEQEND
  5
88
100
AcDbEntity
  8
PZT_KRAWEZNIKI
  0
POLYLINE
  5
89
100
AcDbEntity
  8
PZT_KRAWEZNIKI
  6
CONTINUOUS
370
25
100
AcDb3dPolyline
 66
1
 70
136
  0
VERTEX
  5
8A
100
AcDbEntity
  8
PZT_KRAWEZNIKI
100
AcDbVertex
100
AcDb3dPolylineVertex
 10
8412485.44521084428
 20
5786695.49176151771
 30
0.000
 70
32
  0
VERTEX
  5
8B
100
AcDbEntity
  8
PZT_KRAWEZNIKI
100
AcDbVertex
100
AcDb3dPolylineVertex
 10
8412481.91547046416
 20
5786681.28536625579
 70
32
  0
SEQEND
  5
8C
100
AcDbEntity
  8
PZT_KRAWEZNIKI
  0
POLYLINE
  5
8D
100
AcDbEntity
  8
PZT_KRAWEZNIKI
  6
CONTINUOUS
370
25
100
AcDb3dPolyline
 66
1
 70
136
  0
VERTEX
  5
8E
100
AcDbEntity
  8
PZT_KRAWEZNIKI
100
AcDbVertex
100
AcDb3dPolylineVertex
 10
8412484.86546595581
 20
5786696.48070393503
 30
0.000
 70
32
  0
VERTEX
  5
8F
100
AcDbEntity
  8
PZT_KRAWEZNIKI
100
AcDbVertex
100
AcDb3dPolylineVertex
 10
8412482.20258632861
 20
5786697.21702134144
 70
32
  0
SEQEND
  5
90
100
AcDbEntity
  8
PZT_KRAWEZNIKI
  0
POLYLINE
  5
91
100
AcDbEntity
  8
PZT_KRAWEZNIKI
  6
CONTINUOUS
370
25
100
AcDb3dPolyline
 66
1
 70
136
  0
VERTEX
  5
92
100
AcDbEntity
  8
PZT_KRAWEZNIKI
100
AcDbVertex
100
AcDb3dPolylineVertex
 10
8412527.54388234019
 20
5786792.54816106148
 30
0.000
 70
32
  0
VERTEX
  5
93
100
AcDbEntity
  8
PZT_KRAWEZNIKI
100
AcDbVertex
100
AcDb3dPolylineVertex
 10
8412522.93107226305
 20
5786775.91798583698
 70
32
  0
SEQEND
  5
94
100
AcDbEntity
  8
PZT_KRAWEZNIKI
  0
POLYLINE
  5
95
100
AcDbEntity
  8
PZT_KRAWEZNIKI
  6
CONTINUOUS
370
25
100
AcDb3dPolyline
 66
1
 70
136
  0
VERTEX
  5
96
100
AcDbEntity
  8
PZT_KRAWEZNIKI
100
AcDbVertex
100
AcDb3dPolylineVertex
 10
8412522.93107226305
 20
5786775.91798583698
 70
32
  0
VERTEX
  5
97
100
AcDbEntity
  8
PZT_KRAWEZNIKI
100
AcDbVertex
100
AcDb3dPolylineVertex
 10
8412526.25255087949
 20
5786775.00074631162
 70
32
  0
SEQEND
  5
98
100
AcDbEntity
  8
PZT_KRAWEZNIKI
  0
POLYLINE
  5
99
100
AcDbEntity
  8
PZT_KRAWEZNIKI
  6
CONTINUOUS
370
25
100
AcDb3dPolyline
 66
1
 70
136
  0
VERTEX
  5
9A
100
AcDbEntity
  8
PZT_KRAWEZNIKI
100
AcDbVertex
100
AcDb3dPolylineVertex
 10
8412526.09658611938
 20
5786792.94289612211
 70
32
  0
VERTEX
  5
9B
100
AcDbEntity
  8
PZT_KRAWEZNIKI
100
AcDbVertex
100
AcDb3dPolylineVertex
 10
8412520.62010432035
 20
5786773.20121461805
 30
0.000
 70
32
  0
SEQEND
  5
9C
100
AcDbEntity
  8
PZT_KRAWEZNIKI
  0
POLYLINE
  5
9D
100
AcDbEntity
  8
PZT_KRAWEZNIKI
  6
CONTINUOUS
370
25
100
AcDb3dPolyline
 66
1
 70
136
  0
VERTEX
  5
9E
100
AcDbEntity
  8
PZT_KRAWEZNIKI
100
AcDbVertex
100
AcDb3dPolylineVertex
 10
8412515.05744437501
 20
5786757.23444626294
 30
0.000
 70
32
  0
VERTEX
  5
9F
100
AcDbEntity
  8
PZT_KRAWEZNIKI
100
AcDbVertex
100
AcDb3dPolylineVertex
 10
8412527.12248079479
 20
5786753.90429551527
 30
0.000
 70
32
  0
SEQEND
  5
A0
100
AcDbEntity
  8
PZT_KRAWEZNIKI
  0
POLYLINE
  5
A1
100
AcDbEntity
  8
PZT_KRAWEZNIKI
  6
CONTINUOUS
370
25
100
AcDb3dPolyline
 66
1
 70
136
  0
VERTEX
  5
A2
100
AcDbEntity
  8
PZT_KRAWEZNIKI
100
AcDbVertex
100
AcDb3dPolylineVertex
 10
8412525.78689916432
 20
5786749.08923567086
 30
0.000
 70
32
  0
VERTEX
  5
A3
100
AcDbEntity
  8
PZT_KRAWEZNIKI
100
AcDbVertex
100
AcDb3dPolylineVertex
 10
8412527.12248079479
 20
5786753.90429551527
 30
0.000
 70
32
  0
SEQEND
  5
A4
100
AcDbEntity
  8
PZT_KRAWEZNIKI
  0
POLYLINE
  5
A5
100
AcDbEntity
  8
PZT_KRAWEZNIKI
  6
CONTINUOUS
370
25
100
AcDb3dPolyline
 66
1
 70
136
  0
VERTEX
  5
A6
100
AcDbEntity
  8
PZT_KRAWEZNIKI
100
AcDbVertex
100
AcDb3dPolylineVertex
 10
8412506.36603685841
 20
5786748.74452221394
 30
0.000
 70
32
  0
VERTEX
  5
A7
100
AcDbEntity
  8
PZT_KRAWEZNIKI
100
AcDbVertex
100
AcDb3dPolylineVertex
 10
8412505.03045522794
 20
5786743.92946236953
 30
0.000
 70
32
  0
SEQEND
  5
A8
100
AcDbEntity
  8
PZT_KRAWEZNIKI
  0
POLYLINE
  5
A9
100
AcDbEntity
  8
PZT_KRAWEZNIKI
  6
CONTINUOUS
370
25
100
AcDb3dPolyline
 66
1
 70
136
  0
VERTEX
  5
AA
100
AcDbEntity
  8
PZT_KRAWEZNIKI
100
AcDbVertex
100
AcDb3dPolylineVertex
 10
8412552.71061316691
 20
5786785.16626075469
 30
0.000
 70
32
  0
VERTEX
  5
AB
100
AcDbEntity
  8
PZT_KRAWEZNIKI
100
AcDbVertex
100
AcDb3dPolylineVertex
 10
8412553.23901486024
 20
5786787.09414306749
 70
32
  0
SEQEND
  5
AC
100
AcDbEntity
  8
PZT_KRAWEZNIKI
  0
POLYLINE
  5
AD
100
AcDbEntity
  8
PZT_KRAWEZNIKI
  6
CONTINUOUS
370
25
100
AcDb3dPolyline
 66
1
 70
136
  0
VERTEX
  5
AE
100
AcDbEntity
  8
PZT_KRAWEZNIKI
100
AcDbVertex
100
AcDb3dPolylineVertex
 10
8412592.04801239632
 20
5786737.26629167888
 30
0.000
 70
32
  0
VERTEX
  5
AF
100
AcDbEntity
  8
PZT_KRAWEZNIKI
100
AcDbVertex
100
AcDb3dPolylineVertex
 10
8412591.00989289582
 20
5786737.54645467922
 70
32
  0
SEQEND
  5
B0
100
AcDbEntity
  8
PZT_KRAWEZNIKI
  0
POLYLINE
  5
B1
100
AcDbEntity
  8
PZT_KRAWEZNIKI
  6
CONTINUOUS
370
25
100
AcDb3dPolyline
 66
1
 70
136
  0
VERTEX
  5
B2
100
AcDbEntity
  8
PZT_KRAWEZNIKI
100
AcDbVertex
100
AcDb3dPolylineVertex
 10
8412505.47000000067
 20
5786771.34999999963
 30
0.000
 70
32
  0
VERTEX
  5
B3
100
AcDbEntity
  8
PZT_KRAWEZNIKI
100
AcDbVertex
100
AcDb3dPolylineVertex
 10
8412500.6400000006
 20
5786772.69000000041
 30
0.000
 70
32
  0
VERTEX
  5
B4
100
AcDbEntity
  8
PZT_KRAWEZNIKI
100
AcDbVertex
100
AcDb3dPolylineVertex
 10
8412506.65000000037
 20
5786794.34999999963
 30
0.000
 70
32
  0
VERTEX
  5
B5
100
AcDbEntity
  8
PZT_KRAWEZNIKI
100
AcDbVertex
100
AcDb3dPolylineVertex
 10
8412511.48000000045
 20
5786793.01999999955
 30
0.000
 70
32
  0
SEQEND
  5
B6
100
AcDbEntity
  8
PZT_KRAWEZNIKI
  0
POLYLINE
  5
B7
100
AcDbEntity
  8
PZT_KRAWEZNIKI
  6
CONTINUOUS
370
25
100
AcDb3dPolyline
 66
1
 70
136
  0
VERTEX
  5
B8
100
AcDbEntity
  8
PZT_KRAWEZNIKI
100
AcDbVertex
100
AcDb3dPolylineVertex
 10
8412498.53411503136
 20
5786733.14080979675
 30
0.000
 70
32
  0
VERTEX
  5
B9
100
AcDbEntity
  8
PZT_KRAWEZNIKI
100
AcDbVertex
100
AcDb3dPolylineVertex
 10
8412492.17691301554
 20
5786737.64176189434
 70
32
  0
SEQEND
  5
BA
100
AcDbEntity
  8
PZT_KRAWEZNIKI
  0
POLYLINE
  5
BB
100
AcDbEntity
  8
PZT_KRAWEZNIKI
  6
CONTINUOUS
370
25
100
AcDb3dPolyline
 66
1
 70
136
  0
VERTEX
  5
BC
100
AcDbEntity
  8
PZT_KRAWEZNIKI
100
AcDbVertex
100
AcDb3dPolylineVertex
 10
8412498.53411503136
 20
5786733.14080979675
 30
0.000
 70
32
  0
VERTEX
  5
BD
100
AcDbEntity
  8
PZT_KRAWEZNIKI
100
AcDbVertex
100
AcDb3dPolylineVertex
 10
8412517.83817330189
 20
5786727.81256859563
 30
0.000
 70
32
  0
SEQEND
  5
BE
100
AcDbEntity
  8
PZT_KRAWEZNIKI
  0
POLYLINE
  5
BF
100
AcDbEntity
  8
PZT_KRAWEZNIKI
  6
CONTINUOUS
370
25
100
AcDb3dPolyline
 66
1
 70
136
  0
VERTEX
  5
C0
100
AcDbEntity
  8
PZT_KRAWEZNIKI
100
AcDbVertex
100
AcDb3dPolylineVertex
 10
8412517.83817330189
 20
5786727.81256859563
 30
0.000
 70
32
  0
VERTEX
  5
C1
100
AcDbEntity
  8
PZT_KRAWEZNIKI
100
AcDbVertex
100
AcDb3dPolylineVertex
 10
8412515.58568982966
 20
5786719.69187986292
 70
32
  0
SEQEND
  5
C2
100
AcDbEntity
  8
PZT_KRAWEZNIKI
  0
POLYLINE
  5
C3
100
AcDbEntity
  8
PZT_KRAWEZNIKI
  6
CONTINUOUS
370
25
100
AcDb3dPolyline
 66
1
 70
136
  0
VERTEX
  5
C4
100
AcDbEntity
  8
PZT_KRAWEZNIKI
100
AcDbVertex
100
AcDb3dPolylineVertex
 10
8412499.84298406728
 20
5786697.77285026293
 70
32
  0
VERTEX
  5
C5
100
AcDbEntity
  8
PZT_KRAWEZNIKI
100
AcDbVertex
100
AcDb3dPolylineVertex
 10
8412503.52013565227
 20
5786711.02977479808
 70
32
  0
SEQEND
  5
C6
100
AcDbEntity
  8
PZT_KRAWEZNIKI
  0
POLYLINE
  5
C7
100
AcDbEntity
  8
PZT_KRAWEZNIKI
  6
CONTINUOUS
370
25
100
AcDb3dPolyline
 66
1
 70
136
  0
VERTEX
  5
C8
100
AcDbEntity
  8
PZT_KRAWEZNIKI
100
AcDbVertex
100
AcDb3dPolylineVertex
 10
8412489.51463692635
 20
5786700.62364588864
 70
32
  0
VERTEX
  5
C9
100
AcDbEntity
  8
PZT_KRAWEZNIKI
100
AcDbVertex
100
AcDb3dPolylineVertex
 10
8412499.84298406728
 20
5786697.77285026293
 70
32
  0
SEQEND
  5
CA
100
AcDbEntity
  8
PZT_KRAWEZNIKI
  0
POLYLINE
  5
CB
100
AcDbEntity
  8
PZT_KRAWEZNIKI
  6
CONTINUOUS
370
25
100
AcDb3dPolyline
 66
1
 70
136
  0
VERTEX
  5
CC
100
AcDbEntity
  8
PZT_KRAWEZNIKI
100
AcDbVertex
100
AcDb3dPolylineVertex
 10
8412512.42491908558
 20
5786757.96034767386
 70
32
  0
VERTEX
  5
CD
100
AcDbEntity
  8
PZT_KRAWEZNIKI
100
AcDbVertex
100
AcDb3dPolylineVertex
 10
8412507.81842252053
 20
5786759.23253671452
 30
0.000
 70
32
  0
SEQEND
  5
CE
100
AcDbEntity
  8
PZT_KRAWEZNIKI
  0
POLYLINE
  5
CF
100
AcDbEntity
  8
PZT_KRAWEZNIKI
  6
CONTINUOUS
370
25
100
AcDb3dPolyline
 66
1
 70
136
  0
VERTEX
  5
D0
100
AcDbEntity
  8
PZT_KRAWEZNIKI
100
AcDbVertex
100
AcDb3dPolylineVertex
 10
8412503.1799999997
 20
5786762.09999999963
 70
32
  0
VERTEX
  5
D1
100
AcDbEntity
  8
PZT_KRAWEZNIKI
100
AcDbVertex
100
AcDb3dPolylineVertex
 10
8412502.49529249966
 20
5786759.62367699575
 30
0.000
 70
32
  0
SEQEND
  5
D2
100
AcDbEntity
  8
PZT_KRAWEZNIKI
  0
POLYLINE
  5
D3
100
AcDbEntity
  8
PZT_KRAWEZNIKI
  6
CONTINUOUS
370
25
100
AcDb3dPolyline
 66
1
 70
136
  0
VERTEX
  5
D4
100
AcDbEntity
  8
PZT_KRAWEZNIKI
100
AcDbVertex
100
AcDb3dPolylineVertex
 10
8412507.81842252053
 20
5786759.23253671452
 30
0.000
 70
32
  0
VERTEX
  5
D5
100
AcDbEntity
  8
PZT_KRAWEZNIKI
100
AcDbVertex
100
AcDb3dPolylineVertex
 10
8412508.23060956039
 20
5786760.71856060065
 70
32
  0
SEQEND
  5
D6
100
AcDbEntity
  8
PZT_KRAWEZNIKI
  0
POLYLINE
  5
D7
100
AcDbEntity
  8
PZT_KRAWEZNIKI
  6
CONTINUOUS
370
25
100
AcDb3dPolyline
 66
1
 70
136
  0
VERTEX
  5
D8
100
AcDbEntity
  8
PZT_KRAWEZNIKI
100
AcDbVertex
100
AcDb3dPolylineVertex
 10
8412512.64443709142
 20
5786757.90047641471
 30
0.000
 70
32
  0
VERTEX
  5
D9
100
AcDbEntity
  8
PZT_KRAWEZNIKI
100
AcDbVertex
100
AcDb3dPolylineVertex
 10
8412515.05744437501
 20
5786757.23444626294
 30
0.000
 70
32
  0
SEQEND
  5
DA
100
AcDbEntity
  8
PZT_KRAWEZNIKI
  0
POLYLINE
  5
DB
100
AcDbEntity
  8
PZT_KRAWEZNIKI
  6
CONTINUOUS
370
25
100
AcDb3dPolyline
 66
1
 70
136
  0
VERTEX
  5
DC
100
AcDbEntity
  8
PZT_KRAWEZNIKI
100
AcDbVertex
100
AcDb3dPolylineVertex
 10
8412515.58568982966
 20
5786719.69187986292
 70
32
  0
VERTEX
  5
DD
100
AcDbEntity
  8
PZT_KRAWEZNIKI
100
AcDbVertex
100
AcDb3dPolylineVertex
 10
8412518.76240345463
 20
5786718.81923683081
 30
0.000
 70
32
  0
SEQEND
  5
DE
100
AcDbEntity
  8
PZT_KRAWEZNIKI
  0
POLYLINE
  5
DF
100
AcDbEntity
  8
PZT_KRAWEZNIKI
  6
CONTINUOUS
370
25
100
AcDb3dPolyline
 66
1
 70
136
  0
VERTEX
  5
E0
100
AcDbEntity
  8
PZT_KRAWEZNIKI
100
AcDbVertex
100
AcDb3dPolylineVertex
 10
8412553.23901486024
 20
5786787.09414306749
 70
32
  0
VERTEX
  5
E1
100
AcDbEntity
  8
PZT_KRAWEZNIKI
100
AcDbVertex
100
AcDb3dPolylineVertex
 10
8412523.01284545101
 20
5786795.33801787253
 30
0.000
 70
32
  0
SEQEND
  5
E2
100
AcDbEntity
  8
PZT_KRAWEZNIKI
  0
POLYLINE
  5
E3
100
AcDbEntity
  8
PZT_KRAWEZNIKI
  6
CONTINUOUS
370
25
100
AcDb3dPolyline
 66
1
 70
136
  0
VERTEX
  5
E4
100
AcDbEntity
  8
PZT_KRAWEZNIKI
100
AcDbVertex
100
AcDb3dPolylineVertex
 10
8412519.16693136841
 20
5786794.83288772218
 30
0.000
 70
32
  0
VERTEX
  5
E5
100
AcDbEntity
  8
PZT_KRAWEZNIKI
100
AcDbVertex
100
AcDb3dPolylineVertex
 10
8412526.09658611938
 20
5786792.94289612211
 70
32
  0
SEQEND
  5
E6
100
AcDbEntity
  8
PZT_KRAWEZNIKI
  0
POLYLINE
  5
E7
100
AcDbEntity
  8
PZT_KRAWEZNIKI
  6
CONTINUOUS
370
25
100
AcDb3dPolyline
 66
1
 70
136
  0
VERTEX
  5
E8
100
AcDbEntity
  8
PZT_KRAWEZNIKI
100
AcDbVertex
100
AcDb3dPolylineVertex
 10
8412527.54388234019
 20
5786792.54816106148
 30
0.000
 70
32
  0
VERTEX
  5
E9
100
AcDbEntity
  8
PZT_KRAWEZNIKI
100
AcDbVertex
100
AcDb3dPolylineVertex
 10
8412547.21066495404
 20
5786787.18424969539
 70
32
  0
SEQEND
  5
EA
100
AcDbEntity
  8
PZT_KRAWEZNIKI
  0
POLYLINE
  5
EB
100
AcDbEntity
  8
PZT_KRAWEZNIKI
  6
CONTINUOUS
370
25
100
AcDb3dPolyline
 66
1
 70
136
  0
VERTEX
  5
EC
100
AcDbEntity
  8
PZT_KRAWEZNIKI
100
AcDbVertex
100
AcDb3dPolylineVertex
 10
8412552.39192295074
 20
5786791.46865865961
 30
0.000
 70
32
  0
VERTEX
  5
ED
100
AcDbEntity
  8
PZT_KRAWEZNIKI
100
AcDbVertex
100
AcDb3dPolylineVertex
 10
8412525.89008077048
 20
5786798.69676176645
 30
0.000
 70
32
  0
SEQEND
  5
EE
100
AcDbEntity
  8
PZT_KRAWEZNIKI
  0
POLYLINE
  5
EF
100
AcDbEntity
  8
PZT_KRAWEZNIKI
  6
CONTINUOUS
370
25
100
AcDb3dPolyline
 66
1
 70
136
  0
VERTEX
  5
F0
100
AcDbEntity
  8
PZT_KRAWEZNIKI
100
AcDbVertex
100
AcDb3dPolylineVertex
 10
8412523.55431293324
 20
5786801.99080933724
 30
0.000
 70
32
  0
VERTEX
  5
F1
100
AcDbEntity
  8
PZT_KRAWEZNIKI
100
AcDbVertex
100
AcDb3dPolylineVertex
 10
8412553.05067540519
 20
5786793.84932264686
 30
0.000
 70
32
  0
SEQEND
  5
F2
100
AcDbEntity
  8
PZT_KRAWEZNIKI
  0
POLYLINE
  5
F3
100
AcDbEntity
  8
PZT_KRAWEZNIKI
  6
CONTINUOUS
370
25
100
AcDb3dPolyline
 66
1
 70
136
  0
VERTEX
  5
F4
100
AcDbEntity
  8
PZT_KRAWEZNIKI
100
AcDbVertex
100
AcDb3dPolylineVertex
 10
8412553.39972428978
 20
5786793.23463078123
 30
0.000
 70
32
  0
VERTEX
  5
F5
100
AcDbEntity
  8
PZT_KRAWEZNIKI
100
AcDbVertex
100
AcDb3dPolylineVertex
 10
8412553.00660836883
 20
5786791.81736309733
 30
0.000
 70
32
  0
SEQEND
  5
F6
100
AcDbEntity
  8
PZT_KRAWEZNIKI
  0
POLYLINE
  5
F7
100
AcDbEntity
  8
PZT_KRAWEZNIKI
  6
CONTINUOUS
370
25
100
AcDb3dPolyline
 66
1
 70
136
  0
VERTEX
  5
F8
100
AcDbEntity
  8
PZT_KRAWEZNIKI
100
AcDbVertex
100
AcDb3dPolylineVertex
 10
8412524.25999999978
 20
5786799.58000000007
 30
0.000
 70
32
  0
VERTEX
  5
F9
100
AcDbEntity
  8
PZT_KRAWEZNIKI
100
AcDbVertex
100
AcDb3dPolylineVertex
 10
8412522.40000000037
 20
5786801.25999999978
 30
0.000
 70
32
  0
SEQEND
  5
FA
100
AcDbEntity
  8
PZT_KRAWEZNIKI
  0
POLYLINE
  5
FB
100
AcDbEntity
  8
PZT_KRAWEZNIKI
  6
CONTINUOUS
370
25
100
AcDb3dPolyline
 66
1
 70
136
  0
VERTEX
  5
FC
100
AcDbEntity
  8
PZT_KRAWEZNIKI
100
AcDbVertex
100
AcDb3dPolylineVertex
 10
8412507.3876014445
 20
5786818.46533498168
 30
0.000
 70
32
  0
VERTEX
  5
FD
100
AcDbEntity
  8
PZT_KRAWEZNIKI
100
AcDbVertex
100
AcDb3dPolylineVertex
 10
8412526.71756471135
 20
5786812.88710007258
 30
0.000
 70
32
  0
SEQEND
  5
FE
100
AcDbEntity
  8
PZT_KRAWEZNIKI
  0
POLYLINE
  5
FF
100
AcDbEntity
  8
PZT_KRAWEZNIKI
  6
CONTINUOUS
370
25
100
AcDb3dPolyline
 66
1
 70
136
  0
VERTEX
  5
100
100
AcDbEntity
  8
PZT_KRAWEZNIKI
100
AcDbVertex
100
AcDb3dPolylineVertex
 10
8412530.98515452445
 20
5786810.38491108734
 30
0.000
 70
32
  0
VERTEX
  5
101
100
AcDbEntity
  8
PZT_KRAWEZNIKI
100
AcDbVertex
100
AcDb3dPolylineVertex
 10
8412537.95956831239
 20
5786803.48664864246
 30
0.000
 70
32
  0
SEQEND
  5
102
100
AcDbEntity
  8
PZT_KRAWEZNIKI
  0
POLYLINE
  5
103
100
AcDbEntity
  8
PZT_KRAWEZNIKI
  6
CONTINUOUS
370
25
100
AcDb3dPolyline
 66
1
 70
136
  0
VERTEX
  5
104
100
AcDbEntity
  8
PZT_KRAWEZNIKI
100
AcDbVertex
100
AcDb3dPolylineVertex
 10
8412542.3394962512
 20
5786800.95274838246
 30
0.000
 70
32
  0
VERTEX
  5
105
100
AcDbEntity
  8
PZT_KRAWEZNIKI
100
AcDbVertex
100
AcDb3dPolylineVertex
 10
8412608.1946692504
 20
5786782.7756251255
 30
0.000
 70
32
  0
VERTEX
  5
106
100
AcDbEntity
  8
PZT_KRAWEZNIKI
100
AcDbVertex
100
AcDb3dPolylineVertex
 10
8412617.49583315849
 20
5786779.89267010894
 30
0.000
 70
32
  0
VERTEX
  5
107
100
AcDbEntity
  8
PZT_KRAWEZNIKI
100
AcDbVertex
100
AcDb3dPolylineVertex
 10
8412616.8280423414
 20
5786777.48514019139
 30
0.000
 70
32
  0
VERTEX
  5
108
100
AcDbEntity
  8
PZT_KRAWEZNIKI
100
AcDbVertex
100
AcDb3dPolylineVertex
 10
8412616.16025150381
 20
5786775.07761018164
 30
0.000
 70
32
  0
VERTEX
  5
109
100
AcDbEntity
  8
PZT_KRAWEZNIKI
100
AcDbVertex
100
AcDb3dPolylineVertex
 10
8412594.44094228372
 20
5786750.33521503117
 30
0.000
 70
32
  0
VERTEX
  5
10A
100
AcDbEntity
  8
PZT_KRAWEZNIKI
100
AcDbVertex
100
AcDb3dPolylineVertex
 10
8412573.43389053456
 20
5786672.03434544522
 30
0.000
 70
32
  0
SEQEND
  5
10B
100
AcDbEntity
  8
PZT_KRAWEZNIKI
  0
POLYLINE
  5
10C
100
AcDbEntity
  8
PZT_KRAWEZNIKI
  6
CONTINUOUS
370
25
100
AcDb3dPolyline
 66
1
 70
136
  0
VERTEX
  5
10D
100
AcDbEntity
  8
PZT_KRAWEZNIKI
100
AcDbVertex
100
AcDb3dPolylineVertex
 10
8412547.07858090475
 20
5786786.70233885013
 70
32
  0
VERTEX
  5
10E
100
AcDbEntity
  8
PZT_KRAWEZNIKI
100
AcDbVertex
100
AcDb3dPolylineVertex
 10
8412547.21066495404
 20
5786787.18424969539
 70
32
  0
SEQEND
  5
10F
100
AcDbEntity
  8
PZT_KRAWEZNIKI
  0
POLYLINE
  5
110
100
AcDbEntity
  8
PZT_KRAWEZNIKI
  6
CONTINUOUS
370
25
100
AcDb3dPolyline
 66
1
 70
136
  0
VERTEX
  5
111
100
AcDbEntity
  8
PZT_KRAWEZNIKI
100
AcDbVertex
100
AcDb3dPolylineVertex
 10
8412548.58538085222
 20
5786786.29137474764
 70
32
  0
VERTEX
  5
112
100
AcDbEntity
  8
PZT_KRAWEZNIKI
100
AcDbVertex
100
AcDb3dPolylineVertex
 10
8412548.71746491268
 20
5786786.77328559291
 70
32
  0
SEQEND
  5
113
100
AcDbEntity
  8
PZT_KRAWEZNIKI
  0
POLYLINE
  5
114
100
AcDbEntity
  8
PZT_KRAWEZNIKI
  6
CONTINUOUS
370
25
100
AcDb3dPolyline
 66
1
 70
136
  0
VERTEX
  5
115
100
AcDbEntity
  8
PZT_KRAWEZNIKI
100
AcDbVertex
100
AcDb3dPolylineVertex
 10
8412548.71746491268
 20
5786786.77328559291
 70
32
  0
VERTEX
  5
116
100
AcDbEntity
  8
PZT_KRAWEZNIKI
100
AcDbVertex
100
AcDb3dPolylineVertex
 10
8412552.84269711562
 20
5786785.64817122836
 70
32
  0
SEQEND
  5
117
100
AcDbEntity
  8
PZT_KRAWEZNIKI
  0
POLYLINE
  5
118
100
AcDbEntity
  8
PZT_KRAWEZNIKI
  6
CONTINUOUS
370
25
100
AcDb3dPolyline
 66
1
 70
136
  0
VERTEX
  5
119
100
AcDbEntity
  8
PZT_KRAWEZNIKI
100
AcDbVertex
100
AcDb3dPolylineVertex
 10
8412517.36753690243
 20
5786761.33416830283
 70
32
  0
VERTEX
  5
11A
100
AcDbEntity
  8
PZT_KRAWEZNIKI
100
AcDbVertex
100
AcDb3dPolylineVertex
 10
8412498.89094356075
 20
5786766.37346783187
 70
32
  0
SEQEND
  5
11B
100
AcDbEntity
  8
PZT_KRAWEZNIKI
  0
POLYLINE
  5
11C
100
AcDbEntity
  8
PZT_KRAWEZNIKI
  6
CONTINUOUS
370
25
100
AcDb3dPolyline
 66
1
 70
136
  0
VERTEX
  5
11D
100
AcDbEntity
  8
PZT_KRAWEZNIKI
100
AcDbVertex
100
AcDb3dPolylineVertex
 10
8412516.57503322326
 20
5786758.44270544685
 70
32
  0
VERTEX
  5
11E
100
AcDbEntity
  8
PZT_KRAWEZNIKI
100
AcDbVertex
100
AcDb3dPolylineVertex
 10
8412498.20826630481
 20
5786763.4520509569
 30
0.000
 70
32
  0
SEQEND
  5
11F
100
AcDbEntity
  8
PZT_KRAWEZNIKI
  0
POLYLINE
  5
120
100
AcDbEntity
  8
PZT_KRAWEZNIKI
  6
CONTINUOUS
370
25
100
AcDb3dPolyline
 66
1
 70
136
  0
VERTEX
  5
121
100
AcDbEntity
  8
PZT_KRAWEZNIKI
100
AcDbVertex
100
AcDb3dPolylineVertex
 10
8412503.52013565227
 20
5786711.02977479808
 70
32
  0
VERTEX
  5
122
100
AcDbEntity
  8
PZT_KRAWEZNIKI
100
AcDbVertex
100
AcDb3dPolylineVertex
 10
8412505.54638579674
 20
5786710.4704960417
 30
0.000
 70
32
  0
SEQEND
  5
123
100
AcDbEntity
  8
PZT_KRAWEZNIKI
  0
POLYLINE
  5
124
100
AcDbEntity
  8
PZT_KRAWEZNIKI
  6
CONTINUOUS
370
25
100
AcDb3dPolyline
 66
1
 70
136
  0
VERTEX
  5
125
100
AcDbEntity
  8
PZT_KRAWEZNIKI
100
AcDbVertex
100
AcDb3dPolylineVertex
 10
8412505.54638579674
 20
5786710.4704960417
 30
0.000
 70
32
  0
VERTEX
  5
126
100
AcDbEntity
  8
PZT_KRAWEZNIKI
100
AcDbVertex
100
AcDb3dPolylineVertex
 10
8412500.47117559239
 20
5786692.17326863296
 30
0.000
 70
32
  0
SEQEND
  5
127
100
AcDbEntity
  8
PZT_KRAWEZNIKI
  0
POLYLINE
  5
128
100
AcDbEntity
  8
PZT_KRAWEZNIKI
  6
CONTINUOUS
370
25
100
AcDb3dPolyline
 66
1
 70
136
  0
VERTEX
  5
129
100
AcDbEntity
  8
PZT_KRAWEZNIKI
100
AcDbVertex
100
AcDb3dPolylineVertex
 10
8412503.93431936018
 20
5786745.26460817084
 30
0.000
 70
32
  0
VERTEX
  5
12A
100
AcDbEntity
  8
PZT_KRAWEZNIKI
100
AcDbVertex
100
AcDb3dPolylineVertex
 10
8412504.72852859274
 20
5786748.15869645122
 30
0.000
 70
32
  0
SEQEND
  5
12B
100
AcDbEntity
  8
PZT_KRAWEZNIKI
  0
POLYLINE
  5
12C
100
AcDbEntity
  8
PZT_KRAWEZNIKI
  6
CONTINUOUS
370
25
100
AcDb3dPolyline
 66
1
 70
136
  0
VERTEX
  5
12D
100
AcDbEntity
  8
PZT_KRAWEZNIKI
100
AcDbVertex
100
AcDb3dPolylineVertex
 10
8412518.76240345463
 20
5786718.81923683081
 30
0.000
 70
32
  0
VERTEX
  5
12E
100
AcDbEntity
  8
PZT_KRAWEZNIKI
100
AcDbVertex
100
AcDb3dPolylineVertex
 10
8412533.22812692821
 20
5786714.84270740673
 30
0.000
 70
32
  0
SEQEND
  5
12F
100
AcDbEntity
  8
PZT_KRAWEZNIKI
  0
POLYLINE
  5
130
100
AcDbEntity
  8
PZT_KRAWEZNIKI
  6
CONTINUOUS
370
25
100
AcDb3dPolyline
 66
1
 70
136
  0
VERTEX
  5
131
100
AcDbEntity
  8
PZT_KRAWEZNIKI
100
AcDbVertex
100
AcDb3dPolylineVertex
 10
8412496.04738236778
 20
5786735.52628184296
 30
0.000
 70
32
  0
VERTEX
  5
132
100
AcDbEntity
  8
PZT_KRAWEZNIKI
100
AcDbVertex
100
AcDb3dPolylineVertex
 10
8412498.82287726924
 20
5786745.57765233144
 70
32
  0
SEQEND
  5
133
100
AcDbEntity
  8
PZT_KRAWEZNIKI
  0
POLYLINE
  5
134
100
AcDbEntity
  8
PZT_KRAWEZNIKI
  6
CONTINUOUS
370
25
100
AcDb3dPolyline
 66
1
 70
136
  0
VERTEX
  5
135
100
AcDbEntity
  8
PZT_KRAWEZNIKI
100
AcDbVertex
100
AcDb3dPolylineVertex
 10
8412505.03045522794
 20
5786743.92946236953
 30
0.000
 70
32
  0
VERTEX
  5
136
100
AcDbEntity
  8
PZT_KRAWEZNIKI
100
AcDbVertex
100
AcDb3dPolylineVertex
 10
8412504.6360819079
 20
5786744.03701211512
 30
0.000
 70
32
  0
SEQEND
  5
137
100
AcDbEntity
  8
PZT_KRAWEZNIKI
  0
POLYLINE
  5
138
100
AcDbEntity
  8
PZT_KRAWEZNIKI
  6
CONTINUOUS
370
25
100
AcDb3dPolyline
 66
1
 70
136
  0
VERTEX
  5
139
100
AcDbEntity
  8
PZT_KRAWEZNIKI
100
AcDbVertex
100
AcDb3dPolylineVertex
 10
8412506.36603685841
 20
5786748.74452221394
 30
0.000
 70
32
  0
VERTEX
  5
13A
100
AcDbEntity
  8
PZT_KRAWEZNIKI
100
AcDbVertex
100
AcDb3dPolylineVertex
 10
8412505.95862694271
 20
5786748.85874229483
 30
0.000
 70
32
  0
SEQEND
  5
13B
100
AcDbEntity
  8
PZT_KRAWEZNIKI
  0
POLYLINE
  5
13C
100
AcDbEntity
  8
PZT_KRAWEZNIKI
  6
CONTINUOUS
370
25
100
AcDb3dPolyline
 66
1
 70
136
  0
VERTEX
  5
13D
100
AcDbEntity
  8
PZT_KRAWEZNIKI
100
AcDbVertex
100
AcDb3dPolylineVertex
 10
8412503.72000000067
 20
5786765.05999999959
 30
0.000
 70
32
  0
VERTEX
  5
13E
100
AcDbEntity
  8
PZT_KRAWEZNIKI
100
AcDbVertex
100
AcDb3dPolylineVertex
 10
8412511.93357081711
 20
5786794.67250597291
 30
0.000
 70
32
  0
SEQEND
  5
13F
100
AcDbEntity
  8
PZT_KRAWEZNIKI
  0
POLYLINE
  5
140
100
AcDbEntity
  8
PZT_KRAWEZNIKI
  6
CONTINUOUS
370
25
100
AcDb3dPolyline
 66
1
 70
136
  0
VERTEX
  5
141
100
AcDbEntity
  8
PZT_KRAWEZNIKI
100
AcDbVertex
100
AcDb3dPolylineVertex
 10
8412512.07854824699
 20
5786799.41014462709
 30
0.000
 70
32
  0
VERTEX
  5
142
100
AcDbEntity
  8
PZT_KRAWEZNIKI
100
AcDbVertex
100
AcDb3dPolylineVertex
 10
8412509.51318263449
 20
5786807.60920188017
 30
0.000
 70
32
  0
SEQEND
  5
143
100
AcDbEntity
  8
PZT_KRAWEZNIKI
  0
POLYLINE
  5
144
100
AcDbEntity
  8
PZT_KRAWEZNIKI
  6
CONTINUOUS
370
25
100
AcDb3dPolyline
 66
1
 70
136
  0
VERTEX
  5
145
100
AcDbEntity
  8
PZT_KRAWEZNIKI
100
AcDbVertex
100
AcDb3dPolylineVertex
 10
8412489.51463692635
 20
5786700.62364588864
 70
32
  0
VERTEX
  5
146
100
AcDbEntity
  8
PZT_KRAWEZNIKI
100
AcDbVertex
100
AcDb3dPolylineVertex
 10
8412494.92710592225
 20
5786720.13676399551
 70
32
  0
SEQEND
  5
147
100
AcDbEntity
  8
PZT_KRAWEZNIKI
  0
POLYLINE
  5
148
100
AcDbEntity
  8
PZT_KRAWEZNIKI
  6
CONTINUOUS
370
25
100
AcDb3dPolyline
 66
1
 70
136
  0
VERTEX
  5
149
100
AcDbEntity
  8
PZT_KRAWEZNIKI
100
AcDbVertex
100
AcDb3dPolylineVertex
 10
8412573.43389053456
 20
5786672.03434544522
 30
0.000
 70
32
  0
VERTEX
  5
14A
100
AcDbEntity
  8
PZT_KRAWEZNIKI
100
AcDbVertex
100
AcDb3dPolylineVertex
 10
8412563.0163243264
 20
5786674.90976701304
 30
0.000
 70
32
  0
SEQEND
  5
14B
100
AcDbEntity
  8
PZT_KRAWEZNIKI
  0
POLYLINE
  5
14C
100
AcDbEntity
  8
PZT_KRAWEZNIKI
  6
CONTINUOUS
370
25
100
AcDb3dPolyline
 66
1
 70
136
  0
VERTEX
  5
14D
100
AcDbEntity
  8
PZT_KRAWEZNIKI
100
AcDbVertex
100
AcDb3dPolylineVertex
 10
8412496.82854413427
 20
5786757.54916952364
 30
0.000
 70
32
  0
VERTEX
  5
14E
100
AcDbEntity
  8
PZT_KRAWEZNIKI
100
AcDbVertex
100
AcDb3dPolylineVertex
 10
8412492.48653166182
 20
5786758.74753889255
 70
32
  0
SEQEND
  5
14F
100
AcDbEntity
  8
PZT_KRAWEZNIKI
  0
POLYLINE
  5
150
100
AcDbEntity
  8
PZT_KRAWEZNIKI
  6
CONTINUOUS
370
25
100
AcDb3dPolyline
 66
1
 70
136
  0
VERTEX
  5
151
100
AcDbEntity
  8
PZT_KRAWEZNIKI
100
AcDbVertex
100
AcDb3dPolylineVertex
 10
8412495.4613249246
 20
5786751.69777710643
 30
0.000
 70
32
  0
VERTEX
  5
152
100
AcDbEntity
  8
PZT_KRAWEZNIKI
100
AcDbVertex
100
AcDb3dPolylineVertex
 10
8412491.54878212325
 20
5786752.7859302517
 70
32
  0
SEQEND
  5
153
100
AcDbEntity
  8
PZT_KRAWEZNIKI
  0
POLYLINE
  5
154
100
AcDbEntity
  8
PZT_KRAWEZNIKI
  6
CONTINUOUS
370
25
100
AcDb3dPolyline
 66
1
 70
136
  0
VERTEX
  5
155
100
AcDbEntity
  8
PZT_KRAWEZNIKI
100
AcDbVertex
100
AcDb3dPolylineVertex
 10
8412497.6564760711
 20
5786741.32741169911
 70
32
  0
VERTEX
  5
156
100
AcDbEntity
  8
PZT_KRAWEZNIKI
100
AcDbVertex
100
AcDb3dPolylineVertex
 10
8412497.5165221598
 20
5786740.82284766901
 70
32
  0
SEQEND
  5
157
100
AcDbEntity
  8
PZT_KRAWEZNIKI
  0
POLYLINE
  5
158
100
AcDbEntity
  8
PZT_KRAWEZNIKI
  6
CONTINUOUS
370
25
100
AcDb3dPolyline
 66
1
 70
136
  0
VERTEX
  5
159
100
AcDbEntity
  8
PZT_KRAWEZNIKI
100
AcDbVertex
100
AcDb3dPolylineVertex
 10
8412525.78689916432
 20
5786749.08923567086
 30
0.000
 70
32
  0
VERTEX
  5
15A
100
AcDbEntity
  8
PZT_KRAWEZNIKI
100
AcDbVertex
100
AcDb3dPolylineVertex
 10
8412520.1774552092
 20
5786728.86598034296
 30
0.000
 70
32
  0
SEQEND
  5
15B
100
AcDbEntity
  8
PZT_KRAWEZNIKI
  0
POLYLINE
  5
15C
100
AcDbEntity
  8
PZT_KRAWEZNIKI
  6
CONTINUOUS
370
25
100
AcDb3dPolyline
 66
1
 70
136
  0
VERTEX
  5
15D
100
AcDbEntity
  8
PZT_KRAWEZNIKI
100
AcDbVertex
100
AcDb3dPolylineVertex
 10
8412484.67276726291
 20
5786695.7049736008
 30
0.000
 70
32
  0
VERTEX
  5
15E
100
AcDbEntity
  8
PZT_KRAWEZNIKI
100
AcDbVertex
100
AcDb3dPolylineVertex
 10
8412484.86546595581
 20
5786696.48070393503
 30
0.000
 70
32
  0
VERTEX
  5
15F
100
AcDbEntity
  8
PZT_KRAWEZNIKI
100
AcDbVertex
100
AcDb3dPolylineVertex
 10
8412563.0163243264
 20
5786674.90976701304
 30
0.000
 70
32
  0
VERTEX
  5
160
100
AcDbEntity
  8
PZT_KRAWEZNIKI
100
AcDbVertex
100
AcDb3dPolylineVertex
 10
8412562.80263126642
 20
5786674.13935744017
 30
0.000
 70
32
  0
VERTEX
  5
161
100
AcDbEntity
  8
PZT_KRAWEZNIKI
100
AcDbVertex
100
AcDb3dPolylineVertex
 10
8412485.44521084428
 20
5786695.49176151771
 30
0.000
 70
32
  0
SEQEND
  5
162
100
AcDbEntity
  8
PZT_KRAWEZNIKI
  0
POLYLINE
  5
163
100
AcDbEntity
  8
PZT_KRAWEZNIKI
  6
CONTINUOUS
370
25
100
AcDb3dPolyline
 66
1
 70
136
  0
VERTEX
  5
164
100
AcDbEntity
  8
PZT_KRAWEZNIKI
100
AcDbVertex
100
AcDb3dPolylineVertex
 10
8412498.20826630481
 20
5786763.4520509569
 30
0.000
 70
32
  0
VERTEX
  5
165
100
AcDbEntity
  8
PZT_KRAWEZNIKI
100
AcDbVertex
100
AcDb3dPolylineVertex
 10
8412495.4613249246
 20
5786751.69777710643
 30
0.000
 70
32
  0
SEQEND
  5
166
100
AcDbEntity
  8
PZT_KRAWEZNIKI
  0
POLYLINE
  5
167
100
AcDbEntity
  8
PZT_KRAWEZNIKI
  6
CONTINUOUS
370
25
100
AcDb3dPolyline
 66
1
 70
136
  0
VERTEX
  5
168
100
AcDbEntity
  8
PZT_KRAWEZNIKI
100
AcDbVertex
100
AcDb3dPolylineVertex
 10
8412495.4613249246
 20
5786751.69777710643
 30
0.000
 70
32
  0
VERTEX
  5
169
100
AcDbEntity
  8
PZT_KRAWEZNIKI
100
AcDbVertex
100
AcDb3dPolylineVertex
 10
8412493.18897772767
 20
5786741.97360159364
 30
0.000
 70
32
  0
VERTEX
  5
16A
100
AcDbEntity
  8
PZT_KRAWEZNIKI
100
AcDbVertex
100
AcDb3dPolylineVertex
 10
8412493.12121410295
 20
5786741.68361712806
 30
0.000
 70
32
  0
SEQEND
  5
16B
100
AcDbEntity
  8
PZT_KRAWEZNIKI
  0
POLYLINE
  5
16C
100
AcDbEntity
  8
PZT_KRAWEZNIKI
  6
CONTINUOUS
370
25
100
AcDb3dPolyline
 66
1
 70
136
  0
VERTEX
  5
16D
100
AcDbEntity
  8
PZT_KRAWEZNIKI
100
AcDbVertex
100
AcDb3dPolylineVertex
 10
8412484.86546595581
 20
5786696.48070393503
 30
0.000
 70
32
  0
VERTEX
  5
16E
100
AcDbEntity
  8
PZT_KRAWEZNIKI
100
AcDbVertex
100
AcDb3dPolylineVertex
 10
8412481.40797894262
 20
5786682.56219965313
 70
32
  0
SEQEND
  5
16F
100
AcDbEntity
  8
PZT_KRAWEZNIKI
  0
POLYLINE
  5
170
100
AcDbEntity
  8
PZT_KRAWEZNIKI
  6
CONTINUOUS
370
25
100
AcDb3dPolyline
 66
1
 70
136
  0
VERTEX
  5
171
100
AcDbEntity
  8
PZT_KRAWEZNIKI
100
AcDbVertex
100
AcDb3dPolylineVertex
 10
8412485.44521084428
 20
5786695.49176151771
 30
0.000
 70
32
  0
VERTEX
  5
172
100
AcDbEntity
  8
PZT_KRAWEZNIKI
100
AcDbVertex
100
AcDb3dPolylineVertex
 10
8412481.91547046416
 20
5786681.28536625579
 70
32
  0
SEQEND
  5
173
100
AcDbEntity
  8
PZT_KRAWEZNIKI
  0
POLYLINE
  5
174
100
AcDbEntity
  8
PZT_KRAWEZNIKI
  6
CONTINUOUS
370
25
100
AcDb3dPolyline
 66
1
 70
136
  0
VERTEX
  5
175
100
AcDbEntity
  8
PZT_KRAWEZNIKI
100
AcDbVertex
100
AcDb3dPolylineVertex
 10
8412484.86546595581
 20
5786696.48070393503
 30
0.000
 70
32
  0
VERTEX
  5
176
100
AcDbEntity
  8
PZT_KRAWEZNIKI
100
AcDbVertex
100
AcDb3dPolylineVertex
 10
8412482.20258632861
 20
5786697.21702134144
 70
32
  0
SEQEND
  5
177
100
AcDbEntity
  8
PZT_KRAWEZNIKI
  0
POLYLINE
  5
178
100
AcDbEntity
  8
PZT_KRAWEZNIKI
  6
CONTINUOUS
370
25
100
AcDb3dPolyline
 66
1
 70
136
  0
VERTEX
  5
179
100
AcDbEntity
  8
PZT_KRAWEZNIKI
100
AcDbVertex
100
AcDb3dPolylineVertex
 10
8412527.54388234019
 20
5786792.54816106148
 30
0.000
 70
32
  0
VERTEX
  5
17A
100
AcDbEntity
  8
PZT_KRAWEZNIKI
100
AcDbVertex
100
AcDb3dPolylineVertex
 10
8412522.93107226305
 20
5786775.91798583698
 70
32
  0
SEQEND
  5
17B
100
AcDbEntity
  8
PZT_KRAWEZNIKI
  0
POLYLINE
  5
17C
100
AcDbEntity
  8
PZT_KRAWEZNIKI
  6
CONTINUOUS
370
25
100
AcDb3dPolyline
 66
1
 70
136
  0
VERTEX
  5
17D
100
AcDbEntity
  8
PZT_KRAWEZNIKI
100
AcDbVertex
100
AcDb3dPolylineVertex
 10
8412522.93107226305
 20
5786775.91798583698
 70
32
  0
VERTEX
  5
17E
100
AcDbEntity
  8
PZT_KRAWEZNIKI
100
AcDbVertex
100
AcDb3dPolylineVertex
 10
8412526.25255087949
 20
5786775.00074631162
 70
32
  0
SEQEND
  5
17F
100
AcDbEntity
  8
PZT_KRAWEZNIKI
  0
POLYLINE
  5
180
100
AcDbEntity
  8
PZT_KRAWEZNIKI
  6
CONTINUOUS
370
25
100
AcDb3dPolyline
 66
1
 70
136
  0
VERTEX
  5
181
100
AcDbEntity
  8
PZT_KRAWEZNIKI
100
AcDbVertex
100
AcDb3dPolylineVertex
 10
8412526.09658611938
 20
5786792.94289612211
 70
32
  0
VERTEX
  5
182
100
AcDbEntity
  8
PZT_KRAWEZNIKI
100
AcDbVertex
100
AcDb3dPolylineVertex
 10
8412520.62010432035
 20
5786773.20121461805
 30
0.000
 70
32
  0
SEQEND
  5
183
100
AcDbEntity
  8
PZT_KRAWEZNIKI
  0
POLYLINE
  5
184
100
AcDbEntity
  8
PZT_KRAWEZNIKI
  6
CONTINUOUS
370
25
100
AcDb3dPolyline
 66
1
 70
136
  0
VERTEX
  5
185
100
AcDbEntity
  8
PZT_KRAWEZNIKI
100
AcDbVertex
100
AcDb3dPolylineVertex
 10
8412515.05744437501
 20
5786757.23444626294
 30
0.000
 70
32
  0
VERTEX
  5
186
100
AcDbEntity
  8
PZT_KRAWEZNIKI
100
AcDbVertex
100
AcDb3dPolylineVertex
 10
8412527.12248079479
 20
5786753.90429551527
 30
0.000
 70
32
  0
SEQEND
  5
187
100
AcDbEntity
  8
PZT_KRAWEZNIKI
  0
POLYLINE
  5
188
100
AcDbEntity
  8
PZT_KRAWEZNIKI
  6
CONTINUOUS
370
25
100
AcDb3dPolyline
 66
1
 70
136
  0
VERTEX
  5
189
100
AcDbEntity
  8
PZT_KRAWEZNIKI
100
AcDbVertex
100
AcDb3dPolylineVertex
 10
8412525.78689916432
 20
5786749.08923567086
 30
0.000
 70
32
  0
VERTEX
  5
18A
100
AcDbEntity
  8
PZT_KRAWEZNIKI
100
AcDbVertex
100
AcDb3dPolylineVertex
 10
8412527.12248079479
 20
5786753.90429551527
 30
0.000
 70
32
  0
SEQEND
  5
18B
100
AcDbEntity
  8
PZT_KRAWEZNIKI
  0
POLYLINE
  5
18C
100
AcDbEntity
  8
PZT_KRAWEZNIKI
  6
CONTINUOUS
370
25
100
AcDb3dPolyline
 66
1
 70
136
  0
VERTEX
  5
18D
100
AcDbEntity
  8
PZT_KRAWEZNIKI
100
AcDbVertex
100
AcDb3dPolylineVertex
 10
8412506.36603685841
 20
5786748.74452221394
 30
0.000
 70
32
  0
VERTEX
  5
18E
100
AcDbEntity
  8
PZT_KRAWEZNIKI
100
AcDbVertex
100
AcDb3dPolylineVertex
 10
8412505.03045522794
 20
5786743.92946236953
 30
0.000
 70
32
  0
SEQEND
  5
18F
100
AcDbEntity
  8
PZT_KRAWEZNIKI
  0
POLYLINE
  5
190
100
AcDbEntity
  8
PZT_KRAWEZNIKI
  6
CONTINUOUS
370
25
100
AcDb3dPolyline
 66
1
 70
136
  0
VERTEX
  5
191
100
AcDbEntity
  8
PZT_KRAWEZNIKI
100
AcDbVertex
100
AcDb3dPolylineVertex
 10
8412552.71061316691
 20
5786785.16626075469
 30
0.000
 70
32
  0
VERTEX
  5
192
100
AcDbEntity
  8
PZT_KRAWEZNIKI
100
AcDbVertex
100
AcDb3dPolylineVertex
 10
8412553.23901486024
 20
5786787.09414306749
 70
32
  0
SEQEND
  5
193
100
AcDbEntity
  8
PZT_KRAWEZNIKI
  0
POLYLINE
  5
194
100
AcDbEntity
  8
PZT_KRAWEZNIKI
  6
CONTINUOUS
370
25
100
AcDb3dPolyline
 66
1
 70
136
  0
VERTEX
  5
195
100
AcDbEntity
  8
PZT_KRAWEZNIKI
100
AcDbVertex
100
AcDb3dPolylineVertex
 10
8412592.04801239632
 20
5786737.26629167888
 30
0.000
 70
32
  0
VERTEX
  5
196
100
AcDbEntity
  8
PZT_KRAWEZNIKI
100
AcDbVertex
100
AcDb3dPolylineVertex
 10
8412591.00989289582
 20
5786737.54645467922
 70
32
  0
SEQEND
  5
197
100
AcDbEntity
  8
PZT_KRAWEZNIKI
  0
POLYLINE
  5
198
100
AcDbEntity
  8
PZT_KRAWEZNIKI
  6
CONTINUOUS
370
25
100
AcDb3dPolyline
 66
1
 70
136
  0
VERTEX
  5
199
100
AcDbEntity
  8
PZT_KRAWEZNIKI
100
AcDbVertex
100
AcDb3dPolylineVertex
 10
8412516.78417827748
 20
5786791.5560199786
 30
0.000
 70
32
  0
VERTEX
  5
19A
100
AcDbEntity
  8
PZT_KRAWEZNIKI
100
AcDbVertex
100
AcDb3dPolylineVertex
 10
8412521.61019284651
 20
5786790.22395967878
 30
0.000
 70
32
  0
VERTEX
  5
19B
100
AcDbEntity
  8
PZT_KRAWEZNIKI
100
AcDbVertex
100
AcDb3dPolylineVertex
 10
8412514.93228469044
 20
5786766.14866045862
 30
0.000
 70
32
  0
VERTEX
  5
19C
100
AcDbEntity
  8
PZT_KRAWEZNIKI
100
AcDbVertex
100
AcDb3dPolylineVertex
 10
8412510.10627012141
 20
5786767.48072075751
 30
0.000
 70
32
  0
SEQEND
  5
19D
100
AcDbEntity
  8
PZT_KRAWEZNIKI
  0
POLYLINE
  5
19E
100
AcDbEntity
  8
PZT_KRAWEZNIKI
  6
CONTINUOUS
370
25
100
AcDb3dPolyline
 66
1
 70
136
  0
VERTEX
  5
19F
100
AcDbEntity
  8
PZT_KRAWEZNIKI
100
AcDbVertex
100
AcDb3dPolylineVertex
 10
8412498.53411503136
 20
5786733.14080979675
 30
0.000
 70
32
  0
VERTEX
  5
1A0
100
AcDbEntity
  8
PZT_KRAWEZNIKI
100
AcDbVertex
100
AcDb3dPolylineVertex
 10
8412492.17691301554
 20
5786737.64176189434
 70
32
  0
SEQEND
  5
1A1
100
AcDbEntity
  8
PZT_KRAWEZNIKI
  0
POLYLINE
  5
1A2
100
AcDbEntity
  8
PZT_KRAWEZNIKI
  6
CONTINUOUS
370
25
100
AcDb3dPolyline
 66
1
 70
136
  0
VERTEX
  5
1A3
100
AcDbEntity
  8
PZT_KRAWEZNIKI
100
AcDbVertex
100
AcDb3dPolylineVertex
 10
8412498.53411503136
 20
5786733.14080979675
 30
0.000
 70
32
  0
VERTEX
  5
1A4
100
AcDbEntity
  8
PZT_KRAWEZNIKI
100
AcDbVertex
100
AcDb3dPolylineVertex
 10
8412517.83817330189
 20
5786727.81256859563
 30
0.000
 70
32
  0
SEQEND
  5
1A5
100
AcDbEntity
  8
PZT_KRAWEZNIKI
  0
POLYLINE
  5
1A6
100
AcDbEntity
  8
PZT_KRAWEZNIKI
  6
CONTINUOUS
370
25
100
AcDb3dPolyline
 66
1
 70
136
  0
VERTEX
  5
1A7
100
AcDbEntity
  8
PZT_KRAWEZNIKI
100
AcDbVertex
100
AcDb3dPolylineVertex
 10
8412517.83817330189
 20
5786727.81256859563
 30
0.000
 70
32
  0
VERTEX
  5
1A8
100
AcDbEntity
  8
PZT_KRAWEZNIKI
100
AcDbVertex
100
AcDb3dPolylineVertex
 10
8412515.58568982966
 20
5786719.69187986292
 70
32
  0
SEQEND
  5
1A9
100
AcDbEntity
  8
PZT_KRAWEZNIKI
  0
POLYLINE
  5
1AA
100
AcDbEntity
  8
PZT_KRAWEZNIKI
  6
CONTINUOUS
370
25
100
AcDb3dPolyline
 66
1
 70
136
  0
VERTEX
  5
1AB
100
AcDbEntity
  8
PZT_KRAWEZNIKI
100
AcDbVertex
100
AcDb3dPolylineVertex
 10
8412499.84298406728
 20
5786697.77285026293
 70
32
  0
VERTEX
  5
1AC
100
AcDbEntity
  8
PZT_KRAWEZNIKI
100
AcDbVertex
100
AcDb3dPolylineVertex
 10
8412503.52013565227
 20
5786711.02977479808
 70
32
  0
SEQEND
  5
1AD
100
AcDbEntity
  8
PZT_KRAWEZNIKI
  0
POLYLINE
  5
1AE
100
AcDbEntity
  8
PZT_KRAWEZNIKI
  6
CONTINUOUS
370
25
100
AcDb3dPolyline
 66
1
 70
136
  0
VERTEX
  5
1AF
100
AcDbEntity
  8
PZT_KRAWEZNIKI
100
AcDbVertex
100
AcDb3dPolylineVertex
 10
8412489.51463692635
 20
5786700.62364588864
 70
32
  0
VERTEX
  5
1B0
100
AcDbEntity
  8
PZT_KRAWEZNIKI
100
AcDbVertex
100
AcDb3dPolylineVertex
 10
8412499.84298406728
 20
5786697.77285026293
 70
32
  0
SEQEND
  5
1B1
100
AcDbEntity
  8
PZT_KRAWEZNIKI
  0
POLYLINE
  5
1B2
100
AcDbEntity
  8
PZT_KRAWEZNIKI
  6
CONTINUOUS
370
25
100
AcDb3dPolyline
 66
1
 70
136
  0
VERTEX
  5
1B3
100
AcDbEntity
  8
PZT_KRAWEZNIKI
100
AcDbVertex
100
AcDb3dPolylineVertex
 10
8412512.42491908558
 20
5786757.96034767386
 70
32
  0
VERTEX
  5
1B4
100
AcDbEntity
  8
PZT_KRAWEZNIKI
100
AcDbVertex
100
AcDb3dPolylineVertex
 10
8412507.81842252053
 20
5786759.23253671452
 30
0.000
 70
32
  0
SEQEND
  5
1B5
100
AcDbEntity
  8
PZT_KRAWEZNIKI
  0
POLYLINE
  5
1B6
100
AcDbEntity
  8
PZT_KRAWEZNIKI
  6
CONTINUOUS
370
25
100
AcDb3dPolyline
 66
1
 70
136
  0
VERTEX
  5
1B7
100
AcDbEntity
  8
PZT_KRAWEZNIKI
100
AcDbVertex
100
AcDb3dPolylineVertex
 10
8412503.1799999997
 20
5786762.09999999963
 70
32
  0
VERTEX
  5
1B8
100
AcDbEntity
  8
PZT_KRAWEZNIKI
100
AcDbVertex
100
AcDb3dPolylineVertex
 10
8412502.49529249966
 20
5786759.62367699575
 30
0.000
 70
32
  0
SEQEND
  5
1B9
100
AcDbEntity
  8
PZT_KRAWEZNIKI
  0
POLYLINE
  5
1BA
100
AcDbEntity
  8
PZT_KRAWEZNIKI
  6
CONTINUOUS
370
25
100
AcDb3dPolyline
 66
1
 70
136
  0
VERTEX
  5
1BB
100
AcDbEntity
  8
PZT_KRAWEZNIKI
100
AcDbVertex
100
AcDb3dPolylineVertex
 10
8412507.81842252053
 20
5786759.23253671452
 30
0.000
 70
32
  0
VERTEX
  5
1BC
100
AcDbEntity
  8
PZT_KRAWEZNIKI
100
AcDbVertex
100
AcDb3dPolylineVertex
 10
8412508.23060956039
 20
5786760.71856060065
 70
32
  0
SEQEND
  5
1BD
100
AcDbEntity
  8
PZT_KRAWEZNIKI
  0
POLYLINE
  5
1BE
100
AcDbEntity
  8
PZT_KRAWEZNIKI
  6
CONTINUOUS
370
25
100
AcDb3dPolyline
 66
1
 70
136
  0
VERTEX
  5
1BF
100
AcDbEntity
  8
PZT_KRAWEZNIKI
100
AcDbVertex
100
AcDb3dPolylineVertex
 10
8412512.64443709142
 20
5786757.90047641471
 30
0.000
 70
32
  0
VERTEX
  5
1C0
100
AcDbEntity
  8
PZT_KRAWEZNIKI
100
AcDbVertex
100
AcDb3dPolylineVertex
 10
8412515.05744437501
 20
5786757.23444626294
 30
0.000
 70
32
  0
SEQEND
  5
1C1
100
AcDbEntity
  8
PZT_KRAWEZNIKI
  0
POLYLINE
  5
1C2
100
AcDbEntity
  8
PZT_KRAWEZNIKI
  6
CONTINUOUS
370
25
100
AcDb3dPolyline
 66
1
 70
136
  0
VERTEX
  5
1C3
100
AcDbEntity
  8
PZT_KRAWEZNIKI
100
AcDbVertex
100
AcDb3dPolylineVertex
 10
8412515.58568982966
 20
5786719.69187986292
 70
32
  0
VERTEX
  5
1C4
100
AcDbEntity
  8
PZT_KRAWEZNIKI
100
AcDbVertex
100
AcDb3dPolylineVertex
 10
8412518.76240345463
 20
5786718.81923683081
 30
0.000
 70
32
  0
SEQEND
  5
1C5
100
AcDbEntity
  8
PZT_KRAWEZNIKI
  0
POLYLINE
  5
1C6
100
AcDbEntity
  8
PZT_KRAWEZNIKI
  6
CONTINUOUS
370
25
100
AcDb3dPolyline
 66
1
 70
136
  0
VERTEX
  5
1C7
100
AcDbEntity
  8
PZT_KRAWEZNIKI
100
AcDbVertex
100
AcDb3dPolylineVertex
 10
8412553.23901486024
 20
5786787.09414306749
 70
32
  0
VERTEX
  5
1C8
100
AcDbEntity
  8
PZT_KRAWEZNIKI
100
AcDbVertex
100
AcDb3dPolylineVertex
 10
8412523.01284545101
 20
5786795.33801787253
 30
0.000
 70
32
  0
SEQEND
  5
1C9
100
AcDbEntity
  8
PZT_KRAWEZNIKI
  0
POLYLINE
  5
1CA
100
AcDbEntity
  8
PZT_KRAWEZNIKI
  6
CONTINUOUS
370
25
100
AcDb3dPolyline
 66
1
 70
136
  0
VERTEX
  5
1CB
100
AcDbEntity
  8
PZT_KRAWEZNIKI
100
AcDbVertex
100
AcDb3dPolylineVertex
 10
8412519.16693136841
 20
5786794.83288772218
 30
0.000
 70
32
  0
VERTEX
  5
1CC
100
AcDbEntity
  8
PZT_KRAWEZNIKI
100
AcDbVertex
100
AcDb3dPolylineVertex
 10
8412526.09658611938
 20
5786792.94289612211
 70
32
  0
SEQEND
  5
1CD
100
AcDbEntity
  8
PZT_KRAWEZNIKI
  0
POLYLINE
  5
1CE
100
AcDbEntity
  8
PZT_KRAWEZNIKI
  6
CONTINUOUS
370
25
100
AcDb3dPolyline
 66
1
 70
136
  0
VERTEX
  5
1CF
100
AcDbEntity
  8
PZT_KRAWEZNIKI
100
AcDbVertex
100
AcDb3dPolylineVertex
 10
8412527.54388234019
 20
5786792.54816106148
 30
0.000
 70
32
  0
VERTEX
  5
1D0
100
AcDbEntity
  8
PZT_KRAWEZNIKI
100
AcDbVertex
100
AcDb3dPolylineVertex
 10
8412547.21066495404
 20
5786787.18424969539
 70
32
  0
SEQEND
  5
1D1
100
AcDbEntity
  8
PZT_KRAWEZNIKI
  0
POLYLINE
  5
1D2
100
AcDbEntity
  8
PZT_KRAWEZNIKI
  6
CONTINUOUS
370
25
100
AcDb3dPolyline
 66
1
 70
136
  0
VERTEX
  5
1D3
100
AcDbEntity
  8
PZT_KRAWEZNIKI
100
AcDbVertex
100
AcDb3dPolylineVertex
 10
8412552.39192295074
 20
5786791.46865865961
 30
0.000
 70
32
  0
VERTEX
  5
1D4
100
AcDbEntity
  8
PZT_KRAWEZNIKI
100
AcDbVertex
100
AcDb3dPolylineVertex
 10
8412525.89008077048
 20
5786798.69676176645
 30
0.000
 70
32
  0
SEQEND
  5
1D5
100
AcDbEntity
  8
PZT_KRAWEZNIKI
  0
POLYLINE
  5
1D6
100
AcDbEntity
  8
PZT_KRAWEZNIKI
  6
CONTINUOUS
370
25
100
AcDb3dPolyline
 66
1
 70
136
  0
VERTEX
  5
1D7
100
AcDbEntity
  8
PZT_KRAWEZNIKI
100
AcDbVertex
100
AcDb3dPolylineVertex
 10
8412523.55431293324
 20
5786801.99080933724
 30
0.000
 70
32
  0
VERTEX
  5
1D8
100
AcDbEntity
  8
PZT_KRAWEZNIKI
100
AcDbVertex
100
AcDb3dPolylineVertex
 10
8412553.05067540519
 20
5786793.84932264686
 30
0.000
 70
32
  0
SEQEND
  5
1D9
100
AcDbEntity
  8
PZT_KRAWEZNIKI
  0
POLYLINE
  5
1DA
100
AcDbEntity
  8
PZT_KRAWEZNIKI
  6
CONTINUOUS
370
25
100
AcDb3dPolyline
 66
1
 70
136
  0
VERTEX
  5
1DB
100
AcDbEntity
  8
PZT_KRAWEZNIKI
100
AcDbVertex
100
AcDb3dPolylineVertex
 10
8412553.39972428978
 20
5786793.23463078216
 30
0.000
 70
32
  0
VERTEX
  5
1DC
100
AcDbEntity
  8
PZT_KRAWEZNIKI
100
AcDbVertex
100
AcDb3dPolylineVertex
 10
8412553.00660836883
 20
5786791.81736309733
 30
0.000
 70
32
  0
SEQEND
  5
1DD
100
AcDbEntity
  8
PZT_KRAWEZNIKI
  0
POLYLINE
  5
1DE
100
AcDbEntity
  8
PZT_KRAWEZNIKI
  6
CONTINUOUS
370
25
100
AcDb3dPolyline
 66
1
 70
136
  0
VERTEX
  5
1DF
100
AcDbEntity
  8
PZT_KRAWEZNIKI
100
AcDbVertex
100
AcDb3dPolylineVertex
 10
8412524.26447061449
 20
5786799.58325052634
 30
0.000
 70
32
  0
VERTEX
  5
1E0
100
AcDbEntity
  8
PZT_KRAWEZNIKI
100
AcDbVertex
100
AcDb3dPolylineVertex
 10
8412522.40497969836
 20
5786801.25554650277
 30
0.000
 70
32
  0
SEQEND
  5
1E1
100
AcDbEntity
  8
PZT_KRAWEZNIKI
  0
POLYLINE
  5
1E2
100
AcDbEntity
  8
PZT_KRAWEZNIKI
  6
CONTINUOUS
370
25
100
AcDb3dPolyline
 66
1
 70
136
  0
VERTEX
  5
1E3
100
AcDbEntity
  8
PZT_KRAWEZNIKI
100
AcDbVertex
100
AcDb3dPolylineVertex
 10
8412547.07858090475
 20
5786786.70233885013
 70
32
  0
VERTEX
  5
1E4
100
AcDbEntity
  8
PZT_KRAWEZNIKI
100
AcDbVertex
100
AcDb3dPolylineVertex
 10
8412547.21066495404
 20
5786787.18424969539
 70
32
  0
SEQEND
  5
1E5
100
AcDbEntity
  8
PZT_KRAWEZNIKI
  0
POLYLINE
  5
1E6
100
AcDbEntity
  8
PZT_KRAWEZNIKI
  6
CONTINUOUS
370
25
100
AcDb3dPolyline
 66
1
 70
136
  0
VERTEX
  5
1E7
100
AcDbEntity
  8
PZT_KRAWEZNIKI
100
AcDbVertex
100
AcDb3dPolylineVertex
 10
8412548.58538085222
 20
5786786.29137474764
 70
32
  0
VERTEX
  5
1E8
100
AcDbEntity
  8
PZT_KRAWEZNIKI
100
AcDbVertex
100
AcDb3dPolylineVertex
 10
8412548.71746491268
 20
5786786.77328559291
 70
32
  0
SEQEND
  5
1E9
100
AcDbEntity
  8
PZT_KRAWEZNIKI
  0
POLYLINE
  5
1EA
100
AcDbEntity
  8
PZT_KRAWEZNIKI
  6
CONTINUOUS
370
25
100
AcDb3dPolyline
 66
1
 70
136
  0
VERTEX
  5
1EB
100
AcDbEntity
  8
PZT_KRAWEZNIKI
100
AcDbVertex
100
AcDb3dPolylineVertex
 10
8412548.71746491268
 20
5786786.77328559291
 70
32
  0
VERTEX
  5
1EC
100
AcDbEntity
  8
PZT_KRAWEZNIKI
100
AcDbVertex
100
AcDb3dPolylineVertex
 10
8412552.84269711562
 20
5786785.64817122836
 70
32
  0
SEQEND
  5
1ED
100
AcDbEntity
  8
PZT_KRAWEZNIKI
  0
POLYLINE
  5
1EE
100
AcDbEntity
  8
PZT_KRAWEZNIKI
  6
CONTINUOUS
370
25
100
AcDb3dPolyline
 66
1
 70
136
  0
VERTEX
  5
1EF
100
AcDbEntity
  8
PZT_KRAWEZNIKI
100
AcDbVertex
100
AcDb3dPolylineVertex
 10
8412517.36753690243
 20
5786761.33416830283
 70
32
  0
VERTEX
  5
1F0
100
AcDbEntity
  8
PZT_KRAWEZNIKI
100
AcDbVertex
100
AcDb3dPolylineVertex
 10
8412498.89094356075
 20
5786766.37346783187
 70
32
  0
SEQEND
  5
1F1
100
AcDbEntity
  8
PZT_KRAWEZNIKI
  0
POLYLINE
  5
1F2
100
AcDbEntity
  8
PZT_KRAWEZNIKI
  6
CONTINUOUS
370
25
100
AcDb3dPolyline
 66
1
 70
136
  0
VERTEX
  5
1F3
100
AcDbEntity
  8
PZT_KRAWEZNIKI
100
AcDbVertex
100
AcDb3dPolylineVertex
 10
8412516.57503322326
 20
5786758.44270544685
 70
32
  0
VERTEX
  5
1F4
100
AcDbEntity
  8
PZT_KRAWEZNIKI
100
AcDbVertex
100
AcDb3dPolylineVertex
 10
8412498.20826630481
 20
5786763.4520509569
 30
0.000
 70
32
  0
SEQEND
  5
1F5
100
AcDbEntity
  8
PZT_KRAWEZNIKI
  0
POLYLINE
  5
1F6
100
AcDbEntity
  8
PZT_KRAWEZNIKI
  6
CONTINUOUS
370
25
100
AcDb3dPolyline
 66
1
 70
136
  0
VERTEX
  5
1F7
100
AcDbEntity
  8
PZT_KRAWEZNIKI
100
AcDbVertex
100
AcDb3dPolylineVertex
 10
8412503.52013565227
 20
5786711.02977479808
 70
32
  0
VERTEX
  5
1F8
100
AcDbEntity
  8
PZT_KRAWEZNIKI
100
AcDbVertex
100
AcDb3dPolylineVertex
 10
8412505.54638579674
 20
5786710.4704960417
 30
0.000
 70
32
  0
SEQEND
  5
1F9
100
AcDbEntity
  8
PZT_KRAWEZNIKI
  0
POLYLINE
  5
1FA
100
AcDbEntity
  8
PZT_KRAWEZNIKI
  6
CONTINUOUS
370
25
100
AcDb3dPolyline
 66
1
 70
136
  0
VERTEX
  5
1FB
100
AcDbEntity
  8
PZT_KRAWEZNIKI
100
AcDbVertex
100
AcDb3dPolylineVertex
 10
8412505.54638579674
 20
5786710.4704960417
 30
0.000
 70
32
  0
VERTEX
  5
1FC
100
AcDbEntity
  8
PZT_KRAWEZNIKI
100
AcDbVertex
100
AcDb3dPolylineVertex
 10
8412500.47117559239
 20
5786692.17326863296
 30
0.000
 70
32
  0
SEQEND
  5
1FD
100
AcDbEntity
  8
PZT_KRAWEZNIKI
  0
POLYLINE
  5
1FE
100
AcDbEntity
  8
PZT_KRAWEZNIKI
  6
CONTINUOUS
370
25
100
AcDb3dPolyline
 66
1
 70
136
  0
VERTEX
  5
1FF
100
AcDbEntity
  8
PZT_KRAWEZNIKI
100
AcDbVertex
100
AcDb3dPolylineVertex
 10
8412503.93431936018
 20
5786745.26460817084
 30
0.000
 70
32
  0
VERTEX
  5
200
100
AcDbEntity
  8
PZT_KRAWEZNIKI
100
AcDbVertex
100
AcDb3dPolylineVertex
 10
8412504.72852859274
 20
5786748.15869645122
 30
0.000
 70
32
  0
SEQEND
  5
201
100
AcDbEntity
  8
PZT_KRAWEZNIKI
  0
POLYLINE
  5
202
100
AcDbEntity
  8
PZT_KRAWEZNIKI
  6
CONTINUOUS
370
25
100
AcDb3dPolyline
 66
1
 70
136
  0
VERTEX
  5
203
100
AcDbEntity
  8
PZT_KRAWEZNIKI
100
AcDbVertex
100
AcDb3dPolylineVertex
 10
8412518.76240345463
 20
5786718.81923683081
 30
0.000
 70
32
  0
VERTEX
  5
204
100
AcDbEntity
  8
PZT_KRAWEZNIKI
100
AcDbVertex
100
AcDb3dPolylineVertex
 10
8412533.22812692821
 20
5786714.84270740673
 30
0.000
 70
32
  0
SEQEND
  5
205
100
AcDbEntity
  8
PZT_KRAWEZNIKI
  0
POLYLINE
  5
206
100
AcDbEntity
  8
PZT_KRAWEZNIKI
  6
CONTINUOUS
370
25
100
AcDb3dPolyline
 66
1
 70
136
  0
VERTEX
  5
207
100
AcDbEntity
  8
PZT_KRAWEZNIKI
100
AcDbVertex
100
AcDb3dPolylineVertex
 10
8412496.04738236778
 20
5786735.52628184296
 30
0.000
 70
32
  0
VERTEX
  5
208
100
AcDbEntity
  8
PZT_KRAWEZNIKI
100
AcDbVertex
100
AcDb3dPolylineVertex
 10
8412498.82287726924
 20
5786745.57765233144
 70
32
  0
SEQEND
  5
209
100
AcDbEntity
  8
PZT_KRAWEZNIKI
  0
POLYLINE
  5
20A
100
AcDbEntity
  8
PZT_KRAWEZNIKI
  6
CONTINUOUS
370
25
100
AcDb3dPolyline
 66
1
 70
136
  0
VERTEX
  5
20B
100
AcDbEntity
  8
PZT_KRAWEZNIKI
100
AcDbVertex
100
AcDb3dPolylineVertex
 10
8412505.03045522794
 20
5786743.92946236953
 30
0.000
 70
32
  0
VERTEX
  5
20C
100
AcDbEntity
  8
PZT_KRAWEZNIKI
100
AcDbVertex
100
AcDb3dPolylineVertex
 10
8412504.6360819079
 20
5786744.03701211512
 30
0.000
 70
32
  0
SEQEND
  5
20D
100
AcDbEntity
  8
PZT_KRAWEZNIKI
  0
POLYLINE
  5
20E
100
AcDbEntity
  8
PZT_KRAWEZNIKI
  6
CONTINUOUS
370
25
100
AcDb3dPolyline
 66
1
 70
136
  0
VERTEX
  5
20F
100
AcDbEntity
  8
PZT_KRAWEZNIKI
100
AcDbVertex
100
AcDb3dPolylineVertex
 10
8412506.36603685841
 20
5786748.74452221394
 30
0.000
 70
32
  0
VERTEX
  5
210
100
AcDbEntity
  8
PZT_KRAWEZNIKI
100
AcDbVertex
100
AcDb3dPolylineVertex
 10
8412505.95862694271
 20
5786748.85874229483
 30
0.000
 70
32
  0
SEQEND
  5
211
100
AcDbEntity
  8
PZT_KRAWEZNIKI
  0
POLYLINE
  5
212
100
AcDbEntity
  8
PZT_KRAWEZNIKI
  6
CONTINUOUS
370
25
100
AcDb3dPolyline
 66
1
 70
136
  0
VERTEX
  5
213
100
AcDbEntity
  8
PZT_KRAWEZNIKI
100
AcDbVertex
100
AcDb3dPolylineVertex
 10
8412505.46541311592
 20
5786771.353402365
 30
0.000
 70
32
  0
VERTEX
  5
214
100
AcDbEntity
  8
PZT_KRAWEZNIKI
100
AcDbVertex
100
AcDb3dPolylineVertex
 10
8412500.63939854689
 20
5786772.68546266388
 30
0.000
 70
32
  0
SEQEND
  5
215
100
AcDbEntity
  8
PZT_KRAWEZNIKI
  0
POLYLINE
  5
216
100
AcDbEntity
  8
PZT_KRAWEZNIKI
  6
CONTINUOUS
370
25
100
AcDb3dPolyline
 66
1
 70
136
  0
VERTEX
  5
217
100
AcDbEntity
  8
PZT_KRAWEZNIKI
100
AcDbVertex
100
AcDb3dPolylineVertex
 10
8412500.63939854689
 20
5786772.68546266388
 30
0.000
 70
32
  0
VERTEX
  5
218
100
AcDbEntity
  8
PZT_KRAWEZNIKI
100
AcDbVertex
100
AcDb3dPolylineVertex
 10
8412506.64951588586
 20
5786794.35323196277
 30
0.000
 70
32
  0
SEQEND
  5
219
100
AcDbEntity
  8
PZT_KRAWEZNIKI
  0
POLYLINE
  5
21A
100
AcDbEntity
  8
PZT_KRAWEZNIKI
  6
CONTINUOUS
370
25
100
AcDb3dPolyline
 66
1
 70
136
  0
VERTEX
  5
21B
100
AcDbEntity
  8
PZT_KRAWEZNIKI
100
AcDbVertex
100
AcDb3dPolylineVertex
 10
8412506.64951588586
 20
5786794.35323196277
 30
0.000
 70
32
  0
VERTEX
  5
21C
100
AcDbEntity
  8
PZT_KRAWEZNIKI
100
AcDbVertex
100
AcDb3dPolylineVertex
 10
8412511.47553045489
 20
5786793.02117166389
 30
0.000
 70
32
  0
SEQEND
  5
21D
100
AcDbEntity
  8
PZT_KRAWEZNIKI
  0
POLYLINE
  5
21E
100
AcDbEntity
  8
PZT_KRAWEZNIKI
  6
CONTINUOUS
370
25
100
AcDb3dPolyline
 66
1
 70
136
  0
VERTEX
  5
21F
100
AcDbEntity
  8
PZT_KRAWEZNIKI
100
AcDbVertex
100
AcDb3dPolylineVertex
 10
8412516.77999999933
 20
5786791.55999999959
 30
0.000
 70
32
  0
VERTEX
  5
220
100
AcDbEntity
  8
PZT_KRAWEZNIKI
100
AcDbVertex
100
AcDb3dPolylineVertex
 10
8412521.6099999994
 20
5786790.21999999974
 30
0.000
 70
32
  0
SEQEND
  5
221
100
AcDbEntity
  8
PZT_KRAWEZNIKI
  0
POLYLINE
  5
222
100
AcDbEntity
  8
PZT_KRAWEZNIKI
  6
CONTINUOUS
370
25
100
AcDb3dPolyline
 66
1
 70
136
  0
VERTEX
  5
223
100
AcDbEntity
  8
PZT_KRAWEZNIKI
100
AcDbVertex
100
AcDb3dPolylineVertex
 10
8412521.6099999994
 20
5786790.21999999974
 30
0.000
 70
32
  0
VERTEX
  5
224
100
AcDbEntity
  8
PZT_KRAWEZNIKI
100
AcDbVertex
100
AcDb3dPolylineVertex
 10
8412514.9299999997
 20
5786766.15000000037
 30
0.000
 70
32
  0
SEQEND
  5
225
100
AcDbEntity
  8
PZT_KRAWEZNIKI
  0
POLYLINE
  5
226
100
AcDbEntity
  8
PZT_KRAWEZNIKI
  6
CONTINUOUS
370
25
100
AcDb3dPolyline
 66
1
 70
136
  0
VERTEX
  5
227
100
AcDbEntity
  8
PZT_KRAWEZNIKI
100
AcDbVertex
100
AcDb3dPolylineVertex
 10
8412514.9299999997
 20
5786766.15000000037
 30
0.000
 70
32
  0
VERTEX
  5
228
100
AcDbEntity
  8
PZT_KRAWEZNIKI
100
AcDbVertex
100
AcDb3dPolylineVertex
 10
8412510.1099999994
 20
5786767.48000000045
 30
0.000
 70
32
  0
SEQEND
  5
229
100
AcDbEntity
  8
PZT_KRAWEZNIKI
  0
POLYLINE
  5
22A
100
AcDbEntity
  8
PZT_KRAWEZNIKI
  6
CONTINUOUS
370
25
100
AcDb3dPolyline
 66
1
 70
136
  0
VERTEX
  5
22B
100
AcDbEntity
  8
PZT_KRAWEZNIKI
100
AcDbVertex
100
AcDb3dPolylineVertex
 10
8412509.02999999933
 20
5786763.61000000034
 30
0.000
 70
32
  0
VERTEX
  5
22C
100
AcDbEntity
  8
PZT_KRAWEZNIKI
100
AcDbVertex
100
AcDb3dPolylineVertex
 10
8412510.1099999994
 20
5786767.48000000045
 30
0.000
 70
32
  0
VERTEX
  5
22D
100
AcDbEntity
  8
PZT_KRAWEZNIKI
100
AcDbVertex
100
AcDb3dPolylineVertex
 10
8412516.77999999933
 20
5786791.55999999959
 30
0.000
 70
32
  0
VERTEX
  5
22E
100
AcDbEntity
  8
PZT_KRAWEZNIKI
100
AcDbVertex
100
AcDb3dPolylineVertex
 10
8412516.86999999918
 20
5786791.84999999963
 30
0.000
 70
32
  0
SEQEND
  5
22F
100
AcDbEntity
  8
PZT_KRAWEZNIKI
  0
POLYLINE
  5
230
100
AcDbEntity
  8
PZT_KRAWEZNIKI
  6
CONTINUOUS
370
25
100
AcDb3dPolyline
 66
1
 70
137
  0
VERTEX
  5
231
100
AcDbEntity
  8
PZT_KRAWEZNIKI
100
AcDbVertex
100
AcDb3dPolylineVertex
 10
8412610.33542294986
 20
5786778.9628910441
 30
0.000
 70
32
  0
VERTEX
  5
232
100
AcDbEntity
  8
PZT_KRAWEZNIKI
100
AcDbVertex
100
AcDb3dPolylineVertex
 10
8412615.12217253074
 20
5786777.4966075765
 30
0.000
 70
32
  0
VERTEX
  5
233
100
AcDbEntity
  8
PZT_KRAWEZNIKI
100
AcDbVertex
100
AcDb3dPolylineVertex
 10
8412616.00423851982
 20
5786780.36214619037
 30
0.000
 70
32
  0
VERTEX
  5
234
100
AcDbEntity
  8
PZT_KRAWEZNIKI
100
AcDbVertex
100
AcDb3dPolylineVertex
 10
8412611.21748893522
 20
5786781.8284296589
 30
0.000
 70
32
  0
SEQEND
  5
235
100
AcDbEntity
  8
PZT_KRAWEZNIKI
  0
POLYLINE
  5
236
100
AcDbEntity
  8
PZT_KRAWEZNIKI
  6
CONTINUOUS
370
25
100
AcDb3dPolyline
 66
1
 70
137
  0
VERTEX
  5
237
100
AcDbEntity
  8
PZT_KRAWEZNIKI
100
AcDbVertex
100
AcDb3dPolylineVertex
 10
8412528.55572074466
 20
5786754.12625835557
 30
0.000
 70
32
  0
VERTEX
  5
238
100
AcDbEntity
  8
PZT_KRAWEZNIKI
100
AcDbVertex
100
AcDb3dPolylineVertex
 10
8412516.30755805224
 20
5786757.46681783348
 30
0.000
 70
32
  0
VERTEX
  5
239
100
AcDbEntity
  8
PZT_KRAWEZNIKI
100
AcDbVertex
100
AcDb3dPolylineVertex
 10
8412516.16042621806
 20
5786756.93000492919
 30
0.000
 70
32
  0
VERTEX
  5
23A
100
AcDbEntity
  8
PZT_KRAWEZNIKI
100
AcDbVertex
100
AcDb3dPolylineVertex
 10
8412528.41016551107
 20
5786753.6014996022
 30
0.000
 70
32
  0
SEQEND
  5
23B
100
AcDbEntity
  8
PZT_KRAWEZNIKI
  0
POLYLINE
  5
23C
100
AcDbEntity
  8
PZT_KRAWEZNIKI
  6
CONTINUOUS
370
25
100
AcDb3dPolyline
 66
1
 70
137
  0
VERTEX
  5
23D
100
AcDbEntity
  8
PZT_KRAWEZNIKI
100
AcDbVertex
100
AcDb3dPolylineVertex
 10
8412528.55572074466
 20
5786754.12625835557
 30
0.000
 70
32
  0
VERTEX
  5
23E
100
AcDbEntity
  8
PZT_KRAWEZNIKI
100
AcDbVertex
100
AcDb3dPolylineVertex
 10
8412542.921245059
 20
5786750.20821043197
 30
0.000
 70
32
  0
VERTEX
  5
23F
100
AcDbEntity
  8
PZT_KRAWEZNIKI
100
AcDbVertex
100
AcDb3dPolylineVertex
 10
8412542.52504400536
 20
5786748.76246515103
 30
0.000
 70
32
  0
VERTEX
  5
240
100
AcDbEntity
  8
PZT_KRAWEZNIKI
100
AcDbVertex
100
AcDb3dPolylineVertex
 10
8412528.15786192194
 20
5786752.68096531741
 30
0.000
 70
32
  0
SEQEND
  5
241
100
AcDbEntity
  8
PZT_KRAWEZNIKI
  0
POLYLINE
  5
242
100
AcDbEntity
  8
PZT_KRAWEZNIKI
  6
CONTINUOUS
370
25
100
AcDb3dPolyline
 66
1
 70
137
  0
VERTEX
  5
243
100
AcDbEntity
  8
PZT_KRAWEZNIKI
100
AcDbVertex
100
AcDb3dPolylineVertex
 10
8412610.33542294986
 20
5786778.9628910441
 30
0.000
 70
32
  0
VERTEX
  5
244
100
AcDbEntity
  8
PZT_KRAWEZNIKI
100
AcDbVertex
100
AcDb3dPolylineVertex
 10
8412615.12217253074
 20
5786777.4966075765
 30
0.000
 70
32
  0
VERTEX
  5
245
100
AcDbEntity
  8
PZT_KRAWEZNIKI
100
AcDbVertex
100
AcDb3dPolylineVertex
 10
8412616.00423851982
 20
5786780.36214619037
 30
0.000
 70
32
  0
VERTEX
  5
246
100
AcDbEntity
  8
PZT_KRAWEZNIKI
100
AcDbVertex
100
AcDb3dPolylineVertex
 10
8412611.21748893522
 20
5786781.8284296589
 30
0.000
 70
32
  0
SEQEND
  5
247
100
AcDbEntity
  8
PZT_KRAWEZNIKI
  0
POLYLINE
  5
248
100
AcDbEntity
  8
PZT_KRAWEZNIKI
  6
CONTINUOUS
370
25
100
AcDb3dPolyline
 66
1
 70
137
  0
VERTEX
  5
249
100
AcDbEntity
  8
PZT_KRAWEZNIKI
100
AcDbVertex
100
AcDb3dPolylineVertex
 10
8412528.55572074466
 20
5786754.12625835557
 30
0.000
 70
32
  0
VERTEX
  5
24A
100
AcDbEntity
  8
PZT_KRAWEZNIKI
100
AcDbVertex
100
AcDb3dPolylineVertex
 10
8412516.30755805224
 20
5786757.46681783348
 30
0.000
 70
32
  0
VERTEX
  5
24B
100
AcDbEntity
  8
PZT_KRAWEZNIKI
100
AcDbVertex
100
AcDb3dPolylineVertex
 10
8412516.16042621806
 20
5786756.93000492919
 30
0.000
 70
32
  0
VERTEX
  5
24C
100
AcDbEntity
  8
PZT_KRAWEZNIKI
100
AcDbVertex
100
AcDb3dPolylineVertex
 10
8412528.41016551107
 20
5786753.6014996022
 30
0.000
 70
32
  0
SEQEND
  5
24D
100
AcDbEntity
  8
PZT_KRAWEZNIKI
  0
POLYLINE
  5
24E
100
AcDbEntity
  8
PZT_KRAWEZNIKI
  6
CONTINUOUS
370
25
100
AcDb3dPolyline
 66
1
 70
137
  0
VERTEX
  5
24F
100
AcDbEntity
  8
PZT_KRAWEZNIKI
100
AcDbVertex
100
AcDb3dPolylineVertex
 10
8412528.55572074466
 20
5786754.12625835557
 30
0.000
 70
32
  0
VERTEX
  5
250
100
AcDbEntity
  8
PZT_KRAWEZNIKI
100
AcDbVertex
100
AcDb3dPolylineVertex
 10
8412542.921245059
 20
5786750.20821043197
 30
0.000
 70
32
  0
VERTEX
  5
251
100
AcDbEntity
  8
PZT_KRAWEZNIKI
100
AcDbVertex
100
AcDb3dPolylineVertex
 10
8412542.52504400536
 20
5786748.76246515103
 30
0.000
 70
32
  0
VERTEX
  5
252
100
AcDbEntity
  8
PZT_KRAWEZNIKI
100
AcDbVertex
100
AcDb3dPolylineVertex
 10
8412528.15786192194
 20
5786752.68096531741
 30
0.000
 70
32
  0
SEQEND
  5
253
100
AcDbEntity
  8
PZT_KRAWEZNIKI
  0
ENDSEC
  0
SECTION
  2
OBJECTS
  0
DICTIONARY
  5
254
330
0
100
AcDbDictionary
280
0
281
1
  3
ACAD_GROUP
350
255
  3
ACAD_LAYOUT
350
256
  3
ACAD_MLINESTYLE
350
257
  3
ACAD_PLOTSETTINGS
350
258
  3
ACAD_PLOTSTYLENAME
350
259
  0
DICTIONARY
  5
255
102
{ACAD_REACTORS
330
254
102
}
330
254
100
AcDbDictionary
280
0
281
1
  0
DICTIONARY
  5
256
102
{ACAD_REACTORS
330
254
102
}
330
254
100
AcDbDictionary
280
0
281
1
  3
Layout
350
1A
  3
Model
350
18
  0
DICTIONARY
  5
257
102
{ACAD_REACTORS
330
254
102
}
330
254
100
AcDbDictionary
280
0
281
1
  3
Standard
350
25A
  3
L_0_02_M
350
8
  0
DICTIONARY
  5
258
102
{ACAD_REACTORS
330
254
102
}
330
254
100
AcDbDictionary
280
0
281
1
  0
ACDBDICTIONARYWDFLT
  5
259
102
{ACAD_REACTORS
330
254
102
}
330
254
100
AcDbDictionary
281
1
  3
Normal
350
C
100
AcDbDictionaryWithDefault
340
C
  0
LAYOUT
  5
1A
100
AcDbPlotSettings
  1

  2

  4

  6

 40
0.0
 41
0.0
 42
0.0
 43
0.0
 44
0.0
 45
0.0
 46
0.0
 47
0.0
 48
0.0
 49
0.0
140
0.0
141
0.0
142
1.0
143
1.0
 70
688
 72
1
 73
0
 74
5
  7

 75
0
147
1.0
148
0.0
149
0.0
100
AcDbLayout
  1
Layout
 70
1
 71
1
 10
0.0
 20
0.0
 11
420.0
 21
297.0
 12
0.0
 22
0.0
 32
0.0
 14
100000000000000000000.0
 24
100000000000000000000.0
 34
100000000000000000000.0
 15
-100000000000000000000.0
 25
-100000000000000000000.0
 35
-100000000000000000000.0
146
0.0
 13
0.0
 23
0.0
 33
0.0
 16
1.0
 26
0.0
 36
0.0
 17
0.0
 27
1.0
 37
0.0
 76
0
330
19
  0
LAYOUT
  5
18
100
AcDbPlotSettings
  1

  2

  4

  6

 40
0.0
 41
0.0
 42
0.0
 43
0.0
 44
0.0
 45
0.0
 46
0.0
 47
0.0
 48
0.0
 49
0.0
140
0.0
141
0.0
142
1.0
143
1.0
 70
1712
 72
1
 73
0
 74
0
  7

 75
0
147
1.0
148
0.0
149
0.0
100
AcDbLayout
  1
Model
 70
1
 71
0
 10
0.0
 20
0.0
 11
12.0
 21
9.0
 12
0.0
 22
0.0
 32
0.0
 14
0.0
 24
0.0
 34
0.0
 15
0.0
 25
0.0
 35
0.0
146
0.0
 13
0.0
 23
0.0
 33
0.0
 16
1.0
 26
0.0
 36
0.0
 17
0.0
 27
1.0
 37
0.0
 76
0
330
17
  0
MLINESTYLE
  5
25A
102
{ACAD_REACTORS
330
257
102
}
330
257
100
AcDbMlineStyle
  2
Standard
 70
0
  3

 62
256
 51
90.0
 52
90.0
  2
Standard
 71
2
 49
0.5
 62
256
  6
ByLayer
 49
-0.5
 62
256
  6
ByLayer
  0
MLINESTYLE
  5
8
100
AcDbMlineStyle
  2
L_0_02_M
 70
0
  3

 51
90.0
 52
90.0
 71
1
 49
0.0
 62
256
  6
CONTINUOUS
  0
ACDBPLACEHOLDER
  5
C
  0
ENDSEC
  0
EOF
