  0
SECTION
  2
HEADER
  9
$ACADVER
  1
AC1018
  9
$HANDSEED
  5
FFFFFF
  9
$EXTMAX
 10
7569065.37399999984
 20
5714875.06099999975
 30
1000000.00
  9
$EXTMIN
 10
0.0
 20
0.0
 30
0.00
  9
$LIMMIN
 10
0.0
 20
0.0
  9
$LIMMAX
 10
7569065.37399999984
 20
5714875.06099999975
  9
$DIMASZ
 40
2.5
  9
$DIMGAP
 40
0.625
  9
$INSUNITS
 70
6
  9
$MEASUREMENT
 70
1
  9
$DIMEXO
 40
0.625
  9
$DIMTXT
 40
2.5
  9
$DIMSTYLE
  2
Standard
  9
$PLIMMIN
 10
0.0
 20
0.0
  9
$PLIMMAX
 10
210.0
 20
297.0
  9
$DIMEXE
 40
1.25
  9
$TEXTSIZE
 40
2.5
  9
$TEXTSTYLE
  7
Standard
  9
$LWDISPLAY
290
1
  9
$TDCREATE
 40
45398.319849850
  9
$TDUCREATE
 40
45398.236516516
  9
$TDUPDATE
 40
45398.319849861
  9
$TDUUPDATE
 40
45398.236516528
  9
$TDINDWG
 40
0.0
  9
$TDUSRTIMER
 40
0.0
  9
$USRTIMER
 70
1
  0
ENDSEC
  0
SECTION
  2
TABLES
  0
TABLE
  2
VPORT
  5
1
100
AcDbSymbolTable
 70
1
  0
VPORT
  5
2
100
AcDbSymbolTableRecord
100
AcDbViewportTableRecord
  2
*ACTIVE
 70
0
 10
0.0
 20
0.0
 11
1.0
 21
1.0
 12
3784532.687
 22
2857437.530
 13
0.0
 23
0.0
 14
1.0
 24
1.0
 15
0.0
 25
0.0
 16
0.0
 26
0.0
 36
1.0
 17
0.0
 27
0.0
 37
0.0
 40
5714875.061
 41
1.324
 42
50.0
 43
0.0
 44
0.0
 50
0.0
 51
0.0
 71
0
 72
100
 73
1
 74
1
 75
0
 76
0
 77
0
 78
0
  0
ENDTAB
  0
TABLE
  2
LTYPE
  5
3
100
AcDbSymbolTable
 70
3
  0
LTYPE
  5
4
100
AcDbSymbolTableRecord
100
AcDbLinetypeTableRecord
  2
ByBlock
 70
0
  3

 72
65
 73
0
 40
0.0
  0
LTYPE
  5
5
100
AcDbSymbolTableRecord
100
AcDbLinetypeTableRecord
  2
ByLayer
 70
0
  3

 72
65
 73
0
 40
0.0
  0
LTYPE
  5
6
100
AcDbSymbolTableRecord
100
AcDbLinetypeTableRecord
  2
CONTINUOUS
 70
0
  3
Solid line
 72
65
 73
0
 40
0.0
  0
LTYPE
  5
8
100
AcDbSymbolTableRecord
100
AcDbLinetypeTableRecord
  2
L_0_02
 70
0
  3
Dzialka_ewidencyjna (MLineStyle)
 72
65
 73
0
 40
0.0
  0
LTYPE
  5
9
100
AcDbSymbolTableRecord
100
AcDbLinetypeTableRecord
  2
L_0_03
 70
0
  3
Uzytek_gruntowy
 72
65
 73
2
 40
1.0
 49
0.5
 74
0
 49
-0.5
 74
0
  0
LTYPE
  5
A
100
AcDbSymbolTableRecord
100
AcDbLinetypeTableRecord
  2
L_0_04
 70
0
  3
Budynek_projektowany
 72
65
 73
2
 40
1.5
 49
1.0
 74
0
 49
-0.5
 74
0
  0
LTYPE
  5
B
100
AcDbSymbolTableRecord
100
AcDbLinetypeTableRecord
  2
L_0_05
 70
0
  3
Szczyt_skarpy_nie_umocnionej_Podnoze_skarpy
 72
65
 73
2
 40
1.75
 49
1.25
 74
0
 49
-0.5
 74
0
  0
LTYPE
  5
C
100
AcDbSymbolTableRecord
100
AcDbLinetypeTableRecord
  2
L_0_06
 70
0
  3
Granica_konturu_klasyfikacyjnego_Krawedz_chodnika
 72
65
 73
2
 40
2.0
 49
1.5
 74
0
 49
-0.5
 74
0
  0
LTYPE
  5
D
100
AcDbSymbolTableRecord
100
AcDbLinetypeTableRecord
  2
L_0_17_SHX
 70
0
  3
L_0_17
 72
65
 73
12
 40
8.0
 49
0.0
 74
0
 49
-0.4
 74
0
 49
-0.8
 74
0
 49
-0.8
 74
0
 49
-0.8
 74
0
 49
-0.8
 74
0
 49
-0.8
 74
4
 75
1
340
E
 46
0.05
 50
0.0
 44
0.0
 45
0.0
 49
-0.8
 74
0
 49
-0.8
 74
0
 49
-0.8
 74
0
 49
-0.8
 74
0
 49
-0.4
 74
0
  0
LTYPE
  5
10
100
AcDbSymbolTableRecord
100
AcDbLinetypeTableRecord
  2
L_0_17
 70
0
  3
L_0_17 (MLineStyle)
 72
65
 73
0
 40
0.0
  0
ENDTAB
  0
TABLE
  2
LAYER
  5
11
100
AcDbSymbolTable
 70
23
  0
LAYER
  5
12
100
AcDbSymbolTableRecord
100
AcDbLayerTableRecord
  2
0
 70
0
 62
-7
420
0
  6
CONTINUOUS
370
18
390
13
  0
LAYER
  5
14
100
AcDbSymbolTableRecord
100
AcDbLayerTableRecord
  2
Dzialki
 70
0
420
32512
  6
L_0_02
370
18
390
13
  0
LAYER
  5
15
100
AcDbSymbolTableRecord
100
AcDbLayerTableRecord
  2
NR_DZIALEK_T_0
 70
0
420
32768
  6
CONTINUOUS
370
18
390
13
  0
LAYER
  5
16
100
AcDbSymbolTableRecord
100
AcDbLayerTableRecord
  2
SUEP_L_0
 70
0
420
16711680
  6
CONTINUOUS
370
18
390
13
  0
LAYER
  5
17
100
AcDbSymbolTableRecord
100
AcDbLayerTableRecord
  2
SUGP_L_0
 70
0
420
13421568
  6
CONTINUOUS
370
18
390
13
  0
LAYER
  5
18
100
AcDbSymbolTableRecord
100
AcDbLayerTableRecord
  2
SUGR_T_0
 70
0
420
13421568
  6
CONTINUOUS
370
18
390
13
  0
LAYER
  5
19
100
AcDbSymbolTableRecord
100
AcDbLayerTableRecord
  2
SUPG_L_2
 70
0
420
13421568
  6
CONTINUOUS
370
18
390
13
  0
LAYER
  5
1A
100
AcDbSymbolTableRecord
100
AcDbLayerTableRecord
  2
SUPT_E_T_0
 70
0
420
16744192
  6
CONTINUOUS
370
13
390
13
  0
LAYER
  5
1B
100
AcDbSymbolTableRecord
100
AcDbLayerTableRecord
  2
SUPT_L_0
 70
0
420
16744192
  6
CONTINUOUS
370
18
390
13
  0
LAYER
  5
1C
100
AcDbSymbolTableRecord
100
AcDbLayerTableRecord
  2
SUPW_E_T_2
 70
0
420
255
  6
CONTINUOUS
370
13
390
13
  0
LAYER
  5
1D
100
AcDbSymbolTableRecord
100
AcDbLayerTableRecord
  2
SUPW_L_2
 70
0
420
255
  6
CONTINUOUS
370
18
390
13
  0
LAYER
  5
1E
100
AcDbSymbolTableRecord
100
AcDbLayerTableRecord
  2
SUP_E_T_1
 70
0
420
0
  6
CONTINUOUS
370
18
390
13
  0
LAYER
  5
1F
100
AcDbSymbolTableRecord
100
AcDbLayerTableRecord
  2
SUP_T_4
 70
0
420
0
  6
CONTINUOUS
370
18
390
13
  0
LAYER
  5
20
100
AcDbSymbolTableRecord
100
AcDbLayerTableRecord
  2
SUTG_T_0
 70
0
420
13421568
  6
CONTINUOUS
370
18
390
13
  0
LAYER
  5
21
100
AcDbSymbolTableRecord
100
AcDbLayerTableRecord
  2
SUTP_L_0
 70
0
420
16744192
  6
CONTINUOUS
370
18
390
13
  0
LAYER
  5
22
100
AcDbSymbolTableRecord
100
AcDbLayerTableRecord
  2
SUTR_T_0
 70
0
420
16744192
  6
CONTINUOUS
370
18
390
13
  0
LAYER
  5
23
100
AcDbSymbolTableRecord
100
AcDbLayerTableRecord
  2
SUTT_T_0
 70
0
420
16744192
  6
CONTINUOUS
370
18
390
13
  0
LAYER
  5
24
100
AcDbSymbolTableRecord
100
AcDbLayerTableRecord
  2
SUTW_T_0
 70
0
420
255
  6
CONTINUOUS
370
18
390
13
  0
LAYER
  5
25
100
AcDbSymbolTableRecord
100
AcDbLayerTableRecord
  2
SUWP_L_0
 70
0
420
255
  6
CONTINUOUS
370
18
390
13
  0
LAYER
  5
26
100
AcDbSymbolTableRecord
100
AcDbLayerTableRecord
  2
_Gaz
 70
0
420
16760576
  6
CONTINUOUS
370
35
390
13
  0
LAYER
  5
27
100
AcDbSymbolTableRecord
100
AcDbLayerTableRecord
  2
_Kanalizacja
 70
0
420
10056192
  6
CONTINUOUS
370
35
390
13
  0
LAYER
  5
28
100
AcDbSymbolTableRecord
100
AcDbLayerTableRecord
  2
_Woda
 70
0
420
16383
  6
CONTINUOUS
370
35
390
13
  0
LAYER
  5
29
100
AcDbSymbolTableRecord
100
AcDbLayerTableRecord
  2
__projekt_wodociag
 70
0
420
16711680
  6
L_0_03
370
35
390
13
  0
ENDTAB
  0
TABLE
  2
STYLE
  5
2A
100
AcDbSymbolTable
 70
5
  0
STYLE
  5
2B
100
AcDbSymbolTableRecord
100
AcDbTextStyleTableRecord
  2
STANDARD
 70
0
 40
0.0
 41
1.0
 50
0.0
 71
0
  3
simplex.shx
  4

  0
STYLE
  5
2C
100
AcDbSymbolTableRecord
100
AcDbTextStyleTableRecord
  2
STANDARD_ITALIC
 70
0
 40
0.0
 41
1.0
 50
15.0
 71
0
  3
simplex.shx
  4

  0
STYLE
  5
E
100
AcDbSymbolTableRecord
100
AcDbTextStyleTableRecord
  2

 70
1
 40
0.0
 41
0.050
 50
0.0
 71
0
  3
proj_woda_kosmin_301.shx
  4

  0
STYLE
  5
2D
100
AcDbSymbolTableRecord
100
AcDbTextStyleTableRecord
  2
simplex.shx
 70
0
 40
0.0
 41
1.0
 50
0.0
 71
0
  3
simplex.shx.ttf
  4

  0
STYLE
  5
2E
100
AcDbSymbolTableRecord
100
AcDbTextStyleTableRecord
  2
Arial.ttf
 70
0
 40
0.0
 41
1.0
 50
0.0
 71
0
  3
Arial.ttf.ttf
  4

  0
ENDTAB
  0
TABLE
  2
VIEW
  5
2F
100
AcDbSymbolTable
 70
0
  0
ENDTAB
  0
TABLE
  2
UCS
  5
30
100
AcDbSymbolTable
 70
0
  0
ENDTAB
  0
TABLE
  2
APPID
  5
31
100
AcDbSymbolTable
 70
1
  0
APPID
  5
32
100
AcDbSymbolTableRecord
100
AcDbRegAppTableRecord
  2
ACAD
 70
0
  0
ENDTAB
  0
TABLE
  2
DIMSTYLE
  5
33
100
AcDbSymbolTable
 70
1
100
AcDbDimStyleTable
  0
DIMSTYLE
105
34
100
AcDbSymbolTableRecord
100
AcDbDimStyleTableRecord
  2
Standard
 70
0
340
2B
  0
ENDTAB
  0
TABLE
  2
BLOCK_RECORD
  5
35
100
AcDbSymbolTable
 70
6
  0
BLOCK_RECORD
  5
36
100
AcDbSymbolTableRecord
100
AcDbBlockTableRecord
  2
*Model_Space
340
37
  0
BLOCK_RECORD
  5
38
100
AcDbSymbolTableRecord
100
AcDbBlockTableRecord
  2
*Paper_Space
340
39
  0
BLOCK_RECORD
  5
3A
100
AcDbSymbolTableRecord
100
AcDbBlockTableRecord
  2
L_0_02_1
340
3B
  0
BLOCK_RECORD
  5
3C
100
AcDbSymbolTableRecord
100
AcDbBlockTableRecord
  2
L_0_02_2
340
3D
  0
BLOCK_RECORD
  5
3E
100
AcDbSymbolTableRecord
100
AcDbBlockTableRecord
  2
L_0_17_1
340
3F
  0
BLOCK_RECORD
  5
40
100
AcDbSymbolTableRecord
100
AcDbBlockTableRecord
  2
L_0_17_2
340
41
  0
ENDTAB
  0
ENDSEC
  0
SECTION
  2
BLOCKS
  0
BLOCK
  5
42
100
AcDbEntity
  8
0
100
AcDbBlockBegin
  2
*Model_Space
 70
0
 10
0.0
 20
0.0
 30
0.0
  3
*Model_Space
  1

  0
ENDBLK
  5
43
100
AcDbEntity
  8
0
100
AcDbBlockEnd
  0
BLOCK
  5
44
100
AcDbEntity
 67
1
  8
0
100
AcDbBlockBegin
  2
*Paper_Space
 70
0
 10
0.0
 20
0.0
 30
0.0
  3
*Paper_Space
  1

  0
ENDBLK
  5
45
100
AcDbEntity
 67
1
  8
0
100
AcDbBlockEnd
  0
BLOCK
  5
3B
100
AcDbEntity
  8
0
100
AcDbBlockBegin
 62
0
370
13
  2
L_0_02_1
 70
0
 10
0
 20
0
 30
0
  3
L_0_02_1
  0
POINT
  5
46
100
AcDbEntity
  8
0
100
AcDbPoint
 62
0
 10
0.0
 20
0.0
 30
0.000
  0
ENDBLK
  5
47
100
AcDbEntity
  8
0
100
AcDbBlockEnd
  0
BLOCK
  5
3D
100
AcDbEntity
  8
0
100
AcDbBlockBegin
 62
0
370
13
  2
L_0_02_2
 70
0
 10
0
 20
0
 30
0
  3
L_0_02_2
  0
POINT
  5
48
100
AcDbEntity
  8
0
100
AcDbPoint
 62
0
 10
-0.0
 20
-0.0
 30
0.000
  0
ENDBLK
  5
49
100
AcDbEntity
  8
0
100
AcDbBlockEnd
  0
BLOCK
  5
3F
100
AcDbEntity
  8
0
100
AcDbBlockBegin
 62
0
370
13
  2
L_0_17_1
 70
0
 10
0
 20
0
 30
0
  3
L_0_17_1
  0
CIRCLE
  5
4A
100
AcDbEntity
  8
0
  6
CONTINUOUS
 62
0
370
13
100
AcDbCircle
 10
0.0
 20
0.0
 40
0.5
  0
ENDBLK
  5
4B
100
AcDbEntity
  8
0
100
AcDbBlockEnd
  0
BLOCK
  5
41
100
AcDbEntity
  8
0
100
AcDbBlockBegin
 62
0
370
13
  2
L_0_17_2
 70
0
 10
0
 20
0
 30
0
  3
L_0_17_2
  0
CIRCLE
  5
4C
100
AcDbEntity
  8
0
  6
CONTINUOUS
 62
0
370
13
100
AcDbCircle
 10
-0.0
 20
-0.0
 40
0.5
  0
ENDBLK
  5
4D
100
AcDbEntity
  8
0
100
AcDbBlockEnd
  0
ENDSEC
  0
SECTION
  2
ENTITIES
  0
INSERT
  5
4E
100
AcDbEntity
  8
Dzialki
  6
CONTINUOUS
100
AcDbBlockReference
 66
0
  2
L_0_02_1
 10
7569057.87000000011
 20
5714901.16000000015
 41
0.50
 42
0.50
 43
0.50
 50
84.51
  0
INSERT
  5
4F
100
AcDbEntity
  8
Dzialki
  6
CONTINUOUS
100
AcDbBlockReference
 66
0
  2
L_0_02_2
 10
7569059.66000000015
 20
5714919.76999999862
 41
0.50
 42
0.50
 43
0.50
 50
264.51
  0
MLINE
  5
50
100
AcDbEntity
  8
Dzialki
  6
L_0_02
370
18
100
AcDbMline
  2
L_0_02
340
7
 40
1.0
 70
1
 71
1
 72
2
 73
1
 10
7569057.87000000011
 20
5714901.16000000015
210
0.0
220
0.0
230
1.0
 11
7569057.87000000011
 21
5714901.16000000015
 12
0.095742982208
 22
0.995406088668
 13
-0.995406088668
 23
0.095742982208
 74
3
 41
0.0
 41
0.25
 41
18.445887246753
 75
0
 11
7569059.66000000015
 21
5714919.76999999862
 12
0.095742982208
 22
0.995406088668
 13
-0.995406088668
 23
0.095742982208
 74
0
 75
0
  0
INSERT
  5
51
100
AcDbEntity
  8
Dzialki
  6
CONTINUOUS
100
AcDbBlockReference
 66
0
  2
L_0_02_1
 10
7568958.41000000015
 20
5714908.78000000026
 41
0.50
 42
0.50
 43
0.50
 50
355.62
  0
INSERT
  5
52
100
AcDbEntity
  8
Dzialki
  6
CONTINUOUS
100
AcDbBlockReference
 66
0
  2
L_0_02_2
 10
7569057.87000000011
 20
5714901.16000000015
 41
0.50
 42
0.50
 43
0.50
 50
175.62
  0
MLINE
  5
53
100
AcDbEntity
  8
Dzialki
  6
L_0_02
370
18
100
AcDbMline
  2
L_0_02
340
7
 40
1.0
 70
1
 71
1
 72
2
 73
1
 10
7568958.41000000015
 20
5714908.78000000026
210
0.0
220
0.0
230
1.0
 11
7568958.41000000015
 21
5714908.78000000026
 12
0.997078026382
 22
-0.076389850806
 13
0.076389850806
 23
0.997078026382
 74
3
 41
0.0
 41
0.25
 41
99.501471167067
 75
0
 11
7569057.87000000011
 21
5714901.16000000015
 12
0.997078026382
 22
-0.076389850806
 13
0.076389850806
 23
0.997078026382
 74
0
 75
0
  0
INSERT
  5
54
100
AcDbEntity
  8
Dzialki
  6
CONTINUOUS
100
AcDbBlockReference
 66
0
  2
L_0_02_1
 10
7569052.5
 20
5714840.20000000019
 41
0.50
 42
0.50
 43
0.50
 50
84.95
  0
INSERT
  5
55
100
AcDbEntity
  8
Dzialki
  6
CONTINUOUS
100
AcDbBlockReference
 66
0
  2
L_0_02_2
 10
7569054.90000000037
 20
5714867.37000000011
 41
0.50
 42
0.50
 43
0.50
 50
264.95
  0
MLINE
  5
56
100
AcDbEntity
  8
Dzialki
  6
L_0_02
370
18
100
AcDbMline
  2
L_0_02
340
7
 40
1.0
 70
1
 71
1
 72
2
 73
1
 10
7569052.5
 20
5714840.20000000019
210
0.0
220
0.0
230
1.0
 11
7569052.5
 21
5714840.20000000019
 12
0.087990108086
 22
0.996121348471
 13
-0.996121348471
 23
0.087990108086
 74
3
 41
0.0
 41
0.25
 41
27.025793297313
 75
0
 11
7569054.90000000037
 21
5714867.37000000011
 12
0.087990108086
 22
0.996121348471
 13
-0.996121348471
 23
0.087990108086
 74
0
 75
0
  0
INSERT
  5
57
100
AcDbEntity
  8
Dzialki
  6
CONTINUOUS
100
AcDbBlockReference
 66
0
  2
L_0_02_1
 10
7569054.90000000037
 20
5714867.37000000011
 41
0.50
 42
0.50
 43
0.50
 50
174.95
  0
INSERT
  5
58
100
AcDbEntity
  8
Dzialki
  6
CONTINUOUS
100
AcDbBlockReference
 66
0
  2
L_0_02_2
 10
7568996.58999999985
 20
5714872.51999999862
 41
0.50
 42
0.50
 43
0.50
 50
354.95
  0
MLINE
  5
59
100
AcDbEntity
  8
Dzialki
  6
L_0_02
370
18
100
AcDbMline
  2
L_0_02
340
7
 40
1.0
 70
1
 71
1
 72
2
 73
1
 10
7569054.90000000037
 20
5714867.37000000011
210
0.0
220
0.0
230
1.0
 11
7569054.90000000037
 21
5714867.37000000011
 12
-0.996122367932
 22
0.087978566169
 13
-0.087978566169
 23
-0.996122367932
 74
3
 41
0.0
 41
0.25
 41
58.286984890285
 75
0
 11
7568996.58999999985
 21
5714872.51999999862
 12
-0.996122367932
 22
0.087978566169
 13
-0.087978566169
 23
-0.996122367932
 74
0
 75
0
  0
INSERT
  5
5A
100
AcDbEntity
  8
Dzialki
  6
CONTINUOUS
100
AcDbBlockReference
 66
0
  2
L_0_02_1
 10
7568996.58999999985
 20
5714872.51999999862
 41
0.50
 42
0.50
 43
0.50
 50
264.43
  0
INSERT
  5
5B
100
AcDbEntity
  8
Dzialki
  6
CONTINUOUS
100
AcDbBlockReference
 66
0
  2
L_0_02_2
 10
7568993.94000000041
 20
5714845.37000000011
 41
0.50
 42
0.50
 43
0.50
 50
84.43
  0
MLINE
  5
5C
100
AcDbEntity
  8
Dzialki
  6
L_0_02
370
18
100
AcDbMline
  2
L_0_02
340
7
 40
1.0
 70
1
 71
1
 72
2
 73
1
 10
7568996.58999999985
 20
5714872.51999999862
210
0.0
220
0.0
230
1.0
 11
7568996.58999999985
 21
5714872.51999999862
 12
-0.097144247806
 22
-0.995270312588
 13
0.995270312588
 23
-0.097144247806
 74
3
 41
0.0
 41
0.25
 41
27.029021241902
 75
0
 11
7568993.94000000041
 21
5714845.37000000011
 12
-0.097144247806
 22
-0.995270312588
 13
0.995270312588
 23
-0.097144247806
 74
0
 75
0
  0
INSERT
  5
5D
100
AcDbEntity
  8
Dzialki
  6
CONTINUOUS
100
AcDbBlockReference
 66
0
  2
L_0_02_1
 10
7568954.33000000007
 20
5714566.59999999963
 41
0.50
 42
0.50
 43
0.50
 50
84.57
  0
INSERT
  5
5E
100
AcDbEntity
  8
Dzialki
  6
CONTINUOUS
100
AcDbBlockReference
 66
0
  2
L_0_02_2
 10
7568986.04999999981
 20
5714900.0700000003
 41
0.50
 42
0.50
 43
0.50
 50
264.57
  0
MLINE
  5
5F
100
AcDbEntity
  8
Dzialki
  6
L_0_02
370
18
100
AcDbMline
  2
L_0_02
340
7
 40
1.0
 70
1
 71
1
 72
2
 73
1
 10
7568954.33000000007
 20
5714566.59999999963
210
0.0
220
0.0
230
1.0
 11
7568954.33000000007
 21
5714566.59999999963
 12
0.094693571118
 22
0.995506467879
 13
-0.995506467879
 23
0.094693571118
 74
3
 41
0.0
 41
0.25
 41
334.725221920116
 75
0
 11
7568986.04999999981
 21
5714900.0700000003
 12
0.094693571118
 22
0.995506467879
 13
-0.995506467879
 23
0.094693571118
 74
0
 75
0
  0
INSERT
  5
60
100
AcDbEntity
  8
Dzialki
  6
CONTINUOUS
100
AcDbBlockReference
 66
0
  2
L_0_02_1
 10
7568986.04999999981
 20
5714900.0700000003
 41
0.50
 42
0.50
 43
0.50
 50
176.14
  0
INSERT
  5
61
100
AcDbEntity
  8
Dzialki
  6
CONTINUOUS
100
AcDbBlockReference
 66
0
  2
L_0_02_2
 10
7568958.00999999884
 20
5714901.95999999996
 41
0.50
 42
0.50
 43
0.50
 50
356.14
  0
MLINE
  5
62
100
AcDbEntity
  8
Dzialki
  6
L_0_02
370
18
100
AcDbMline
  2
L_0_02
340
7
 40
1.0
 70
1
 71
1
 72
2
 73
1
 10
7568986.04999999981
 20
5714900.0700000003
210
0.0
220
0.0
230
1.0
 11
7568986.04999999981
 21
5714900.0700000003
 12
-0.997736081273
 22
0.067251112454
 13
-0.067251112454
 23
-0.997736081273
 74
3
 41
0.0
 41
0.25
 41
27.853624322373
 75
0
 11
7568958.00999999884
 21
5714901.95999999996
 12
-0.997736081273
 22
0.067251112454
 13
-0.067251112454
 23
-0.997736081273
 74
0
 75
0
  0
INSERT
  5
63
100
AcDbEntity
  8
Dzialki
  6
CONTINUOUS
100
AcDbBlockReference
 66
0
  2
L_0_02_1
 10
7569054.90000000037
 20
5714867.37000000011
 41
0.50
 42
0.50
 43
0.50
 50
85.84
  0
INSERT
  5
64
100
AcDbEntity
  8
Dzialki
  6
CONTINUOUS
100
AcDbBlockReference
 66
0
  2
L_0_02_2
 10
7569056.92999999877
 20
5714895.29999999981
 41
0.50
 42
0.50
 43
0.50
 50
265.84
  0
MLINE
  5
65
100
AcDbEntity
  8
Dzialki
  6
L_0_02
370
18
100
AcDbMline
  2
L_0_02
340
7
 40
1.0
 70
1
 71
1
 72
2
 73
1
 10
7569054.90000000037
 20
5714867.37000000011
210
0.0
220
0.0
230
1.0
 11
7569054.90000000037
 21
5714867.37000000011
 12
0.072490486192
 22
0.997369103899
 13
-0.997369103899
 23
0.072490486192
 74
3
 41
0.0
 41
0.25
 41
27.753674758446
 75
0
 11
7569056.92999999877
 21
5714895.29999999981
 12
0.072490486192
 22
0.997369103899
 13
-0.997369103899
 23
0.072490486192
 74
0
 75
0
  0
INSERT
  5
66
100
AcDbEntity
  8
Dzialki
  6
CONTINUOUS
100
AcDbBlockReference
 66
0
  2
L_0_02_1
 10
7569056.92999999877
 20
5714895.29999999981
 41
0.50
 42
0.50
 43
0.50
 50
176.16
  0
INSERT
  5
67
100
AcDbEntity
  8
Dzialki
  6
CONTINUOUS
100
AcDbBlockReference
 66
0
  2
L_0_02_2
 10
7568999.04999999981
 20
5714899.19000000041
 41
0.50
 42
0.50
 43
0.50
 50
356.16
  0
MLINE
  5
68
100
AcDbEntity
  8
Dzialki
  6
L_0_02
370
18
100
AcDbMline
  2
L_0_02
340
7
 40
1.0
 70
1
 71
1
 72
2
 73
1
 10
7569056.92999999877
 20
5714895.29999999981
210
0.0
220
0.0
230
1.0
 11
7569056.92999999877
 21
5714895.29999999981
 12
-0.997749163521
 22
0.067056742342
 13
-0.067056742342
 23
-0.997749163521
 74
3
 41
0.0
 41
0.25
 41
57.760572311294
 75
0
 11
7568999.04999999981
 21
5714899.19000000041
 12
-0.997749163521
 22
0.067056742342
 13
-0.067056742342
 23
-0.997749163521
 74
0
 75
0
  0
INSERT
  5
69
100
AcDbEntity
  8
Dzialki
  6
CONTINUOUS
100
AcDbBlockReference
 66
0
  2
L_0_02_1
 10
7568999.04999999981
 20
5714899.19000000041
 41
0.50
 42
0.50
 43
0.50
 50
264.73
  0
INSERT
  5
6A
100
AcDbEntity
  8
Dzialki
  6
CONTINUOUS
100
AcDbBlockReference
 66
0
  2
L_0_02_2
 10
7568996.58999999985
 20
5714872.51999999862
 41
0.50
 42
0.50
 43
0.50
 50
84.73
  0
MLINE
  5
6B
100
AcDbEntity
  8
Dzialki
  6
L_0_02
370
18
100
AcDbMline
  2
L_0_02
340
7
 40
1.0
 70
1
 71
1
 72
2
 73
1
 10
7568999.04999999981
 20
5714899.19000000041
210
0.0
220
0.0
230
1.0
 11
7568999.04999999981
 21
5714899.19000000041
 12
-0.091848576846
 22
-0.995772985641
 13
0.995772985641
 23
-0.091848576846
 74
3
 41
0.0
 41
0.25
 41
26.53321302785
 75
0
 11
7568996.58999999985
 21
5714872.51999999862
 12
-0.091848576846
 22
-0.995772985641
 13
0.995772985641
 23
-0.091848576846
 74
0
 75
0
  0
INSERT
  5
6C
100
AcDbEntity
  8
Dzialki
  6
CONTINUOUS
100
AcDbBlockReference
 66
0
  2
L_0_02_1
 10
7569068.51999999862
 20
5714901.54000000004
 41
0.50
 42
0.50
 43
0.50
 50
343.40
  0
INSERT
  5
6D
100
AcDbEntity
  8
Dzialki
  6
CONTINUOUS
100
AcDbBlockReference
 66
0
  2
L_0_02_2
 10
7569089.88999999873
 20
5714895.16999999993
 41
0.50
 42
0.50
 43
0.50
 50
163.40
  0
MLINE
  5
6E
100
AcDbEntity
  8
Dzialki
  6
L_0_02
370
18
100
AcDbMline
  2
L_0_02
340
7
 40
1.0
 70
1
 71
1
 72
2
 73
1
 10
7569068.51999999862
 20
5714901.54000000004
210
0.0
220
0.0
230
1.0
 11
7569068.51999999862
 21
5714901.54000000004
 12
0.958330845389
 22
-0.285660621675
 13
0.285660621675
 23
0.958330845389
 74
3
 41
0.0
 41
0.25
 41
22.049188326175
 75
0
 11
7569089.88999999873
 21
5714895.16999999993
 12
0.958330845389
 22
-0.285660621675
 13
0.285660621675
 23
0.958330845389
 74
0
 75
0
  0
INSERT
  5
6F
100
AcDbEntity
  8
Dzialki
  6
CONTINUOUS
100
AcDbBlockReference
 66
0
  2
L_0_02_1
 10
7569071.51759806741
 20
5714934.39839456603
 41
0.50
 42
0.50
 43
0.50
 50
264.79
  0
INSERT
  5
70
100
AcDbEntity
  8
Dzialki
  6
CONTINUOUS
100
AcDbBlockReference
 66
0
  2
L_0_02_2
 10
7569068.51999999862
 20
5714901.54000000004
 41
0.50
 42
0.50
 43
0.50
 50
84.79
  0
MLINE
  5
71
100
AcDbEntity
  8
Dzialki
  6
L_0_02
370
18
100
AcDbMline
  2
L_0_02
340
7
 40
1.0
 70
1
 71
1
 72
2
 73
1
 10
7569071.51759806741
 20
5714934.39839456603
210
0.0
220
0.0
230
1.0
 11
7569071.51759806741
 21
5714934.39839456603
 12
-0.090850501609
 22
-0.995864542173
 13
0.995864542173
 23
-0.090850501609
 74
3
 41
0.0
 41
0.25
 41
32.744843349172
 75
0
 11
7569068.51999999862
 21
5714901.54000000004
 12
-0.090850501609
 22
-0.995864542173
 13
0.995864542173
 23
-0.090850501609
 74
0
 75
0
  0
INSERT
  5
72
100
AcDbEntity
  8
Dzialki
  6
CONTINUOUS
100
AcDbBlockReference
 66
0
  2
L_0_02_1
 10
7568986.04999999981
 20
5714900.0700000003
 41
0.50
 42
0.50
 43
0.50
 50
356.13
  0
INSERT
  5
73
100
AcDbEntity
  8
Dzialki
  6
CONTINUOUS
100
AcDbBlockReference
 66
0
  2
L_0_02_2
 10
7568999.04999999981
 20
5714899.19000000041
 41
0.50
 42
0.50
 43
0.50
 50
176.13
  0
MLINE
  5
74
100
AcDbEntity
  8
Dzialki
  6
L_0_02
370
18
100
AcDbMline
  2
L_0_02
340
7
 40
1.0
 70
1
 71
1
 72
2
 73
1
 10
7568986.04999999981
 20
5714900.0700000003
210
0.0
220
0.0
230
1.0
 11
7568986.04999999981
 21
5714900.0700000003
 12
0.997716719669
 22
-0.067537747169
 13
0.067537747169
 23
0.997716719669
 74
3
 41
0.0
 41
0.25
 41
12.7797505732
 75
0
 11
7568999.04999999981
 21
5714899.19000000041
 12
0.997716719669
 22
-0.067537747169
 13
0.067537747169
 23
0.997716719669
 74
0
 75
0
  0
INSERT
  5
75
100
AcDbEntity
  8
Dzialki
  6
CONTINUOUS
100
AcDbBlockReference
 66
0
  2
L_0_02_1
 10
7569056.92999999877
 20
5714895.29999999981
 41
0.50
 42
0.50
 43
0.50
 50
80.89
  0
INSERT
  5
76
100
AcDbEntity
  8
Dzialki
  6
CONTINUOUS
100
AcDbBlockReference
 66
0
  2
L_0_02_2
 10
7569057.87000000011
 20
5714901.16000000015
 41
0.50
 42
0.50
 43
0.50
 50
260.89
  0
MLINE
  5
77
100
AcDbEntity
  8
Dzialki
  6
L_0_02
370
18
100
AcDbMline
  2
L_0_02
340
7
 40
1.0
 70
1
 71
1
 72
2
 73
1
 10
7569056.92999999877
 20
5714895.29999999981
210
0.0
220
0.0
230
1.0
 11
7569056.92999999877
 21
5714895.29999999981
 12
0.158384781503
 22
0.987377466316
 13
-0.987377466316
 23
0.158384781503
 74
3
 41
0.0
 41
0.25
 41
5.684913647767
 75
0
 11
7569057.87000000011
 21
5714901.16000000015
 12
0.158384781503
 22
0.987377466316
 13
-0.987377466316
 23
0.158384781503
 74
0
 75
0
  0
INSERT
  5
78
100
AcDbEntity
  8
Dzialki
  6
CONTINUOUS
100
AcDbBlockReference
 66
0
  2
L_0_02_1
 10
7569089.63999999873
 20
5714888.08000000007
 41
0.50
 42
0.50
 43
0.50
 50
163.37
  0
INSERT
  5
79
100
AcDbEntity
  8
Dzialki
  6
CONTINUOUS
100
AcDbBlockReference
 66
0
  2
L_0_02_2
 10
7569067.91000000015
 20
5714894.5700000003
 41
0.50
 42
0.50
 43
0.50
 50
343.37
  0
MLINE
  5
7A
100
AcDbEntity
  8
Dzialki
  6
L_0_02
370
18
100
AcDbMline
  2
L_0_02
340
7
 40
1.0
 70
1
 71
1
 72
2
 73
1
 10
7569089.63999999873
 20
5714888.08000000007
210
0.0
220
0.0
230
1.0
 11
7569089.63999999873
 21
5714888.08000000007
 12
-0.958177515166
 22
0.2861745087
 13
-0.2861745087
 23
-0.958177515166
 74
3
 41
0.0
 41
0.25
 41
22.428469964735
 75
0
 11
7569067.91000000015
 21
5714894.5700000003
 12
-0.958177515166
 22
0.2861745087
 13
-0.2861745087
 23
-0.958177515166
 74
0
 75
0
  0
INSERT
  5
7B
100
AcDbEntity
  8
Dzialki
  6
CONTINUOUS
100
AcDbBlockReference
 66
0
  2
L_0_02_1
 10
7569067.91000000015
 20
5714894.5700000003
 41
0.50
 42
0.50
 43
0.50
 50
264.97
  0
INSERT
  5
7C
100
AcDbEntity
  8
Dzialki
  6
CONTINUOUS
100
AcDbBlockReference
 66
0
  2
L_0_02_2
 10
7569046.36000000034
 20
5714649.5700000003
 41
0.50
 42
0.50
 43
0.50
 50
84.97
  0
MLINE
  5
7D
100
AcDbEntity
  8
Dzialki
  6
L_0_02
370
18
100
AcDbMline
  2
L_0_02
340
7
 40
1.0
 70
1
 71
1
 72
2
 73
1
 10
7569067.91000000015
 20
5714894.5700000003
210
0.0
220
0.0
230
1.0
 11
7569067.91000000015
 21
5714894.5700000003
 12
-0.087620883341
 22
-0.996153894136
 13
0.996153894136
 23
-0.087620883341
 74
3
 41
0.0
 41
0.25
 41
245.69593409933
 75
0
 11
7569046.36000000034
 21
5714649.5700000003
 12
-0.087620883341
 22
-0.996153894136
 13
0.996153894136
 23
-0.087620883341
 74
0
 75
0
  0
INSERT
  5
7E
100
AcDbEntity
  8
Dzialki
  6
CONTINUOUS
100
AcDbBlockReference
 66
0
  2
L_0_02_1
 10
7569067.91000000015
 20
5714894.5700000003
 41
0.50
 42
0.50
 43
0.50
 50
85.00
  0
INSERT
  5
7F
100
AcDbEntity
  8
Dzialki
  6
CONTINUOUS
100
AcDbBlockReference
 66
0
  2
L_0_02_2
 10
7569068.51999999862
 20
5714901.54000000004
 41
0.50
 42
0.50
 43
0.50
 50
265.00
  0
MLINE
  5
80
100
AcDbEntity
  8
Dzialki
  6
L_0_02
370
18
100
AcDbMline
  2
L_0_02
340
7
 40
1.0
 70
1
 71
1
 72
2
 73
1
 10
7569067.91000000015
 20
5714894.5700000003
210
0.0
220
0.0
230
1.0
 11
7569067.91000000015
 21
5714894.5700000003
 12
0.087184680022
 22
0.996192165985
 13
-0.996192165985
 23
0.087184680022
 74
3
 41
0.0
 41
0.25
 41
6.746642051334
 75
0
 11
7569068.51999999862
 21
5714901.54000000004
 12
0.087184680022
 22
0.996192165985
 13
-0.996192165985
 23
0.087184680022
 74
0
 75
0
  0
INSERT
  5
81
100
AcDbEntity
  8
Dzialki
  6
CONTINUOUS
100
AcDbBlockReference
 66
0
  2
L_0_02_1
 10
7569052.5
 20
5714840.20000000019
 41
0.50
 42
0.50
 43
0.50
 50
84.95
  0
INSERT
  5
82
100
AcDbEntity
  8
Dzialki
  6
CONTINUOUS
100
AcDbBlockReference
 66
0
  2
L_0_02_2
 10
7569054.90000000037
 20
5714867.37000000011
 41
0.50
 42
0.50
 43
0.50
 50
264.95
  0
MLINE
  5
83
100
AcDbEntity
  8
Dzialki
  6
L_0_02
370
18
100
AcDbMline
  2
L_0_02
340
7
 40
1.0
 70
1
 71
1
 72
2
 73
1
 10
7569052.5
 20
5714840.20000000019
210
0.0
220
0.0
230
1.0
 11
7569052.5
 21
5714840.20000000019
 12
0.087990108086
 22
0.996121348471
 13
-0.996121348471
 23
0.087990108086
 74
3
 41
0.0
 41
0.25
 41
27.025793297313
 75
0
 11
7569054.90000000037
 21
5714867.37000000011
 12
0.087990108086
 22
0.996121348471
 13
-0.996121348471
 23
0.087990108086
 74
0
 75
0
  0
INSERT
  5
84
100
AcDbEntity
  8
Dzialki
  6
CONTINUOUS
100
AcDbBlockReference
 66
0
  2
L_0_02_1
 10
7568995.98779266886
 20
5714866.35021544527
 41
0.50
 42
0.50
 43
0.50
 50
264.43
  0
INSERT
  5
85
100
AcDbEntity
  8
Dzialki
  6
CONTINUOUS
100
AcDbBlockReference
 66
0
  2
L_0_02_2
 10
7568993.94000000041
 20
5714845.37000000011
 41
0.50
 42
0.50
 43
0.50
 50
84.43
  0
MLINE
  5
86
100
AcDbEntity
  8
Dzialki
  6
L_0_02
370
18
100
AcDbMline
  2
L_0_02
340
7
 40
1.0
 70
1
 71
1
 72
2
 73
1
 10
7568995.98779266886
 20
5714866.35021544527
210
0.0
220
0.0
230
1.0
 11
7568995.98779266886
 21
5714866.35021544527
 12
-0.097144247854
 22
-0.995270312583
 13
0.995270312583
 23
-0.097144247854
 74
3
 41
0.0
 41
0.25
 41
20.8299168627
 75
0
 11
7568993.94000000041
 21
5714845.37000000011
 12
-0.097144247854
 22
-0.995270312583
 13
0.995270312583
 23
-0.097144247854
 74
0
 75
0
  0
INSERT
  5
87
100
AcDbEntity
  8
Dzialki
  6
CONTINUOUS
100
AcDbBlockReference
 66
0
  2
L_0_02_1
 10
7568993.94000000041
 20
5714845.37000000011
 41
0.50
 42
0.50
 43
0.50
 50
354.95
  0
INSERT
  5
88
100
AcDbEntity
  8
Dzialki
  6
CONTINUOUS
100
AcDbBlockReference
 66
0
  2
L_0_02_2
 10
7569052.5
 20
5714840.20000000019
 41
0.50
 42
0.50
 43
0.50
 50
174.95
  0
MLINE
  5
89
100
AcDbEntity
  8
Dzialki
  6
L_0_02
370
18
100
AcDbMline
  2
L_0_02
340
7
 40
1.0
 70
1
 71
1
 72
2
 73
1
 10
7568993.94000000041
 20
5714845.37000000011
210
0.0
220
0.0
230
1.0
 11
7568993.94000000041
 21
5714845.37000000011
 12
0.996125468444
 22
-0.087943454095
 13
0.087943454095
 23
0.996125468444
 74
3
 41
0.0
 41
0.25
 41
58.537775089309
 75
0
 11
7569052.5
 21
5714840.20000000019
 12
0.996125468444
 22
-0.087943454095
 13
0.087943454095
 23
0.996125468444
 74
0
 75
0
  0
INSERT
  5
8A
100
AcDbEntity
  8
Dzialki
  6
CONTINUOUS
100
AcDbBlockReference
 66
0
  2
L_0_02_1
 10
7569050.11000000034
 20
5714813.15000000037
 41
0.50
 42
0.50
 43
0.50
 50
84.95
  0
INSERT
  5
8B
100
AcDbEntity
  8
Dzialki
  6
CONTINUOUS
100
AcDbBlockReference
 66
0
  2
L_0_02_2
 10
7569052.5
 20
5714840.20000000019
 41
0.50
 42
0.50
 43
0.50
 50
264.95
  0
MLINE
  5
8C
100
AcDbEntity
  8
Dzialki
  6
L_0_02
370
18
100
AcDbMline
  2
L_0_02
340
7
 40
1.0
 70
1
 71
1
 72
2
 73
1
 10
7569050.11000000034
 20
5714813.15000000037
210
0.0
220
0.0
230
1.0
 11
7569050.11000000034
 21
5714813.15000000037
 12
0.088012029354
 22
0.996119411862
 13
-0.996119411862
 23
0.088012029354
 74
3
 41
0.0
 41
0.25
 41
26.905378840818
 75
0
 11
7569052.5
 21
5714840.20000000019
 12
0.088012029354
 22
0.996119411862
 13
-0.996119411862
 23
0.088012029354
 74
0
 75
0
  0
INSERT
  5
8D
100
AcDbEntity
  8
Dzialki
  6
CONTINUOUS
100
AcDbBlockReference
 66
0
  2
L_0_02_1
 10
7568993.94000000041
 20
5714845.37000000011
 41
0.50
 42
0.50
 43
0.50
 50
264.40
  0
INSERT
  5
8E
100
AcDbEntity
  8
Dzialki
  6
CONTINUOUS
100
AcDbBlockReference
 66
0
  2
L_0_02_2
 10
7568991.29000000004
 20
5714818.33999999985
 41
0.50
 42
0.50
 43
0.50
 50
84.40
  0
MLINE
  5
8F
100
AcDbEntity
  8
Dzialki
  6
L_0_02
370
18
100
AcDbMline
  2
L_0_02
340
7
 40
1.0
 70
1
 71
1
 72
2
 73
1
 10
7568993.94000000041
 20
5714845.37000000011
210
0.0
220
0.0
230
1.0
 11
7568993.94000000041
 21
5714845.37000000011
 12
-0.097571424044
 22
-0.995228525119
 13
0.995228525119
 23
-0.097571424044
 74
3
 41
0.0
 41
0.25
 41
26.909591307972
 75
0
 11
7568991.29000000004
 21
5714818.33999999985
 12
-0.097571424044
 22
-0.995228525119
 13
0.995228525119
 23
-0.097571424044
 74
0
 75
0
  0
INSERT
  5
90
100
AcDbEntity
  8
Dzialki
  6
CONTINUOUS
100
AcDbBlockReference
 66
0
  2
L_0_02_1
 10
7568991.29000000004
 20
5714818.33999999985
 41
0.50
 42
0.50
 43
0.50
 50
354.96
  0
INSERT
  5
91
100
AcDbEntity
  8
Dzialki
  6
CONTINUOUS
100
AcDbBlockReference
 66
0
  2
L_0_02_2
 10
7569050.11000000034
 20
5714813.15000000037
 41
0.50
 42
0.50
 43
0.50
 50
174.96
  0
MLINE
  5
92
100
AcDbEntity
  8
Dzialki
  6
L_0_02
370
18
100
AcDbMline
  2
L_0_02
340
7
 40
1.0
 70
1
 71
1
 72
2
 73
1
 10
7568991.29000000004
 20
5714818.33999999985
210
0.0
220
0.0
230
1.0
 11
7568991.29000000004
 21
5714818.33999999985
 12
0.996129850026
 22
-0.087893810287
 13
0.087893810287
 23
0.996129850026
 74
3
 41
0.0
 41
0.25
 41
58.798526654182
 75
0
 11
7569050.11000000034
 21
5714813.15000000037
 12
0.996129850026
 22
-0.087893810287
 13
0.087893810287
 23
0.996129850026
 74
0
 75
0
  0
INSERT
  5
93
100
AcDbEntity
  8
Dzialki
  6
CONTINUOUS
100
AcDbBlockReference
 66
0
  2
L_0_02_1
 10
7569048.21756306477
 20
5714791.63109763246
 41
0.50
 42
0.50
 43
0.50
 50
84.97
  0
INSERT
  5
94
100
AcDbEntity
  8
Dzialki
  6
CONTINUOUS
100
AcDbBlockReference
 66
0
  2
L_0_02_2
 10
7569050.11000000034
 20
5714813.15000000037
 41
0.50
 42
0.50
 43
0.50
 50
264.97
  0
MLINE
  5
95
100
AcDbEntity
  8
Dzialki
  6
L_0_02
370
18
100
AcDbMline
  2
L_0_02
340
7
 40
1.0
 70
1
 71
1
 72
2
 73
1
 10
7569048.21756306477
 20
5714791.63109763246
210
0.0
220
0.0
230
1.0
 11
7569048.21756306477
 21
5714791.63109763246
 12
0.087604890455
 22
0.996155300728
 13
-0.996155300728
 23
0.087604890455
 74
3
 41
0.0
 41
0.25
 41
21.351955390076
 75
0
 11
7569050.11000000034
 21
5714813.15000000037
 12
0.087604890455
 22
0.996155300728
 13
-0.996155300728
 23
0.087604890455
 74
0
 75
0
  0
INSERT
  5
96
100
AcDbEntity
  8
Dzialki
  6
CONTINUOUS
100
AcDbBlockReference
 66
0
  2
L_0_02_1
 10
7568991.29000000004
 20
5714818.33999999985
 41
0.50
 42
0.50
 43
0.50
 50
264.39
  0
INSERT
  5
97
100
AcDbEntity
  8
Dzialki
  6
CONTINUOUS
100
AcDbBlockReference
 66
0
  2
L_0_02_2
 10
7568988.65000000037
 20
5714791.44000000041
 41
0.50
 42
0.50
 43
0.50
 50
84.39
  0
MLINE
  5
98
100
AcDbEntity
  8
Dzialki
  6
L_0_02
370
18
100
AcDbMline
  2
L_0_02
340
7
 40
1.0
 70
1
 71
1
 72
2
 73
1
 10
7568991.29000000004
 20
5714818.33999999985
210
0.0
220
0.0
230
1.0
 11
7568991.29000000004
 21
5714818.33999999985
 12
-0.097672016976
 22
-0.995218657934
 13
0.995218657934
 23
-0.097672016976
 74
3
 41
0.0
 41
0.25
 41
26.779236022651
 75
0
 11
7568988.65000000037
 21
5714791.44000000041
 12
-0.097672016976
 22
-0.995218657934
 13
0.995218657934
 23
-0.097672016976
 74
0
 75
0
  0
INSERT
  5
99
100
AcDbEntity
  8
Dzialki
  6
CONTINUOUS
100
AcDbBlockReference
 66
0
  2
L_0_02_1
 10
7568976.66383332666
 20
5714801.39392810874
 41
0.50
 42
0.50
 43
0.50
 50
84.57
  0
INSERT
  5
9A
100
AcDbEntity
  8
Dzialki
  6
CONTINUOUS
100
AcDbBlockReference
 66
0
  2
L_0_02_2
 10
7568982.6614589151
 20
5714864.44651969243
 41
0.50
 42
0.50
 43
0.50
 50
264.57
  0
MLINE
  5
9B
100
AcDbEntity
  8
Dzialki
  6
L_0_02
370
18
100
AcDbMline
  2
L_0_02
340
7
 40
1.0
 70
1
 71
1
 72
2
 73
1
 10
7568976.66383332666
 20
5714801.39392810874
210
0.0
220
0.0
230
1.0
 11
7568976.66383332666
 21
5714801.39392810874
 12
0.094693571116
 22
0.995506467879
 13
-0.995506467879
 23
0.094693571116
 74
3
 41
0.0
 41
0.25
 41
63.087199323296
 75
0
 11
7568982.6614589151
 21
5714864.44651969243
 12
0.094693571116
 22
0.995506467879
 13
-0.995506467879
 23
0.094693571116
 74
0
 75
0
  0
INSERT
  5
9C
100
AcDbEntity
  8
Dzialki
  6
CONTINUOUS
100
AcDbBlockReference
 66
0
  2
L_0_02_1
 10
7569065.01019837894
 20
5714861.59822358843
 41
0.50
 42
0.50
 43
0.50
 50
264.97
  0
INSERT
  5
9D
100
AcDbEntity
  8
Dzialki
  6
CONTINUOUS
100
AcDbBlockReference
 66
0
  2
L_0_02_2
 10
7569058.59701853246
 20
5714788.67808642238
 41
0.50
 42
0.50
 43
0.50
 50
84.97
  0
MLINE
  5
9E
100
AcDbEntity
  8
Dzialki
  6
L_0_02
370
18
100
AcDbMline
  2
L_0_02
340
7
 40
1.0
 70
1
 71
1
 72
2
 73
1
 10
7569065.01019837894
 20
5714861.59822358843
210
0.0
220
0.0
230
1.0
 11
7569065.01019837894
 21
5714861.59822358843
 12
-0.087609823086
 22
-0.996154866925
 13
0.996154866925
 23
-0.087609823086
 74
3
 41
0.0
 41
0.25
 41
72.951607086581
 75
0
 11
7569058.59701853246
 21
5714788.67808642238
 12
-0.087609823086
 22
-0.996154866925
 13
0.996154866925
 23
-0.087609823086
 74
0
 75
0
  0
POLYLINE
  5
9F
100
AcDbEntity
  8
SUEP_L_0
  6
CONTINUOUS
420
16711680
370
18
100
AcDb2dPolyline
 66
1
 70
128
  0
VERTEX
  5
A0
100
AcDbEntity
  8
SUEP_L_0
100
AcDbVertex
100
AcDb2dVertex
 10
7569035.41000000015
 20
5714921.38999999966
  0
VERTEX
  5
A1
100
AcDbEntity
  8
SUEP_L_0
100
AcDbVertex
100
AcDb2dVertex
 10
7569035.47085443884
 20
5714915.99921827763
  0
SEQEND
  5
A2
100
AcDbEntity
  8
SUEP_L_0
  0
POLYLINE
  5
A3
100
AcDbEntity
  8
SUGP_L_0
  6
CONTINUOUS
420
13421568
370
18
100
AcDb2dPolyline
 66
1
 70
128
  0
VERTEX
  5
A4
100
AcDbEntity
  8
SUGP_L_0
100
AcDbVertex
100
AcDb2dVertex
 10
7569051.94587462116
 20
5714886.36689085979
  0
VERTEX
  5
A5
100
AcDbEntity
  8
SUGP_L_0
100
AcDbVertex
100
AcDb2dVertex
 10
7569046.3757811999
 20
5714821.89656343963
  0
SEQEND
  5
A6
100
AcDbEntity
  8
SUGP_L_0
  0
POLYLINE
  5
A7
100
AcDbEntity
  8
SUGP_L_0
  6
CONTINUOUS
420
13421568
370
18
100
AcDb2dPolyline
 66
1
 70
128
  0
VERTEX
  5
A8
100
AcDbEntity
  8
SUGP_L_0
100
AcDbVertex
100
AcDb2dVertex
 10
7569046.3757811999
 20
5714821.89656343963
  0
VERTEX
  5
A9
100
AcDbEntity
  8
SUGP_L_0
100
AcDbVertex
100
AcDb2dVertex
 10
7569043.82729569916
 20
5714794.56435073912
  0
SEQEND
  5
AA
100
AcDbEntity
  8
SUGP_L_0
  0
POLYLINE
  5
AB
100
AcDbEntity
  8
SUGP_L_0
  6
CONTINUOUS
420
13421568
370
18
100
AcDb2dPolyline
 66
1
 70
128
  0
VERTEX
  5
AC
100
AcDbEntity
  8
SUGP_L_0
100
AcDbVertex
100
AcDb2dVertex
 10
7569043.82729569916
 20
5714794.56435073912
  0
VERTEX
  5
AD
100
AcDbEntity
  8
SUGP_L_0
100
AcDbVertex
100
AcDb2dVertex
 10
7569042.41557031032
 20
5714778.77579593845
  0
SEQEND
  5
AE
100
AcDbEntity
  8
SUGP_L_0
  0
POLYLINE
  5
AF
100
AcDbEntity
  8
SUGP_L_0
  6
CONTINUOUS
420
13421568
370
18
100
AcDb2dPolyline
 66
1
 70
128
  0
VERTEX
  5
B0
100
AcDbEntity
  8
SUGP_L_0
100
AcDbVertex
100
AcDb2dVertex
 10
7569042.41557031032
 20
5714778.77579593845
  0
VERTEX
  5
B1
100
AcDbEntity
  8
SUGP_L_0
100
AcDbVertex
100
AcDb2dVertex
 10
7569039.46000385005
 20
5714749.02068709955
  0
SEQEND
  5
B2
100
AcDbEntity
  8
SUGP_L_0
  0
POLYLINE
  5
B3
100
AcDbEntity
  8
SUGP_L_0
  6
CONTINUOUS
420
13421568
370
18
100
AcDb2dPolyline
 66
1
 70
128
  0
VERTEX
  5
B4
100
AcDbEntity
  8
SUGP_L_0
100
AcDbVertex
100
AcDb2dVertex
 10
7569039.46000385005
 20
5714749.02068709955
  0
VERTEX
  5
B5
100
AcDbEntity
  8
SUGP_L_0
100
AcDbVertex
100
AcDb2dVertex
 10
7569037.5755570177
 20
5714729.10848302022
  0
SEQEND
  5
B6
100
AcDbEntity
  8
SUGP_L_0
  0
POLYLINE
  5
B7
100
AcDbEntity
  8
SUGP_L_0
  6
CONTINUOUS
420
13421568
370
18
100
AcDb2dPolyline
 66
1
 70
128
  0
VERTEX
  5
B8
100
AcDbEntity
  8
SUGP_L_0
100
AcDbVertex
100
AcDb2dVertex
 10
7569037.5755570177
 20
5714729.10848302022
  0
VERTEX
  5
B9
100
AcDbEntity
  8
SUGP_L_0
100
AcDbVertex
100
AcDb2dVertex
 10
7569033.10557963978
 20
5714676.48124161921
  0
SEQEND
  5
BA
100
AcDbEntity
  8
SUGP_L_0
  0
POLYLINE
  5
BB
100
AcDbEntity
  8
SUGP_L_0
  6
CONTINUOUS
420
13421568
370
18
100
AcDb2dPolyline
 66
1
 70
128
  0
VERTEX
  5
BC
100
AcDbEntity
  8
SUGP_L_0
100
AcDbVertex
100
AcDb2dVertex
 10
7569051.94587462116
 20
5714886.36689085979
  0
VERTEX
  5
BD
100
AcDbEntity
  8
SUGP_L_0
100
AcDbVertex
100
AcDb2dVertex
 10
7569051.95924045891
 20
5714893.53777869977
  0
SEQEND
  5
BE
100
AcDbEntity
  8
SUGP_L_0
  0
POLYLINE
  5
BF
100
AcDbEntity
  8
SUGP_L_0
  6
CONTINUOUS
420
13421568
370
18
100
AcDb2dPolyline
 66
1
 70
128
  0
VERTEX
  5
C0
100
AcDbEntity
  8
SUGP_L_0
100
AcDbVertex
100
AcDb2dVertex
 10
7569051.95924045891
 20
5714893.53777869977
  0
VERTEX
  5
C1
100
AcDbEntity
  8
SUGP_L_0
100
AcDbVertex
100
AcDb2dVertex
 10
7569052.47745152004
 20
5714901.95838528965
  0
SEQEND
  5
C2
100
AcDbEntity
  8
SUGP_L_0
  0
POLYLINE
  5
C3
100
AcDbEntity
  8
SUGP_L_0
  6
CONTINUOUS
420
13421568
370
18
100
AcDb2dPolyline
 66
1
 70
128
  0
VERTEX
  5
C4
100
AcDbEntity
  8
SUGP_L_0
100
AcDbVertex
100
AcDb2dVertex
 10
7569052.47745152004
 20
5714901.95838528965
  0
VERTEX
  5
C5
100
AcDbEntity
  8
SUGP_L_0
100
AcDbVertex
100
AcDb2dVertex
 10
7569054.59564297088
 20
5714932.59857160971
  0
SEQEND
  5
C6
100
AcDbEntity
  8
SUGP_L_0
  0
POLYLINE
  5
C7
100
AcDbEntity
  8
SUGP_L_0
  6
CONTINUOUS
420
13421568
370
18
100
AcDb2dPolyline
 66
1
 70
128
  0
VERTEX
  5
C8
100
AcDbEntity
  8
SUGP_L_0
100
AcDbVertex
100
AcDb2dVertex
 10
7569051.94587462116
 20
5714886.36689085979
  0
VERTEX
  5
C9
100
AcDbEntity
  8
SUGP_L_0
100
AcDbVertex
100
AcDb2dVertex
 10
7569051.95924045891
 20
5714893.53777869977
  0
SEQEND
  5
CA
100
AcDbEntity
  8
SUGP_L_0
  0
POLYLINE
  5
CB
100
AcDbEntity
  8
SUGP_L_0
  6
CONTINUOUS
420
13421568
370
18
100
AcDb2dPolyline
 66
1
 70
128
  0
VERTEX
  5
CC
100
AcDbEntity
  8
SUGP_L_0
100
AcDbVertex
100
AcDb2dVertex
 10
7569051.95924045891
 20
5714893.53777869977
  0
VERTEX
  5
CD
100
AcDbEntity
  8
SUGP_L_0
100
AcDbVertex
100
AcDb2dVertex
 10
7569052.47745152004
 20
5714901.95838528965
  0
SEQEND
  5
CE
100
AcDbEntity
  8
SUGP_L_0
  0
POLYLINE
  5
CF
100
AcDbEntity
  8
SUGP_L_0
  6
CONTINUOUS
420
13421568
370
18
100
AcDb2dPolyline
 66
1
 70
128
  0
VERTEX
  5
D0
100
AcDbEntity
  8
SUGP_L_0
100
AcDbVertex
100
AcDb2dVertex
 10
7569052.47745152004
 20
5714901.95838528965
  0
VERTEX
  5
D1
100
AcDbEntity
  8
SUGP_L_0
100
AcDbVertex
100
AcDb2dVertex
 10
7569054.59564297088
 20
5714932.59857160971
  0
SEQEND
  5
D2
100
AcDbEntity
  8
SUGP_L_0
  0
CIRCLE
  5
D3
100
AcDbEntity
  8
SUGR_T_0
  6
ByLayer
370
18
100
AcDbCircle
 10
7569051.94587462116
 20
5714886.36689085979
 40
0.0625
  0
POLYLINE
  5
D4
100
AcDbEntity
  8
SUPG_L_2
  6
CONTINUOUS
370
18
100
AcDb2dPolyline
 66
1
 70
128
  0
VERTEX
  5
D5
100
AcDbEntity
  8
SUPG_L_2
100
AcDbVertex
100
AcDb2dVertex
 10
7569049.9213108588
 20
5714862.93383889645
  0
VERTEX
  5
D6
100
AcDbEntity
  8
SUPG_L_2
100
AcDbVertex
100
AcDb2dVertex
 10
7569046.3757811999
 20
5714821.89656343963
  0
SEQEND
  5
D7
100
AcDbEntity
  8
SUPG_L_2
  0
POLYLINE
  5
D8
100
AcDbEntity
  8
SUPG_L_2
  6
CONTINUOUS
370
18
100
AcDb2dPolyline
 66
1
 70
128
  0
VERTEX
  5
D9
100
AcDbEntity
  8
SUPG_L_2
100
AcDbVertex
100
AcDb2dVertex
 10
7569046.3757811999
 20
5714821.89656343963
  0
VERTEX
  5
DA
100
AcDbEntity
  8
SUPG_L_2
100
AcDbVertex
100
AcDb2dVertex
 10
7569043.82729569916
 20
5714794.56435073912
  0
SEQEND
  5
DB
100
AcDbEntity
  8
SUPG_L_2
  0
POLYLINE
  5
DC
100
AcDbEntity
  8
SUPG_L_2
  6
CONTINUOUS
370
18
100
AcDb2dPolyline
 66
1
 70
128
  0
VERTEX
  5
DD
100
AcDbEntity
  8
SUPG_L_2
100
AcDbVertex
100
AcDb2dVertex
 10
7569043.82729569916
 20
5714794.56435073912
  0
VERTEX
  5
DE
100
AcDbEntity
  8
SUPG_L_2
100
AcDbVertex
100
AcDb2dVertex
 10
7569043.49965246767
 20
5714790.90003107209
  0
SEQEND
  5
DF
100
AcDbEntity
  8
SUPG_L_2
  0
POLYLINE
  5
E0
100
AcDbEntity
  8
SUPG_L_2
  6
CONTINUOUS
420
13421568
370
18
100
AcDb2dPolyline
 66
1
 70
128
  0
VERTEX
  5
E1
100
AcDbEntity
  8
SUPG_L_2
100
AcDbVertex
100
AcDb2dVertex
 10
7569052.47745152004
 20
5714901.95838528965
  0
VERTEX
  5
E2
100
AcDbEntity
  8
SUPG_L_2
100
AcDbVertex
100
AcDb2dVertex
 10
7569053.38346166722
 20
5714915.0640560342
  0
SEQEND
  5
E3
100
AcDbEntity
  8
SUPG_L_2
  0
POLYLINE
  5
E4
100
AcDbEntity
  8
SUPG_L_2
  6
CONTINUOUS
420
13421568
370
18
100
AcDb2dPolyline
 66
1
 70
128
  0
VERTEX
  5
E5
100
AcDbEntity
  8
SUPG_L_2
100
AcDbVertex
100
AcDb2dVertex
 10
7569051.94587462116
 20
5714886.36689085979
  0
VERTEX
  5
E6
100
AcDbEntity
  8
SUPG_L_2
100
AcDbVertex
100
AcDb2dVertex
 10
7569051.95924045891
 20
5714893.53777869977
  0
SEQEND
  5
E7
100
AcDbEntity
  8
SUPG_L_2
  0
POLYLINE
  5
E8
100
AcDbEntity
  8
SUPG_L_2
  6
CONTINUOUS
420
13421568
370
18
100
AcDb2dPolyline
 66
1
 70
128
  0
VERTEX
  5
E9
100
AcDbEntity
  8
SUPG_L_2
100
AcDbVertex
100
AcDb2dVertex
 10
7569043.82729569916
 20
5714794.56435073912
  0
VERTEX
  5
EA
100
AcDbEntity
  8
SUPG_L_2
100
AcDbVertex
100
AcDb2dVertex
 10
7569042.41557031032
 20
5714778.77579593845
  0
SEQEND
  5
EB
100
AcDbEntity
  8
SUPG_L_2
  0
POLYLINE
  5
EC
100
AcDbEntity
  8
SUPG_L_2
  6
CONTINUOUS
420
13421568
370
18
100
AcDb2dPolyline
 66
1
 70
128
  0
VERTEX
  5
ED
100
AcDbEntity
  8
SUPG_L_2
100
AcDbVertex
100
AcDb2dVertex
 10
7569042.41557031032
 20
5714778.77579593845
  0
VERTEX
  5
EE
100
AcDbEntity
  8
SUPG_L_2
100
AcDbVertex
100
AcDb2dVertex
 10
7569041.20415439457
 20
5714766.57988936733
  0
SEQEND
  5
EF
100
AcDbEntity
  8
SUPG_L_2
  0
POLYLINE
  5
F0
100
AcDbEntity
  8
SUPG_L_2
  6
CONTINUOUS
420
13421568
370
18
100
AcDb2dPolyline
 66
1
 70
128
  0
VERTEX
  5
F1
100
AcDbEntity
  8
SUPG_L_2
100
AcDbVertex
100
AcDb2dVertex
 10
7569051.94587462116
 20
5714886.36689085979
  0
VERTEX
  5
F2
100
AcDbEntity
  8
SUPG_L_2
100
AcDbVertex
100
AcDb2dVertex
 10
7569046.3757811999
 20
5714821.89656343963
  0
SEQEND
  5
F3
100
AcDbEntity
  8
SUPG_L_2
  0
POLYLINE
  5
F4
100
AcDbEntity
  8
SUPG_L_2
  6
CONTINUOUS
420
13421568
370
18
100
AcDb2dPolyline
 66
1
 70
128
  0
VERTEX
  5
F5
100
AcDbEntity
  8
SUPG_L_2
100
AcDbVertex
100
AcDb2dVertex
 10
7569046.3757811999
 20
5714821.89656343963
  0
VERTEX
  5
F6
100
AcDbEntity
  8
SUPG_L_2
100
AcDbVertex
100
AcDb2dVertex
 10
7569043.82729569916
 20
5714794.56435073912
  0
SEQEND
  5
F7
100
AcDbEntity
  8
SUPG_L_2
  0
POLYLINE
  5
F8
100
AcDbEntity
  8
SUPG_L_2
  6
CONTINUOUS
420
13421568
370
18
100
AcDb2dPolyline
 66
1
 70
128
  0
VERTEX
  5
F9
100
AcDbEntity
  8
SUPG_L_2
100
AcDbVertex
100
AcDb2dVertex
 10
7569051.95924045891
 20
5714893.53777869977
  0
VERTEX
  5
FA
100
AcDbEntity
  8
SUPG_L_2
100
AcDbVertex
100
AcDb2dVertex
 10
7569052.47745152004
 20
5714901.95838528965
  0
SEQEND
  5
FB
100
AcDbEntity
  8
SUPG_L_2
  0
POLYLINE
  5
FC
100
AcDbEntity
  8
SUPT_L_0
  6
CONTINUOUS
370
18
100
AcDb2dPolyline
 66
1
 70
128
  0
VERTEX
  5
FD
100
AcDbEntity
  8
SUPT_L_0
100
AcDbVertex
100
AcDb2dVertex
 10
7569044.47401916794
 20
5714790.1282302998
  0
VERTEX
  5
FE
100
AcDbEntity
  8
SUPT_L_0
100
AcDbVertex
100
AcDb2dVertex
 10
7569049.42442537006
 20
5714839.11829644907
  0
SEQEND
  5
FF
100
AcDbEntity
  8
SUPT_L_0
  0
POLYLINE
  5
100
100
AcDbEntity
  8
SUPT_L_0
  6
CONTINUOUS
370
18
100
AcDb2dPolyline
 66
1
 70
128
  0
VERTEX
  5
101
100
AcDbEntity
  8
SUPT_L_0
100
AcDbVertex
100
AcDb2dVertex
 10
7569049.42442537006
 20
5714839.11829644907
  0
VERTEX
  5
102
100
AcDbEntity
  8
SUPT_L_0
100
AcDbVertex
100
AcDb2dVertex
 10
7569051.6323762117
 20
5714862.69696822856
  0
SEQEND
  5
103
100
AcDbEntity
  8
SUPT_L_0
  0
POLYLINE
  5
104
100
AcDbEntity
  8
SUPT_L_0
  6
CONTINUOUS
370
18
100
AcDb2dPolyline
 66
1
 70
128
  0
VERTEX
  5
105
100
AcDbEntity
  8
SUPT_L_0
100
AcDbVertex
100
AcDb2dVertex
 10
7569058.63541615661
 20
5714791.22021550499
  0
VERTEX
  5
106
100
AcDbEntity
  8
SUPT_L_0
100
AcDbVertex
100
AcDb2dVertex
 10
7569062.08600000013
 20
5714832.59200000018
  0
SEQEND
  5
107
100
AcDbEntity
  8
SUPT_L_0
  0
POLYLINE
  5
108
100
AcDbEntity
  8
SUPT_L_0
  6
CONTINUOUS
370
18
100
AcDb2dPolyline
 66
1
 70
128
  0
VERTEX
  5
109
100
AcDbEntity
  8
SUPT_L_0
100
AcDbVertex
100
AcDb2dVertex
 10
7569062.08600000013
 20
5714832.59200000018
  0
VERTEX
  5
10A
100
AcDbEntity
  8
SUPT_L_0
100
AcDbVertex
100
AcDb2dVertex
 10
7569064.25303975027
 20
5714857.37299652491
  0
SEQEND
  5
10B
100
AcDbEntity
  8
SUPT_L_0
  0
POLYLINE
  5
10C
100
AcDbEntity
  8
SUPT_L_0
  6
CONTINUOUS
420
16744192
370
18
100
AcDb2dPolyline
 66
1
 70
128
  0
VERTEX
  5
10D
100
AcDbEntity
  8
SUPT_L_0
100
AcDbVertex
100
AcDb2dVertex
 10
7569012.01776218973
 20
5714898.98760673031
  0
VERTEX
  5
10E
100
AcDbEntity
  8
SUPT_L_0
100
AcDbVertex
100
AcDb2dVertex
 10
7568962.55909052957
 20
5714902.50759263244
  0
SEQEND
  5
10F
100
AcDbEntity
  8
SUPT_L_0
  0
POLYLINE
  5
110
100
AcDbEntity
  8
SUPT_L_0
  6
CONTINUOUS
420
16744192
370
18
100
AcDb2dPolyline
 66
1
 70
128
  0
VERTEX
  5
111
100
AcDbEntity
  8
SUPT_L_0
100
AcDbVertex
100
AcDb2dVertex
 10
7569054.74526473042
 20
5714895.93945505004
  0
VERTEX
  5
112
100
AcDbEntity
  8
SUPT_L_0
100
AcDbVertex
100
AcDb2dVertex
 10
7569012.01776218973
 20
5714898.98760673031
  0
SEQEND
  5
113
100
AcDbEntity
  8
SUPT_L_0
  0
POLYLINE
  5
114
100
AcDbEntity
  8
SUPT_L_0
  6
CONTINUOUS
420
16744192
370
18
100
AcDb2dPolyline
 66
1
 70
128
  0
VERTEX
  5
115
100
AcDbEntity
  8
SUPT_L_0
100
AcDbVertex
100
AcDb2dVertex
 10
7569042.65112677962
 20
5714766.57988936733
  0
VERTEX
  5
116
100
AcDbEntity
  8
SUPT_L_0
100
AcDbVertex
100
AcDb2dVertex
 10
7569044.47401916794
 20
5714790.1282302998
  0
SEQEND
  5
117
100
AcDbEntity
  8
SUPT_L_0
  0
POLYLINE
  5
118
100
AcDbEntity
  8
SUPT_L_0
  6
CONTINUOUS
420
16744192
370
18
100
AcDb2dPolyline
 66
1
 70
128
  0
VERTEX
  5
119
100
AcDbEntity
  8
SUPT_L_0
100
AcDbVertex
100
AcDb2dVertex
 10
7569044.47401916794
 20
5714790.1282302998
  0
VERTEX
  5
11A
100
AcDbEntity
  8
SUPT_L_0
100
AcDbVertex
100
AcDb2dVertex
 10
7569049.42442537006
 20
5714839.11829644907
  0
SEQEND
  5
11B
100
AcDbEntity
  8
SUPT_L_0
  0
POLYLINE
  5
11C
100
AcDbEntity
  8
SUPT_L_0
  6
CONTINUOUS
420
16744192
370
18
100
AcDb2dPolyline
 66
1
 70
128
  0
VERTEX
  5
11D
100
AcDbEntity
  8
SUPT_L_0
100
AcDbVertex
100
AcDb2dVertex
 10
7569049.42442537006
 20
5714839.11829644907
  0
VERTEX
  5
11E
100
AcDbEntity
  8
SUPT_L_0
100
AcDbVertex
100
AcDb2dVertex
 10
7569054.74526473042
 20
5714895.93945505004
  0
SEQEND
  5
11F
100
AcDbEntity
  8
SUPT_L_0
  0
POLYLINE
  5
120
100
AcDbEntity
  8
SUPT_L_0
  6
CONTINUOUS
420
16744192
370
18
100
AcDb2dPolyline
 66
1
 70
128
  0
VERTEX
  5
121
100
AcDbEntity
  8
SUPT_L_0
100
AcDbVertex
100
AcDb2dVertex
 10
7569067.38900000043
 20
5714893.23400000017
  0
VERTEX
  5
122
100
AcDbEntity
  8
SUPT_L_0
100
AcDbVertex
100
AcDb2dVertex
 10
7569068.39499999955
 20
5714903.52100000158
  0
SEQEND
  5
123
100
AcDbEntity
  8
SUPT_L_0
  0
POLYLINE
  5
124
100
AcDbEntity
  8
SUPT_L_0
  6
CONTINUOUS
420
16744192
370
18
100
AcDb2dPolyline
 66
1
 70
128
  0
VERTEX
  5
125
100
AcDbEntity
  8
SUPT_L_0
100
AcDbVertex
100
AcDb2dVertex
 10
7569069.46800000034
 20
5714916.08500000089
  0
VERTEX
  5
126
100
AcDbEntity
  8
SUPT_L_0
100
AcDbVertex
100
AcDb2dVertex
 10
7569070.41500000097
 20
5714926.1810000008
  0
SEQEND
  5
127
100
AcDbEntity
  8
SUPT_L_0
  0
POLYLINE
  5
128
100
AcDbEntity
  8
SUPT_L_0
  6
CONTINUOUS
420
16744192
370
18
100
AcDb2dPolyline
 66
1
 70
128
  0
VERTEX
  5
129
100
AcDbEntity
  8
SUPT_L_0
100
AcDbVertex
100
AcDb2dVertex
 10
7569068.39499999955
 20
5714903.52100000158
  0
VERTEX
  5
12A
100
AcDbEntity
  8
SUPT_L_0
100
AcDbVertex
100
AcDb2dVertex
 10
7569069.46800000034
 20
5714916.08500000089
  0
SEQEND
  5
12B
100
AcDbEntity
  8
SUPT_L_0
  0
POLYLINE
  5
12C
100
AcDbEntity
  8
SUPT_L_0
  6
CONTINUOUS
420
16744192
370
18
100
AcDb2dPolyline
 66
1
 70
128
  0
VERTEX
  5
12D
100
AcDbEntity
  8
SUPT_L_0
100
AcDbVertex
100
AcDb2dVertex
 10
7569062.08600000013
 20
5714832.59200000018
  0
VERTEX
  5
12E
100
AcDbEntity
  8
SUPT_L_0
100
AcDbVertex
100
AcDb2dVertex
 10
7569067.38900000043
 20
5714893.23400000017
  0
SEQEND
  5
12F
100
AcDbEntity
  8
SUPT_L_0
  0
POLYLINE
  5
130
100
AcDbEntity
  8
SUPT_L_0
  6
CONTINUOUS
420
16744192
370
18
100
AcDb2dPolyline
 66
1
 70
128
  0
VERTEX
  5
131
100
AcDbEntity
  8
SUPT_L_0
100
AcDbVertex
100
AcDb2dVertex
 10
7569056.58030752744
 20
5714766.57988936733
  0
VERTEX
  5
132
100
AcDbEntity
  8
SUPT_L_0
100
AcDbVertex
100
AcDb2dVertex
 10
7569062.08600000013
 20
5714832.59200000018
  0
SEQEND
  5
133
100
AcDbEntity
  8
SUPT_L_0
  0
POLYLINE
  5
134
100
AcDbEntity
  8
SUPW_L_2
  6
CONTINUOUS
370
18
100
AcDb2dPolyline
 66
1
 70
128
  0
VERTEX
  5
135
100
AcDbEntity
  8
SUPW_L_2
100
AcDbVertex
100
AcDb2dVertex
 10
7569061.84240579884
 20
5714796.22276245523
  0
VERTEX
  5
136
100
AcDbEntity
  8
SUPW_L_2
100
AcDbVertex
100
AcDb2dVertex
 10
7569062.17404889036
 20
5714799.54058596026
  0
SEQEND
  5
137
100
AcDbEntity
  8
SUPW_L_2
  0
POLYLINE
  5
138
100
AcDbEntity
  8
SUPW_L_2
  6
CONTINUOUS
370
18
100
AcDb2dPolyline
 66
1
 70
128
  0
VERTEX
  5
139
100
AcDbEntity
  8
SUPW_L_2
100
AcDbVertex
100
AcDb2dVertex
 10
7569062.17404889036
 20
5714799.54058596026
  0
VERTEX
  5
13A
100
AcDbEntity
  8
SUPW_L_2
100
AcDbVertex
100
AcDb2dVertex
 10
7569065.17085308023
 20
5714835.00715805963
  0
SEQEND
  5
13B
100
AcDbEntity
  8
SUPW_L_2
  0
POLYLINE
  5
13C
100
AcDbEntity
  8
SUPW_L_2
  6
CONTINUOUS
370
18
100
AcDb2dPolyline
 66
1
 70
128
  0
VERTEX
  5
13D
100
AcDbEntity
  8
SUPW_L_2
100
AcDbVertex
100
AcDb2dVertex
 10
7569065.17085308023
 20
5714835.00715805963
  0
VERTEX
  5
13E
100
AcDbEntity
  8
SUPW_L_2
100
AcDbVertex
100
AcDb2dVertex
 10
7569066.7968691159
 20
5714855.40184416343
  0
SEQEND
  5
13F
100
AcDbEntity
  8
SUPW_L_2
  0
POLYLINE
  5
140
100
AcDbEntity
  8
SUPW_L_2
  6
CONTINUOUS
420
255
370
18
100
AcDb2dPolyline
 66
1
 70
128
  0
VERTEX
  5
141
100
AcDbEntity
  8
SUPW_L_2
100
AcDbVertex
100
AcDb2dVertex
 10
7569070.95046836976
 20
5714901.01963259
  0
VERTEX
  5
142
100
AcDbEntity
  8
SUPW_L_2
100
AcDbVertex
100
AcDb2dVertex
 10
7569071.92750904243
 20
5714915.0640560342
  0
SEQEND
  5
143
100
AcDbEntity
  8
SUPW_L_2
  0
POLYLINE
  5
144
100
AcDbEntity
  8
SUPW_L_2
  6
CONTINUOUS
420
255
370
18
100
AcDb2dPolyline
 66
1
 70
128
  0
VERTEX
  5
145
100
AcDbEntity
  8
SUPW_L_2
100
AcDbVertex
100
AcDb2dVertex
 10
7569068.02720240969
 20
5714870.83358701039
  0
VERTEX
  5
146
100
AcDbEntity
  8
SUPW_L_2
100
AcDbVertex
100
AcDb2dVertex
 10
7569070.2422460299
 20
5714891.357975021
  0
SEQEND
  5
147
100
AcDbEntity
  8
SUPW_L_2
  0
POLYLINE
  5
148
100
AcDbEntity
  8
SUPW_L_2
  6
CONTINUOUS
420
255
370
18
100
AcDb2dPolyline
 66
1
 70
128
  0
VERTEX
  5
149
100
AcDbEntity
  8
SUPW_L_2
100
AcDbVertex
100
AcDb2dVertex
 10
7569070.2422460299
 20
5714891.357975021
  0
VERTEX
  5
14A
100
AcDbEntity
  8
SUPW_L_2
100
AcDbVertex
100
AcDb2dVertex
 10
7569070.95046836976
 20
5714901.01963259
  0
SEQEND
  5
14B
100
AcDbEntity
  8
SUPW_L_2
  0
POLYLINE
  5
14C
100
AcDbEntity
  8
SUPW_L_2
  6
CONTINUOUS
420
255
370
18
100
AcDb2dPolyline
 66
1
 70
128
  0
VERTEX
  5
14D
100
AcDbEntity
  8
SUPW_L_2
100
AcDbVertex
100
AcDb2dVertex
 10
7569065.17085308023
 20
5714835.00715805963
  0
VERTEX
  5
14E
100
AcDbEntity
  8
SUPW_L_2
100
AcDbVertex
100
AcDb2dVertex
 10
7569068.02720240969
 20
5714870.83358701039
  0
SEQEND
  5
14F
100
AcDbEntity
  8
SUPW_L_2
  0
POLYLINE
  5
150
100
AcDbEntity
  8
SUPW_L_2
  6
CONTINUOUS
420
255
370
18
100
AcDb2dPolyline
 66
1
 70
128
  0
VERTEX
  5
151
100
AcDbEntity
  8
SUPW_L_2
100
AcDbVertex
100
AcDb2dVertex
 10
7569059.66459001042
 20
5714774.43545971997
  0
VERTEX
  5
152
100
AcDbEntity
  8
SUPW_L_2
100
AcDbVertex
100
AcDb2dVertex
 10
7569062.17404889036
 20
5714799.54058596026
  0
SEQEND
  5
153
100
AcDbEntity
  8
SUPW_L_2
  0
POLYLINE
  5
154
100
AcDbEntity
  8
SUPW_L_2
  6
CONTINUOUS
420
255
370
18
100
AcDb2dPolyline
 66
1
 70
128
  0
VERTEX
  5
155
100
AcDbEntity
  8
SUPW_L_2
100
AcDbVertex
100
AcDb2dVertex
 10
7569062.17404889036
 20
5714799.54058596026
  0
VERTEX
  5
156
100
AcDbEntity
  8
SUPW_L_2
100
AcDbVertex
100
AcDb2dVertex
 10
7569065.17085308023
 20
5714835.00715805963
  0
SEQEND
  5
157
100
AcDbEntity
  8
SUPW_L_2
  0
POLYLINE
  5
158
100
AcDbEntity
  8
SUPW_L_2
  6
CONTINUOUS
420
255
370
18
100
AcDb2dPolyline
 66
1
 70
128
  0
VERTEX
  5
159
100
AcDbEntity
  8
SUPW_L_2
100
AcDbVertex
100
AcDb2dVertex
 10
7569058.98385099415
 20
5714766.57988936733
  0
VERTEX
  5
15A
100
AcDbEntity
  8
SUPW_L_2
100
AcDbVertex
100
AcDb2dVertex
 10
7569059.66459001042
 20
5714774.43545971997
  0
SEQEND
  5
15B
100
AcDbEntity
  8
SUPW_L_2
  0
CIRCLE
  5
15C
100
AcDbEntity
  8
SUP_T_4
  6
ByLayer
370
18
100
AcDbCircle
 10
7569052.28000000026
 20
5714895.87000000011
 40
0.25
  0
POLYLINE
  5
15D
100
AcDbEntity
  8
SUTP_L_0
  6
CONTINUOUS
420
16744192
370
18
100
AcDb2dPolyline
 66
1
 70
128
  0
VERTEX
  5
15E
100
AcDbEntity
  8
SUTP_L_0
100
AcDbVertex
100
AcDb2dVertex
 10
7569049.42442537006
 20
5714839.11829644907
  0
VERTEX
  5
15F
100
AcDbEntity
  8
SUTP_L_0
100
AcDbVertex
100
AcDb2dVertex
 10
7569054.74526473042
 20
5714895.93945505004
  0
SEQEND
  5
160
100
AcDbEntity
  8
SUTP_L_0
  0
POLYLINE
  5
161
100
AcDbEntity
  8
SUTP_L_0
  6
CONTINUOUS
420
16744192
370
18
100
AcDb2dPolyline
 66
1
 70
128
  0
VERTEX
  5
162
100
AcDbEntity
  8
SUTP_L_0
100
AcDbVertex
100
AcDb2dVertex
 10
7569054.74526473042
 20
5714895.93945505004
  0
VERTEX
  5
163
100
AcDbEntity
  8
SUTP_L_0
100
AcDbVertex
100
AcDb2dVertex
 10
7569012.01776218973
 20
5714898.98760673031
  0
SEQEND
  5
164
100
AcDbEntity
  8
SUTP_L_0
  0
POLYLINE
  5
165
100
AcDbEntity
  8
SUTP_L_0
  6
CONTINUOUS
420
16744192
370
18
100
AcDb2dPolyline
 66
1
 70
128
  0
VERTEX
  5
166
100
AcDbEntity
  8
SUTP_L_0
100
AcDbVertex
100
AcDb2dVertex
 10
7569012.01776218973
 20
5714898.98760673031
  0
VERTEX
  5
167
100
AcDbEntity
  8
SUTP_L_0
100
AcDbVertex
100
AcDb2dVertex
 10
7568962.55909052957
 20
5714902.50759263244
  0
SEQEND
  5
168
100
AcDbEntity
  8
SUTP_L_0
  0
POLYLINE
  5
169
100
AcDbEntity
  8
SUTP_L_0
  6
CONTINUOUS
420
16744192
370
18
100
AcDb2dPolyline
 66
1
 70
128
  0
VERTEX
  5
16A
100
AcDbEntity
  8
SUTP_L_0
100
AcDbVertex
100
AcDb2dVertex
 10
7569062.08600000013
 20
5714832.59200000018
  0
VERTEX
  5
16B
100
AcDbEntity
  8
SUTP_L_0
100
AcDbVertex
100
AcDb2dVertex
 10
7569067.38900000043
 20
5714893.23400000017
  0
SEQEND
  5
16C
100
AcDbEntity
  8
SUTP_L_0
  0
POLYLINE
  5
16D
100
AcDbEntity
  8
SUTP_L_0
  6
CONTINUOUS
420
16744192
370
18
100
AcDb2dPolyline
 66
1
 70
128
  0
VERTEX
  5
16E
100
AcDbEntity
  8
SUTP_L_0
100
AcDbVertex
100
AcDb2dVertex
 10
7569067.38900000043
 20
5714893.23400000017
  0
VERTEX
  5
16F
100
AcDbEntity
  8
SUTP_L_0
100
AcDbVertex
100
AcDb2dVertex
 10
7569068.39499999955
 20
5714903.52100000158
  0
SEQEND
  5
170
100
AcDbEntity
  8
SUTP_L_0
  0
POLYLINE
  5
171
100
AcDbEntity
  8
SUTP_L_0
  6
CONTINUOUS
420
16744192
370
18
100
AcDb2dPolyline
 66
1
 70
128
  0
VERTEX
  5
172
100
AcDbEntity
  8
SUTP_L_0
100
AcDbVertex
100
AcDb2dVertex
 10
7569068.39499999955
 20
5714903.52100000158
  0
VERTEX
  5
173
100
AcDbEntity
  8
SUTP_L_0
100
AcDbVertex
100
AcDb2dVertex
 10
7569069.46800000034
 20
5714916.08500000089
  0
SEQEND
  5
174
100
AcDbEntity
  8
SUTP_L_0
  0
CIRCLE
  5
175
100
AcDbEntity
  8
SUTR_T_0
  6
ByLayer
370
18
100
AcDbCircle
 10
7569012.01776218973
 20
5714898.98760673031
 40
0.0625
  0
CIRCLE
  5
176
100
AcDbEntity
  8
SUTR_T_0
  6
ByLayer
370
18
100
AcDbCircle
 10
7569068.39499999955
 20
5714903.52100000158
 40
0.0625
  0
POLYLINE
  5
177
100
AcDbEntity
  8
SUWP_L_0
  6
CONTINUOUS
420
255
370
18
100
AcDb2dPolyline
 66
1
 70
128
  0
VERTEX
  5
178
100
AcDbEntity
  8
SUWP_L_0
100
AcDbVertex
100
AcDb2dVertex
 10
7569051.36039111018
 20
5714679.32749924995
  0
VERTEX
  5
179
100
AcDbEntity
  8
SUWP_L_0
100
AcDbVertex
100
AcDb2dVertex
 10
7569055.59181868006
 20
5714727.43662325013
  0
SEQEND
  5
17A
100
AcDbEntity
  8
SUWP_L_0
  0
POLYLINE
  5
17B
100
AcDbEntity
  8
SUWP_L_0
  6
CONTINUOUS
420
255
370
18
100
AcDb2dPolyline
 66
1
 70
128
  0
VERTEX
  5
17C
100
AcDbEntity
  8
SUWP_L_0
100
AcDbVertex
100
AcDb2dVertex
 10
7569055.59181868006
 20
5714727.43662325013
  0
VERTEX
  5
17D
100
AcDbEntity
  8
SUWP_L_0
100
AcDbVertex
100
AcDb2dVertex
 10
7569059.66459001042
 20
5714774.43545971997
  0
SEQEND
  5
17E
100
AcDbEntity
  8
SUWP_L_0
  0
POLYLINE
  5
17F
100
AcDbEntity
  8
SUWP_L_0
  6
CONTINUOUS
420
255
370
18
100
AcDb2dPolyline
 66
1
 70
128
  0
VERTEX
  5
180
100
AcDbEntity
  8
SUWP_L_0
100
AcDbVertex
100
AcDb2dVertex
 10
7569059.66459001042
 20
5714774.43545971997
  0
VERTEX
  5
181
100
AcDbEntity
  8
SUWP_L_0
100
AcDbVertex
100
AcDb2dVertex
 10
7569062.17404889036
 20
5714799.54058596026
  0
SEQEND
  5
182
100
AcDbEntity
  8
SUWP_L_0
  0
POLYLINE
  5
183
100
AcDbEntity
  8
SUWP_L_0
  6
CONTINUOUS
420
255
370
18
100
AcDb2dPolyline
 66
1
 70
128
  0
VERTEX
  5
184
100
AcDbEntity
  8
SUWP_L_0
100
AcDbVertex
100
AcDb2dVertex
 10
7569062.17404889036
 20
5714799.54058596026
  0
VERTEX
  5
185
100
AcDbEntity
  8
SUWP_L_0
100
AcDbVertex
100
AcDb2dVertex
 10
7569065.17085308023
 20
5714835.00715805963
  0
SEQEND
  5
186
100
AcDbEntity
  8
SUWP_L_0
  0
POLYLINE
  5
187
100
AcDbEntity
  8
SUWP_L_0
  6
CONTINUOUS
420
255
370
18
100
AcDb2dPolyline
 66
1
 70
128
  0
VERTEX
  5
188
100
AcDbEntity
  8
SUWP_L_0
100
AcDbVertex
100
AcDb2dVertex
 10
7569065.17085308023
 20
5714835.00715805963
  0
VERTEX
  5
189
100
AcDbEntity
  8
SUWP_L_0
100
AcDbVertex
100
AcDb2dVertex
 10
7569068.02720240969
 20
5714870.83358701039
  0
SEQEND
  5
18A
100
AcDbEntity
  8
SUWP_L_0
  0
POLYLINE
  5
18B
100
AcDbEntity
  8
SUWP_L_0
  6
CONTINUOUS
420
255
370
18
100
AcDb2dPolyline
 66
1
 70
128
  0
VERTEX
  5
18C
100
AcDbEntity
  8
SUWP_L_0
100
AcDbVertex
100
AcDb2dVertex
 10
7569068.02720240969
 20
5714870.83358701039
  0
VERTEX
  5
18D
100
AcDbEntity
  8
SUWP_L_0
100
AcDbVertex
100
AcDb2dVertex
 10
7569070.2422460299
 20
5714891.357975021
  0
SEQEND
  5
18E
100
AcDbEntity
  8
SUWP_L_0
  0
POLYLINE
  5
18F
100
AcDbEntity
  8
SUWP_L_0
  6
CONTINUOUS
420
255
370
18
100
AcDb2dPolyline
 66
1
 70
128
  0
VERTEX
  5
190
100
AcDbEntity
  8
SUWP_L_0
100
AcDbVertex
100
AcDb2dVertex
 10
7569070.2422460299
 20
5714891.357975021
  0
VERTEX
  5
191
100
AcDbEntity
  8
SUWP_L_0
100
AcDbVertex
100
AcDb2dVertex
 10
7569070.95046836976
 20
5714901.01963259
  0
SEQEND
  5
192
100
AcDbEntity
  8
SUWP_L_0
  0
POLYLINE
  5
193
100
AcDbEntity
  8
SUWP_L_0
  6
CONTINUOUS
420
255
370
18
100
AcDb2dPolyline
 66
1
 70
128
  0
VERTEX
  5
194
100
AcDbEntity
  8
SUWP_L_0
100
AcDbVertex
100
AcDb2dVertex
 10
7569070.95046836976
 20
5714901.01963259
  0
VERTEX
  5
195
100
AcDbEntity
  8
SUWP_L_0
100
AcDbVertex
100
AcDb2dVertex
 10
7569073.31895427872
 20
5714935.06531762984
  0
SEQEND
  5
196
100
AcDbEntity
  8
SUWP_L_0
  0
POLYLINE
  5
197
100
AcDbEntity
  8
SUWP_L_0
  6
CONTINUOUS
420
255
370
18
100
AcDb2dPolyline
 66
1
 70
128
  0
VERTEX
  5
198
100
AcDbEntity
  8
SUWP_L_0
100
AcDbVertex
100
AcDb2dVertex
 10
7569051.36039111018
 20
5714679.32749924995
  0
VERTEX
  5
199
100
AcDbEntity
  8
SUWP_L_0
100
AcDbVertex
100
AcDb2dVertex
 10
7569055.59181868006
 20
5714727.43662325013
  0
SEQEND
  5
19A
100
AcDbEntity
  8
SUWP_L_0
  0
POLYLINE
  5
19B
100
AcDbEntity
  8
SUWP_L_0
  6
CONTINUOUS
420
255
370
18
100
AcDb2dPolyline
 66
1
 70
128
  0
VERTEX
  5
19C
100
AcDbEntity
  8
SUWP_L_0
100
AcDbVertex
100
AcDb2dVertex
 10
7569055.59181868006
 20
5714727.43662325013
  0
VERTEX
  5
19D
100
AcDbEntity
  8
SUWP_L_0
100
AcDbVertex
100
AcDb2dVertex
 10
7569059.66459001042
 20
5714774.43545971997
  0
SEQEND
  5
19E
100
AcDbEntity
  8
SUWP_L_0
  0
POLYLINE
  5
19F
100
AcDbEntity
  8
SUWP_L_0
  6
CONTINUOUS
420
255
370
18
100
AcDb2dPolyline
 66
1
 70
128
  0
VERTEX
  5
1A0
100
AcDbEntity
  8
SUWP_L_0
100
AcDbVertex
100
AcDb2dVertex
 10
7569059.66459001042
 20
5714774.43545971997
  0
VERTEX
  5
1A1
100
AcDbEntity
  8
SUWP_L_0
100
AcDbVertex
100
AcDb2dVertex
 10
7569062.17404889036
 20
5714799.54058596026
  0
SEQEND
  5
1A2
100
AcDbEntity
  8
SUWP_L_0
  0
POLYLINE
  5
1A3
100
AcDbEntity
  8
SUWP_L_0
  6
CONTINUOUS
420
255
370
18
100
AcDb2dPolyline
 66
1
 70
128
  0
VERTEX
  5
1A4
100
AcDbEntity
  8
SUWP_L_0
100
AcDbVertex
100
AcDb2dVertex
 10
7569062.17404889036
 20
5714799.54058596026
  0
VERTEX
  5
1A5
100
AcDbEntity
  8
SUWP_L_0
100
AcDbVertex
100
AcDb2dVertex
 10
7569065.17085308023
 20
5714835.00715805963
  0
SEQEND
  5
1A6
100
AcDbEntity
  8
SUWP_L_0
  0
POLYLINE
  5
1A7
100
AcDbEntity
  8
SUWP_L_0
  6
CONTINUOUS
420
255
370
18
100
AcDb2dPolyline
 66
1
 70
128
  0
VERTEX
  5
1A8
100
AcDbEntity
  8
SUWP_L_0
100
AcDbVertex
100
AcDb2dVertex
 10
7569065.17085308023
 20
5714835.00715805963
  0
VERTEX
  5
1A9
100
AcDbEntity
  8
SUWP_L_0
100
AcDbVertex
100
AcDb2dVertex
 10
7569068.02720240969
 20
5714870.83358701039
  0
SEQEND
  5
1AA
100
AcDbEntity
  8
SUWP_L_0
  0
POLYLINE
  5
1AB
100
AcDbEntity
  8
SUWP_L_0
  6
CONTINUOUS
420
255
370
18
100
AcDb2dPolyline
 66
1
 70
128
  0
VERTEX
  5
1AC
100
AcDbEntity
  8
SUWP_L_0
100
AcDbVertex
100
AcDb2dVertex
 10
7569068.02720240969
 20
5714870.83358701039
  0
VERTEX
  5
1AD
100
AcDbEntity
  8
SUWP_L_0
100
AcDbVertex
100
AcDb2dVertex
 10
7569070.2422460299
 20
5714891.357975021
  0
SEQEND
  5
1AE
100
AcDbEntity
  8
SUWP_L_0
  0
POLYLINE
  5
1AF
100
AcDbEntity
  8
SUWP_L_0
  6
CONTINUOUS
420
255
370
18
100
AcDb2dPolyline
 66
1
 70
128
  0
VERTEX
  5
1B0
100
AcDbEntity
  8
SUWP_L_0
100
AcDbVertex
100
AcDb2dVertex
 10
7569070.2422460299
 20
5714891.357975021
  0
VERTEX
  5
1B1
100
AcDbEntity
  8
SUWP_L_0
100
AcDbVertex
100
AcDb2dVertex
 10
7569070.95046836976
 20
5714901.01963259
  0
SEQEND
  5
1B2
100
AcDbEntity
  8
SUWP_L_0
  0
POLYLINE
  5
1B3
100
AcDbEntity
  8
SUWP_L_0
  6
CONTINUOUS
420
255
370
18
100
AcDb2dPolyline
 66
1
 70
128
  0
VERTEX
  5
1B4
100
AcDbEntity
  8
SUWP_L_0
100
AcDbVertex
100
AcDb2dVertex
 10
7569070.95046836976
 20
5714901.01963259
  0
VERTEX
  5
1B5
100
AcDbEntity
  8
SUWP_L_0
100
AcDbVertex
100
AcDb2dVertex
 10
7569073.31895427872
 20
5714935.06531762984
  0
SEQEND
  5
1B6
100
AcDbEntity
  8
SUWP_L_0
  0
POLYLINE
  5
1B7
100
AcDbEntity
  8
_Gaz
  6
CONTINUOUS
370
13
100
AcDb2dPolyline
 66
1
 70
128
  0
VERTEX
  5
1B8
100
AcDbEntity
  8
_Gaz
100
AcDbVertex
100
AcDb2dVertex
 10
7569029.27040953655
 20
5714866.63568232115
  0
VERTEX
  5
1B9
100
AcDbEntity
  8
_Gaz
100
AcDbVertex
100
AcDb2dVertex
 10
7569029.36039423943
 20
5714867.64549177419
  0
VERTEX
  5
1BA
100
AcDbEntity
  8
_Gaz
100
AcDbVertex
100
AcDb2dVertex
 10
7569054.42783571035
 20
5714865.43150565773
  0
SEQEND
  5
1BB
100
AcDbEntity
  8
_Gaz
  0
POLYLINE
  5
1BC
100
AcDbEntity
  8
_Gaz
  6
CONTINUOUS
370
35
100
AcDb2dPolyline
 66
1
 70
128
  0
VERTEX
  5
1BD
100
AcDbEntity
  8
_Gaz
100
AcDbVertex
100
AcDb2dVertex
 10
7569026.04072329402
 20
5714871.92666685954
  0
VERTEX
  5
1BE
100
AcDbEntity
  8
_Gaz
100
AcDbVertex
100
AcDb2dVertex
 10
7569019.79320190661
 20
5714872.46788404137
  0
VERTEX
  5
1BF
100
AcDbEntity
  8
_Gaz
100
AcDbVertex
100
AcDb2dVertex
 10
7569019.96916034073
 20
5714874.45988013688
  0
SEQEND
  5
1C0
100
AcDbEntity
  8
_Gaz
  0
POLYLINE
  5
1C1
100
AcDbEntity
  8
_Gaz
  6
CONTINUOUS
370
35
100
AcDb2dPolyline
 66
1
 70
128
  0
VERTEX
  5
1C2
100
AcDbEntity
  8
_Gaz
100
AcDbVertex
100
AcDb2dVertex
 10
7569054.61877200194
 20
5714868.55069964845
  0
VERTEX
  5
1C3
100
AcDbEntity
  8
_Gaz
100
AcDbVertex
100
AcDb2dVertex
 10
7569053.22864445392
 20
5714869.52540131845
  0
SEQEND
  5
1C4
100
AcDbEntity
  8
_Gaz
  0
POLYLINE
  5
1C5
100
AcDbEntity
  8
_Gaz
  6
CONTINUOUS
370
35
100
AcDb2dPolyline
 66
1
 70
128
  0
VERTEX
  5
1C6
100
AcDbEntity
  8
_Gaz
100
AcDbVertex
100
AcDb2dVertex
 10
7569053.22864445392
 20
5714869.52540131845
  0
VERTEX
  5
1C7
100
AcDbEntity
  8
_Gaz
100
AcDbVertex
100
AcDb2dVertex
 10
7569026.04072329402
 20
5714871.92666685954
  0
SEQEND
  5
1C8
100
AcDbEntity
  8
_Gaz
  0
POLYLINE
  5
1C9
100
AcDbEntity
  8
_Gaz
  6
CONTINUOUS
370
35
100
AcDb2dPolyline
 66
1
 70
128
  0
VERTEX
  5
1CA
100
AcDbEntity
  8
_Gaz
100
AcDbVertex
100
AcDb2dVertex
 10
7569026.04072329402
 20
5714871.92666685954
  0
VERTEX
  5
1CB
100
AcDbEntity
  8
_Gaz
100
AcDbVertex
100
AcDb2dVertex
 10
7569026.36616920959
 20
5714875.61216581985
  0
SEQEND
  5
1CC
100
AcDbEntity
  8
_Gaz
  0
POLYLINE
  5
1CD
100
AcDbEntity
  8
_Gaz
  6
CONTINUOUS
370
35
100
AcDb2dPolyline
 66
1
 70
128
  0
VERTEX
  5
1CE
100
AcDbEntity
  8
_Gaz
100
AcDbVertex
100
AcDb2dVertex
 10
7569026.36616920959
 20
5714875.61216581985
  0
VERTEX
  5
1CF
100
AcDbEntity
  8
_Gaz
100
AcDbVertex
100
AcDb2dVertex
 10
7569020.36649374291
 20
5714876.14195203409
  0
SEQEND
  5
1D0
100
AcDbEntity
  8
_Gaz
  0
POLYLINE
  5
1D1
100
AcDbEntity
  8
_Gaz
  6
CONTINUOUS
370
35
100
AcDb2dPolyline
 66
1
 70
128
  0
VERTEX
  5
1D2
100
AcDbEntity
  8
_Gaz
100
AcDbVertex
100
AcDb2dVertex
 10
7569035.75364450924
 20
5714833.3980141338
  0
VERTEX
  5
1D3
100
AcDbEntity
  8
_Gaz
100
AcDbVertex
100
AcDb2dVertex
 10
7569036.68721111119
 20
5714833.76162008569
  0
VERTEX
  5
1D4
100
AcDbEntity
  8
_Gaz
100
AcDbVertex
100
AcDb2dVertex
 10
7569051.52444032114
 20
5714832.45170760155
  0
SEQEND
  5
1D5
100
AcDbEntity
  8
_Gaz
  0
POLYLINE
  5
1D6
100
AcDbEntity
  8
_Gaz
  6
CONTINUOUS
370
35
100
AcDb2dPolyline
 66
1
 70
128
  0
VERTEX
  5
1D7
100
AcDbEntity
  8
_Gaz
100
AcDbVertex
100
AcDb2dVertex
 10
7569029.27040953655
 20
5714866.63568232115
  0
VERTEX
  5
1D8
100
AcDbEntity
  8
_Gaz
100
AcDbVertex
100
AcDb2dVertex
 10
7569029.36039423943
 20
5714867.64549177419
  0
VERTEX
  5
1D9
100
AcDbEntity
  8
_Gaz
100
AcDbVertex
100
AcDb2dVertex
 10
7569054.12392810173
 20
5714865.45835064445
  0
SEQEND
  5
1DA
100
AcDbEntity
  8
_Gaz
  0
POLYLINE
  5
1DB
100
AcDbEntity
  8
_Gaz
  6
CONTINUOUS
370
13
100
AcDb2dPolyline
 66
1
 70
129
  0
VERTEX
  5
1DC
100
AcDbEntity
  8
_Gaz
100
AcDbVertex
100
AcDb2dVertex
 10
7569054.41043751966
 20
5714865.23721424956
  0
VERTEX
  5
1DD
100
AcDbEntity
  8
_Gaz
100
AcDbVertex
100
AcDb2dVertex
 10
7569054.46224369295
 20
5714865.83497350197
  0
VERTEX
  5
1DE
100
AcDbEntity
  8
_Gaz
100
AcDbVertex
100
AcDb2dVertex
 10
7569054.76112331822
 20
5714865.80907041579
  0
VERTEX
  5
1DF
100
AcDbEntity
  8
_Gaz
100
AcDbVertex
100
AcDb2dVertex
 10
7569054.70931714401
 20
5714865.21131116338
  0
SEQEND
  5
1E0
100
AcDbEntity
  8
_Gaz
  0
POLYLINE
  5
1E1
100
AcDbEntity
  8
_Gaz
  6
CONTINUOUS
370
35
100
AcDb2dPolyline
 66
1
 70
129
  0
VERTEX
  5
1E2
100
AcDbEntity
  8
_Gaz
100
AcDbVertex
100
AcDb2dVertex
 10
7569054.59286891483
 20
5714868.25182002317
  0
VERTEX
  5
1E3
100
AcDbEntity
  8
_Gaz
100
AcDbVertex
100
AcDb2dVertex
 10
7569054.64467508812
 20
5714868.84957927465
  0
VERTEX
  5
1E4
100
AcDbEntity
  8
_Gaz
100
AcDbVertex
100
AcDb2dVertex
 10
7569054.94355471339
 20
5714868.82367618755
  0
VERTEX
  5
1E5
100
AcDbEntity
  8
_Gaz
100
AcDbVertex
100
AcDb2dVertex
 10
7569054.89174853917
 20
5714868.22591693606
  0
SEQEND
  5
1E6
100
AcDbEntity
  8
_Gaz
  0
HATCH
  5
1E7
100
AcDbEntity
  8
_Gaz
  6
CONTINUOUS
 62
256
370
35
100
AcDbHatch
 10
0.0
 20
0.0
 30
0.0
210
-0.0
220
-0.0
230
1.0
  2
SOLID
 70
1
 71
1
 91
1
 92
3
 72
0
 73
1
 93
8
 10
7569054.89355563838
 20
5714868.24031242076
 10
7569054.59467601404
 20
5714868.2662155088
 10
7569054.59467601404
 20
5714868.26621550974
 10
7569054.64648218732
 20
5714868.86397476029
 10
7569054.64648218732
 20
5714868.86397476122
 10
7569054.9453618126
 20
5714868.83807167411
 10
7569054.9453618126
 20
5714868.83807167318
 10
7569054.89355563838
 20
5714868.24031242169
 97
0
 75
0
 76
1
 98
0
  0
POLYLINE
  5
1E8
100
AcDbEntity
  8
_Gaz
  6
CONTINUOUS
370
35
100
AcDb2dPolyline
 66
1
 70
129
  0
VERTEX
  5
1E9
100
AcDbEntity
  8
_Gaz
100
AcDbVertex
100
AcDb2dVertex
 10
7569054.89355563838
 20
5714868.24031242076
  0
VERTEX
  5
1EA
100
AcDbEntity
  8
_Gaz
100
AcDbVertex
100
AcDb2dVertex
 10
7569054.59467601404
 20
5714868.2662155088
  0
VERTEX
  5
1EB
100
AcDbEntity
  8
_Gaz
100
AcDbVertex
100
AcDb2dVertex
 10
7569054.59467601404
 20
5714868.26621550974
  0
VERTEX
  5
1EC
100
AcDbEntity
  8
_Gaz
100
AcDbVertex
100
AcDb2dVertex
 10
7569054.64648218732
 20
5714868.86397476029
  0
VERTEX
  5
1ED
100
AcDbEntity
  8
_Gaz
100
AcDbVertex
100
AcDb2dVertex
 10
7569054.64648218732
 20
5714868.86397476122
  0
VERTEX
  5
1EE
100
AcDbEntity
  8
_Gaz
100
AcDbVertex
100
AcDb2dVertex
 10
7569054.9453618126
 20
5714868.83807167411
  0
VERTEX
  5
1EF
100
AcDbEntity
  8
_Gaz
100
AcDbVertex
100
AcDb2dVertex
 10
7569054.9453618126
 20
5714868.83807167318
  0
VERTEX
  5
1F0
100
AcDbEntity
  8
_Gaz
100
AcDbVertex
100
AcDb2dVertex
 10
7569054.89355563838
 20
5714868.24031242169
  0
SEQEND
  5
1F1
100
AcDbEntity
  8
_Gaz
  0
POLYLINE
  5
1F2
100
AcDbEntity
  8
_Gaz
  6
CONTINUOUS
370
35
100
AcDb2dPolyline
 66
1
 70
129
  0
VERTEX
  5
1F3
100
AcDbEntity
  8
_Gaz
100
AcDbVertex
100
AcDb2dVertex
 10
7569051.16240216233
 20
5714832.1065360168
  0
VERTEX
  5
1F4
100
AcDbEntity
  8
_Gaz
100
AcDbVertex
100
AcDb2dVertex
 10
7569051.21456042212
 20
5714832.70426464919
  0
VERTEX
  5
1F5
100
AcDbEntity
  8
_Gaz
100
AcDbVertex
100
AcDb2dVertex
 10
7569051.51342473738
 20
5714832.67818551976
  0
VERTEX
  5
1F6
100
AcDbEntity
  8
_Gaz
100
AcDbVertex
100
AcDb2dVertex
 10
7569051.46126647759
 20
5714832.08045688644
  0
SEQEND
  5
1F7
100
AcDbEntity
  8
_Gaz
  0
HATCH
  5
1F8
100
AcDbEntity
  8
_Gaz
  6
CONTINUOUS
 62
256
370
35
100
AcDbHatch
 10
0.0
 20
0.0
 30
0.0
210
-0.0
220
-0.0
230
1.0
  2
SOLID
 70
1
 71
1
 91
1
 92
3
 72
0
 73
1
 93
7
 10
7569051.16240216233
 20
5714832.1065360168
 10
7569051.16240216233
 20
5714832.10653601773
 10
7569051.21456042212
 20
5714832.70426464919
 10
7569051.21456042212
 20
5714832.70426465012
 10
7569051.51342473738
 20
5714832.67818551976
 10
7569051.51342473738
 20
5714832.67818551883
 10
7569051.46126647759
 20
5714832.08045688644
 97
0
 75
0
 76
1
 98
0
  0
POLYLINE
  5
1F9
100
AcDbEntity
  8
_Gaz
  6
CONTINUOUS
370
35
100
AcDb2dPolyline
 66
1
 70
129
  0
VERTEX
  5
1FA
100
AcDbEntity
  8
_Gaz
100
AcDbVertex
100
AcDb2dVertex
 10
7569051.16240216233
 20
5714832.1065360168
  0
VERTEX
  5
1FB
100
AcDbEntity
  8
_Gaz
100
AcDbVertex
100
AcDb2dVertex
 10
7569051.16240216233
 20
5714832.10653601773
  0
VERTEX
  5
1FC
100
AcDbEntity
  8
_Gaz
100
AcDbVertex
100
AcDb2dVertex
 10
7569051.21456042212
 20
5714832.70426464919
  0
VERTEX
  5
1FD
100
AcDbEntity
  8
_Gaz
100
AcDbVertex
100
AcDb2dVertex
 10
7569051.21456042212
 20
5714832.70426465012
  0
VERTEX
  5
1FE
100
AcDbEntity
  8
_Gaz
100
AcDbVertex
100
AcDb2dVertex
 10
7569051.51342473738
 20
5714832.67818551976
  0
VERTEX
  5
1FF
100
AcDbEntity
  8
_Gaz
100
AcDbVertex
100
AcDb2dVertex
 10
7569051.51342473738
 20
5714832.67818551883
  0
VERTEX
  5
200
100
AcDbEntity
  8
_Gaz
100
AcDbVertex
100
AcDb2dVertex
 10
7569051.46126647759
 20
5714832.08045688644
  0
SEQEND
  5
201
100
AcDbEntity
  8
_Gaz
  0
POLYLINE
  5
202
100
AcDbEntity
  8
_Gaz
  6
CONTINUOUS
370
35
100
AcDb2dPolyline
 66
1
 70
129
  0
VERTEX
  5
203
100
AcDbEntity
  8
_Gaz
100
AcDbVertex
100
AcDb2dVertex
 10
7569054.10652991105
 20
5714865.26405923627
  0
VERTEX
  5
204
100
AcDbEntity
  8
_Gaz
100
AcDbVertex
100
AcDb2dVertex
 10
7569054.15833608434
 20
5714865.86181848776
  0
VERTEX
  5
205
100
AcDbEntity
  8
_Gaz
100
AcDbVertex
100
AcDb2dVertex
 10
7569054.45721570961
 20
5714865.83591540158
  0
VERTEX
  5
206
100
AcDbEntity
  8
_Gaz
100
AcDbVertex
100
AcDb2dVertex
 10
7569054.40540953539
 20
5714865.23815614916
  0
SEQEND
  5
207
100
AcDbEntity
  8
_Gaz
  0
HATCH
  5
208
100
AcDbEntity
  8
_Gaz
  6
CONTINUOUS
 62
256
370
35
100
AcDbHatch
 10
0.0
 20
0.0
 30
0.0
210
-0.0
220
-0.0
230
1.0
  2
SOLID
 70
1
 71
1
 91
1
 92
3
 72
0
 73
1
 93
8
 10
7569054.4072166346
 20
5714865.25255163386
 10
7569054.10833701026
 20
5714865.27845472191
 10
7569054.10833701026
 20
5714865.27845472284
 10
7569054.16014318354
 20
5714865.87621397339
 10
7569054.16014318354
 20
5714865.87621397432
 10
7569054.45902280882
 20
5714865.85031088721
 10
7569054.45902280882
 20
5714865.85031088628
 10
7569054.4072166346
 20
5714865.2525516348
 97
0
 75
0
 76
1
 98
0
  0
POLYLINE
  5
209
100
AcDbEntity
  8
_Gaz
  6
CONTINUOUS
370
35
100
AcDb2dPolyline
 66
1
 70
129
  0
VERTEX
  5
20A
100
AcDbEntity
  8
_Gaz
100
AcDbVertex
100
AcDb2dVertex
 10
7569054.4072166346
 20
5714865.25255163386
  0
VERTEX
  5
20B
100
AcDbEntity
  8
_Gaz
100
AcDbVertex
100
AcDb2dVertex
 10
7569054.10833701026
 20
5714865.27845472191
  0
VERTEX
  5
20C
100
AcDbEntity
  8
_Gaz
100
AcDbVertex
100
AcDb2dVertex
 10
7569054.10833701026
 20
5714865.27845472284
  0
VERTEX
  5
20D
100
AcDbEntity
  8
_Gaz
100
AcDbVertex
100
AcDb2dVertex
 10
7569054.16014318354
 20
5714865.87621397339
  0
VERTEX
  5
20E
100
AcDbEntity
  8
_Gaz
100
AcDbVertex
100
AcDb2dVertex
 10
7569054.16014318354
 20
5714865.87621397432
  0
VERTEX
  5
20F
100
AcDbEntity
  8
_Gaz
100
AcDbVertex
100
AcDb2dVertex
 10
7569054.45902280882
 20
5714865.85031088721
  0
VERTEX
  5
210
100
AcDbEntity
  8
_Gaz
100
AcDbVertex
100
AcDb2dVertex
 10
7569054.45902280882
 20
5714865.85031088628
  0
VERTEX
  5
211
100
AcDbEntity
  8
_Gaz
100
AcDbVertex
100
AcDb2dVertex
 10
7569054.4072166346
 20
5714865.2525516348
  0
SEQEND
  5
212
100
AcDbEntity
  8
_Gaz
  0
POLYLINE
  5
213
100
AcDbEntity
  8
_Kanalizacja
  6
CONTINUOUS
370
35
100
AcDb2dPolyline
 66
1
 70
128
  0
VERTEX
  5
214
100
AcDbEntity
  8
_Kanalizacja
100
AcDbVertex
100
AcDb2dVertex
 10
7569048.18064563908
 20
5714863.5114856679
  0
VERTEX
  5
215
100
AcDbEntity
  8
_Kanalizacja
100
AcDbVertex
100
AcDb2dVertex
 10
7569048.18064563908
 20
5714863.5114856679
  0
SEQEND
  5
216
100
AcDbEntity
  8
_Kanalizacja
  0
POLYLINE
  5
217
100
AcDbEntity
  8
_Kanalizacja
  6
CONTINUOUS
370
35
100
AcDb2dPolyline
 66
1
 70
128
  0
VERTEX
  5
218
100
AcDbEntity
  8
_Kanalizacja
100
AcDbVertex
100
AcDb2dVertex
 10
7569025.63417458441
 20
5714895.21741463989
  0
VERTEX
  5
219
100
AcDbEntity
  8
_Kanalizacja
100
AcDbVertex
100
AcDb2dVertex
 10
7569025.63417458441
 20
5714895.21741463989
  0
SEQEND
  5
21A
100
AcDbEntity
  8
_Kanalizacja
  0
POLYLINE
  5
21B
100
AcDbEntity
  8
_Kanalizacja
  6
CONTINUOUS
370
35
100
AcDb2dPolyline
 66
1
 70
128
  0
VERTEX
  5
21C
100
AcDbEntity
  8
_Kanalizacja
100
AcDbVertex
100
AcDb2dVertex
 10
7569045.81994331256
 20
5714836.84067654889
  0
VERTEX
  5
21D
100
AcDbEntity
  8
_Kanalizacja
100
AcDbVertex
100
AcDb2dVertex
 10
7569045.81994331256
 20
5714836.84067654889
  0
SEQEND
  5
21E
100
AcDbEntity
  8
_Kanalizacja
  0
POLYLINE
  5
21F
100
AcDbEntity
  8
_Kanalizacja
  6
CONTINUOUS
370
35
100
AcDb2dPolyline
 66
1
 70
128
  0
VERTEX
  5
220
100
AcDbEntity
  8
_Kanalizacja
100
AcDbVertex
100
AcDb2dVertex
 10
7569048.18064563908
 20
5714863.5114856679
  0
VERTEX
  5
221
100
AcDbEntity
  8
_Kanalizacja
100
AcDbVertex
100
AcDb2dVertex
 10
7569048.18064563908
 20
5714863.5114856679
  0
SEQEND
  5
222
100
AcDbEntity
  8
_Kanalizacja
  0
CIRCLE
  5
223
100
AcDbEntity
  8
_Kanalizacja
  6
ByLayer
370
35
100
AcDbCircle
 10
7569046.75042423513
 20
5714857.11895639542
 40
0.171980942599
  0
CIRCLE
  5
224
100
AcDbEntity
  8
_Kanalizacja
  6
ByLayer
370
35
100
AcDbCircle
 10
7569024.56049366388
 20
5714880.6553814644
 40
0.171980942599
  0
CIRCLE
  5
225
100
AcDbEntity
  8
_Kanalizacja
  6
ByLayer
370
35
100
AcDbCircle
 10
7569044.74310893286
 20
5714834.52368795685
 40
0.171980942599
  0
CIRCLE
  5
226
100
AcDbEntity
  8
_Kanalizacja
  6
ByLayer
370
35
100
AcDbCircle
 10
7569046.75042423513
 20
5714857.11895639542
 40
0.171980942599
  0
POLYLINE
  5
227
100
AcDbEntity
  8
_Kanalizacja
  6
CONTINUOUS
370
13
100
AcDb2dPolyline
 66
1
 70
128
  0
VERTEX
  5
228
100
AcDbEntity
  8
_Kanalizacja
100
AcDbVertex
100
AcDb2dVertex
 10
7569047.20094286744
 20
5714862.22483421024
  0
VERTEX
  5
229
100
AcDbEntity
  8
_Kanalizacja
100
AcDbVertex
100
AcDb2dVertex
 10
7569046.76554029528
 20
5714857.290271746
  0
SEQEND
  5
22A
100
AcDbEntity
  8
_Kanalizacja
  0
POLYLINE
  5
22B
100
AcDbEntity
  8
_Kanalizacja
  6
CONTINUOUS
370
13
100
AcDb2dPolyline
 66
1
 70
128
  0
VERTEX
  5
22C
100
AcDbEntity
  8
_Kanalizacja
100
AcDbVertex
100
AcDb2dVertex
 10
7569046.57911017165
 20
5714857.13408703171
  0
VERTEX
  5
22D
100
AcDbEntity
  8
_Kanalizacja
100
AcDbVertex
100
AcDb2dVertex
 10
7569037.87764676288
 20
5714857.90260935295
  0
SEQEND
  5
22E
100
AcDbEntity
  8
_Kanalizacja
  0
POLYLINE
  5
22F
100
AcDbEntity
  8
_Kanalizacja
  6
CONTINUOUS
370
13
100
AcDb2dPolyline
 66
1
 70
128
  0
VERTEX
  5
230
100
AcDbEntity
  8
_Kanalizacja
100
AcDbVertex
100
AcDb2dVertex
 10
7569048.44906182587
 20
5714863.27165757213
  0
VERTEX
  5
231
100
AcDbEntity
  8
_Kanalizacja
100
AcDbVertex
100
AcDb2dVertex
 10
7569054.55807851255
 20
5714862.75266074855
  0
SEQEND
  5
232
100
AcDbEntity
  8
_Kanalizacja
  0
POLYLINE
  5
233
100
AcDbEntity
  8
_Kanalizacja
  6
CONTINUOUS
370
35
100
AcDb2dPolyline
 66
1
 70
128
  0
VERTEX
  5
234
100
AcDbEntity
  8
_Kanalizacja
100
AcDbVertex
100
AcDb2dVertex
 10
7569025.66752143484
 20
5714893.19404882006
  0
VERTEX
  5
235
100
AcDbEntity
  8
_Kanalizacja
100
AcDbVertex
100
AcDb2dVertex
 10
7569024.57545479946
 20
5714880.82671041414
  0
SEQEND
  5
236
100
AcDbEntity
  8
_Kanalizacja
  0
POLYLINE
  5
237
100
AcDbEntity
  8
_Kanalizacja
  6
CONTINUOUS
370
35
100
AcDb2dPolyline
 66
1
 70
128
  0
VERTEX
  5
238
100
AcDbEntity
  8
_Kanalizacja
100
AcDbVertex
100
AcDb2dVertex
 10
7569024.38913990743
 20
5714880.67005574703
  0
VERTEX
  5
239
100
AcDbEntity
  8
_Kanalizacja
100
AcDbVertex
100
AcDb2dVertex
 10
7569020.79372249544
 20
5714880.97795778327
  0
SEQEND
  5
23A
100
AcDbEntity
  8
_Kanalizacja
  0
POLYLINE
  5
23B
100
AcDbEntity
  8
_Kanalizacja
  6
L_0_05
370
18
100
AcDb2dPolyline
 66
1
 70
128
  0
VERTEX
  5
23C
100
AcDbEntity
  8
_Kanalizacja
100
AcDbVertex
100
AcDb2dVertex
 10
7569046.08383354731
 20
5714836.60031339154
  0
VERTEX
  5
23D
100
AcDbEntity
  8
_Kanalizacja
100
AcDbVertex
100
AcDb2dVertex
 10
7569051.83537696954
 20
5714836.11168602016
  0
SEQEND
  5
23E
100
AcDbEntity
  8
_Kanalizacja
  0
POLYLINE
  5
23F
100
AcDbEntity
  8
_Kanalizacja
  6
L_0_05
370
18
100
AcDb2dPolyline
 66
1
 70
128
  0
VERTEX
  5
240
100
AcDbEntity
  8
_Kanalizacja
100
AcDbVertex
100
AcDb2dVertex
 10
7569051.75475619175
 20
5714836.22903044056
  0
VERTEX
  5
241
100
AcDbEntity
  8
_Kanalizacja
100
AcDbVertex
100
AcDb2dVertex
 10
7569051.72619680595
 20
5714836.0023403177
  0
SEQEND
  5
242
100
AcDbEntity
  8
_Kanalizacja
  0
POLYLINE
  5
243
100
AcDbEntity
  8
_Kanalizacja
  6
L_0_05
370
18
100
AcDb2dPolyline
 66
1
 70
128
  0
VERTEX
  5
244
100
AcDbEntity
  8
_Kanalizacja
100
AcDbVertex
100
AcDb2dVertex
 10
7569044.57582548074
 20
5714834.53751565889
  0
VERTEX
  5
245
100
AcDbEntity
  8
_Kanalizacja
100
AcDbVertex
100
AcDb2dVertex
 10
7569035.9314290313
 20
5714835.3006906854
  0
SEQEND
  5
246
100
AcDbEntity
  8
_Kanalizacja
  0
POLYLINE
  5
247
100
AcDbEntity
  8
_Kanalizacja
  6
L_0_05
370
18
100
AcDb2dPolyline
 66
1
 70
128
  0
VERTEX
  5
248
100
AcDbEntity
  8
_Kanalizacja
100
AcDbVertex
100
AcDb2dVertex
 10
7569044.74310893286
 20
5714834.69566889945
  0
VERTEX
  5
249
100
AcDbEntity
  8
_Kanalizacja
100
AcDbVertex
100
AcDb2dVertex
 10
7569044.82022351306
 20
5714835.55864582211
  0
SEQEND
  5
24A
100
AcDbEntity
  8
_Kanalizacja
  0
POLYLINE
  5
24B
100
AcDbEntity
  8
_Kanalizacja
  6
L_0_05
370
18
100
AcDb2dPolyline
 66
1
 70
128
  0
VERTEX
  5
24C
100
AcDbEntity
  8
_Kanalizacja
100
AcDbVertex
100
AcDb2dVertex
 10
7569047.20094286744
 20
5714862.22483421024
  0
VERTEX
  5
24D
100
AcDbEntity
  8
_Kanalizacja
100
AcDbVertex
100
AcDb2dVertex
 10
7569046.76554029528
 20
5714857.290271746
  0
SEQEND
  5
24E
100
AcDbEntity
  8
_Kanalizacja
  0
POLYLINE
  5
24F
100
AcDbEntity
  8
_Kanalizacja
  6
L_0_05
370
18
100
AcDb2dPolyline
 66
1
 70
128
  0
VERTEX
  5
250
100
AcDbEntity
  8
_Kanalizacja
100
AcDbVertex
100
AcDb2dVertex
 10
7569046.57911017165
 20
5714857.13408703171
  0
VERTEX
  5
251
100
AcDbEntity
  8
_Kanalizacja
100
AcDbVertex
100
AcDb2dVertex
 10
7569037.87764676288
 20
5714857.90260935295
  0
SEQEND
  5
252
100
AcDbEntity
  8
_Kanalizacja
  0
POLYLINE
  5
253
100
AcDbEntity
  8
_Kanalizacja
  6
L_0_05
370
18
100
AcDb2dPolyline
 66
1
 70
128
  0
VERTEX
  5
254
100
AcDbEntity
  8
_Kanalizacja
100
AcDbVertex
100
AcDb2dVertex
 10
7569048.44906182587
 20
5714863.27165757213
  0
VERTEX
  5
255
100
AcDbEntity
  8
_Kanalizacja
100
AcDbVertex
100
AcDb2dVertex
 10
7569054.2006052481
 20
5714862.78303020075
  0
SEQEND
  5
256
100
AcDbEntity
  8
_Kanalizacja
  0
POLYLINE
  5
257
100
AcDbEntity
  8
_Kanalizacja
  6
L_0_05
370
18
100
AcDb2dPolyline
 66
1
 70
128
  0
VERTEX
  5
258
100
AcDbEntity
  8
_Kanalizacja
100
AcDbVertex
100
AcDb2dVertex
 10
7569054.11998447031
 20
5714862.90037462208
  0
VERTEX
  5
259
100
AcDbEntity
  8
_Kanalizacja
100
AcDbVertex
100
AcDb2dVertex
 10
7569054.09142508544
 20
5714862.6736844983
  0
SEQEND
  5
25A
100
AcDbEntity
  8
_Kanalizacja
  0
POLYLINE
  5
25B
100
AcDbEntity
  8
_Kanalizacja
  6
CONTINUOUS
370
13
100
AcDb2dPolyline
 66
1
 70
129
  0
VERTEX
  5
25C
100
AcDbEntity
  8
_Kanalizacja
100
AcDbVertex
100
AcDb2dVertex
 10
7569046.25240384601
 20
5714864.61497515254
  0
VERTEX
  5
25D
100
AcDbEntity
  8
_Kanalizacja
100
AcDbVertex
100
AcDb2dVertex
 10
7569048.54393220879
 20
5714864.41774999164
  0
VERTEX
  5
25E
100
AcDbEntity
  8
_Kanalizacja
100
AcDbVertex
100
AcDb2dVertex
 10
7569048.34670704696
 20
5714862.12622162979
  0
VERTEX
  5
25F
100
AcDbEntity
  8
_Kanalizacja
100
AcDbVertex
100
AcDb2dVertex
 10
7569046.05517868511
 20
5714862.32344679069
  0
SEQEND
  5
260
100
AcDbEntity
  8
_Kanalizacja
  0
POLYLINE
  5
261
100
AcDbEntity
  8
_Kanalizacja
  6
L_0_05
370
18
100
AcDb2dPolyline
 66
1
 70
129
  0
VERTEX
  5
262
100
AcDbEntity
  8
_Kanalizacja
100
AcDbVertex
100
AcDb2dVertex
 10
7569024.55793283228
 20
5714893.27383311465
  0
VERTEX
  5
263
100
AcDbEntity
  8
_Kanalizacja
100
AcDbVertex
100
AcDb2dVertex
 10
7569024.72288705874
 20
5714895.56791029405
  0
VERTEX
  5
264
100
AcDbEntity
  8
_Kanalizacja
100
AcDbVertex
100
AcDb2dVertex
 10
7569027.01696423814
 20
5714895.40295606665
  0
VERTEX
  5
265
100
AcDbEntity
  8
_Kanalizacja
100
AcDbVertex
100
AcDb2dVertex
 10
7569026.85201001167
 20
5714893.10887888819
  0
SEQEND
  5
266
100
AcDbEntity
  8
_Kanalizacja
  0
POLYLINE
  5
267
100
AcDbEntity
  8
_Kanalizacja
  6
L_0_05
370
18
100
AcDb2dPolyline
 66
1
 70
129
  0
VERTEX
  5
268
100
AcDbEntity
  8
_Kanalizacja
100
AcDbVertex
100
AcDb2dVertex
 10
7569043.89531643875
 20
5714837.95045889169
  0
VERTEX
  5
269
100
AcDbEntity
  8
_Kanalizacja
100
AcDbVertex
100
AcDb2dVertex
 10
7569046.18618832529
 20
5714837.7457493348
  0
VERTEX
  5
26A
100
AcDbEntity
  8
_Kanalizacja
100
AcDbVertex
100
AcDb2dVertex
 10
7569045.9814787684
 20
5714835.4548774492
  0
VERTEX
  5
26B
100
AcDbEntity
  8
_Kanalizacja
100
AcDbVertex
100
AcDb2dVertex
 10
7569043.6906068828
 20
5714835.65958700608
  0
SEQEND
  5
26C
100
AcDbEntity
  8
_Kanalizacja
  0
POLYLINE
  5
26D
100
AcDbEntity
  8
_Kanalizacja
  6
L_0_05
370
18
100
AcDb2dPolyline
 66
1
 70
129
  0
VERTEX
  5
26E
100
AcDbEntity
  8
_Kanalizacja
100
AcDbVertex
100
AcDb2dVertex
 10
7569046.25240384601
 20
5714864.61497515254
  0
VERTEX
  5
26F
100
AcDbEntity
  8
_Kanalizacja
100
AcDbVertex
100
AcDb2dVertex
 10
7569048.54393220879
 20
5714864.41774999164
  0
VERTEX
  5
270
100
AcDbEntity
  8
_Kanalizacja
100
AcDbVertex
100
AcDb2dVertex
 10
7569048.34670704696
 20
5714862.12622162979
  0
VERTEX
  5
271
100
AcDbEntity
  8
_Kanalizacja
100
AcDbVertex
100
AcDb2dVertex
 10
7569046.05517868511
 20
5714862.32344679069
  0
SEQEND
  5
272
100
AcDbEntity
  8
_Kanalizacja
  0
ARC
  5
273
100
AcDbEntity
  8
_Woda
  6
CONTINUOUS
370
13
100
AcDbCircle
 10
7568999.6673136652
 20
5714875.2358364305
 30
0
 40
2.0116201656
100
AcDbArc
 50
69.4383557918
 51
108.2193832198
  0
ARC
  5
274
100
AcDbEntity
  8
_Woda
  6
CONTINUOUS
370
13
100
AcDbCircle
 10
7569001.0803357717
 20
5714879.0027756775
 30
0
 40
2.0116201656
100
AcDbArc
 50
249.4383557918
 51
288.2193832198
  0
ARC
  5
275
100
AcDbEntity
  8
_Woda
  6
CONTINUOUS
370
13
100
AcDbCircle
 10
7569002.3382271156
 20
5714875.1812351337
 30
0
 40
2.0116201656
100
AcDbArc
 50
69.4383557918
 51
108.2193832198
  0
ARC
  5
276
100
AcDbEntity
  8
_Woda
  6
CONTINUOUS
370
13
100
AcDbCircle
 10
7569003.7512492221
 20
5714878.9481743807
 30
0
 40
2.0116201656
100
AcDbArc
 50
249.4383557918
 51
288.2193832198
  0
ARC
  5
277
100
AcDbEntity
  8
_Woda
  6
CONTINUOUS
370
13
100
AcDbCircle
 10
7569005.0091405660
 20
5714875.1266338369
 30
0
 40
2.0116201656
100
AcDbArc
 50
69.4383557918
 51
108.2193832198
  0
ARC
  5
278
100
AcDbEntity
  8
_Woda
  6
CONTINUOUS
370
13
100
AcDbCircle
 10
7569006.1201810250
 20
5714877.7297476707
 30
0
 40
0.8255494109
100
AcDbArc
 50
240.6586067743
 51
301.6235578802
  0
ARC
  5
279
100
AcDbEntity
  8
_Woda
  6
CONTINUOUS
370
13
100
AcDbCircle
 10
7568999.6673136670
 20
5714875.1310019493
 30
0
 40
2.0116201572
100
AcDbArc
 50
69.4383557576
 51
108.2193833532
  0
ARC
  5
27A
100
AcDbEntity
  8
_Woda
  6
CONTINUOUS
370
13
100
AcDbCircle
 10
7569001.0803357726
 20
5714878.8979411786
 30
0
 40
2.0116201573
100
AcDbArc
 50
249.4383556738
 51
288.2193832693
  0
ARC
  5
27B
100
AcDbEntity
  8
_Woda
  6
CONTINUOUS
370
13
100
AcDbCircle
 10
7569002.3382271156
 20
5714875.0764006432
 30
0
 40
2.0116201656
100
AcDbArc
 50
69.4383557918
 51
108.2193832198
  0
ARC
  5
27C
100
AcDbEntity
  8
_Woda
  6
CONTINUOUS
370
13
100
AcDbCircle
 10
7569003.7512492221
 20
5714878.8433398902
 30
0
 40
2.0116201656
100
AcDbArc
 50
249.4383557918
 51
288.2193832198
  0
ARC
  5
27D
100
AcDbEntity
  8
_Woda
  6
CONTINUOUS
370
13
100
AcDbCircle
 10
7569005.0091405660
 20
5714875.0217993464
 30
0
 40
2.0116201656
100
AcDbArc
 50
69.4383557918
 51
108.2193832198
  0
ARC
  5
27E
100
AcDbEntity
  8
_Woda
  6
CONTINUOUS
370
13
100
AcDbCircle
 10
7569006.1201810250
 20
5714877.6249131803
 30
0
 40
0.8255494109
100
AcDbArc
 50
240.6586067743
 51
301.6235578802
  0
CIRCLE
  5
27F
100
AcDbEntity
  8
_Woda
  6
ByLayer
370
35
100
AcDbCircle
 10
7569018.61400543992
 20
5714871.07049987838
 40
0.216000000015
  0
CIRCLE
  5
280
100
AcDbEntity
  8
_Woda
  6
ByLayer
370
35
100
AcDbCircle
 10
7569018.61400543992
 20
5714871.07049987838
 40
0.14400000032
  0
CIRCLE
  5
281
100
AcDbEntity
  8
_Woda
  6
ByLayer
370
35
100
AcDbCircle
 10
7569018.61400543992
 20
5714871.07049987838
 40
0.010296000168
  0
CIRCLE
  5
282
100
AcDbEntity
  8
_Woda
  6
ByLayer
370
35
100
AcDbCircle
 10
7569022.59844412655
 20
5714864.10115368106
 40
0.216000000015
  0
CIRCLE
  5
283
100
AcDbEntity
  8
_Woda
  6
ByLayer
370
35
100
AcDbCircle
 10
7569022.59844412655
 20
5714864.10115368106
 40
0.14400000032
  0
CIRCLE
  5
284
100
AcDbEntity
  8
_Woda
  6
ByLayer
370
35
100
AcDbCircle
 10
7569022.59844412655
 20
5714864.10115368106
 40
0.071999999695
  0
CIRCLE
  5
285
100
AcDbEntity
  8
_Woda
  6
ByLayer
370
35
100
AcDbCircle
 10
7569022.59844412655
 20
5714864.10115368106
 40
0.010296000168
  0
CIRCLE
  5
286
100
AcDbEntity
  8
_Woda
  6
ByLayer
370
35
100
AcDbCircle
 10
7569022.59844412655
 20
5714864.10115368106
 40
0.288000000641
  0
CIRCLE
  5
287
100
AcDbEntity
  8
_Woda
  6
ByLayer
370
35
100
AcDbCircle
 10
7569022.59844412655
 20
5714864.10115368106
 40
0.252000000328
  0
CIRCLE
  5
288
100
AcDbEntity
  8
_Woda
  6
ByLayer
370
35
100
AcDbCircle
 10
7569022.59844412655
 20
5714864.10115368106
 40
0.179999999702
  0
CIRCLE
  5
289
100
AcDbEntity
  8
_Woda
  6
ByLayer
370
35
100
AcDbCircle
 10
7569022.59844412655
 20
5714864.10115368106
 40
0.108476948924
  0
CIRCLE
  5
28A
100
AcDbEntity
  8
_Woda
  6
ByLayer
370
35
100
AcDbCircle
 10
7569022.59844412655
 20
5714864.10115368106
 40
0.041063990444
  0
CIRCLE
  5
28B
100
AcDbEntity
  8
_Woda
  6
ByLayer
370
35
100
AcDbCircle
 10
7569037.94835118577
 20
5714827.53709122911
 40
0.299999999814
  0
POLYLINE
  5
28C
100
AcDbEntity
  8
_Woda
  6
CONTINUOUS
370
35
100
AcDb2dPolyline
 66
1
 70
128
  0
VERTEX
  5
28D
100
AcDbEntity
  8
_Woda
100
AcDbVertex
100
AcDb2dVertex
 10
7569022.23337141145
 20
5714864.1335969409
  0
VERTEX
  5
28E
100
AcDbEntity
  8
_Woda
100
AcDbVertex
100
AcDb2dVertex
 10
7569018.56822342519
 20
5714870.55784176756
  0
VERTEX
  5
28F
100
AcDbEntity
  8
_Woda
100
AcDbVertex
100
AcDb2dVertex
 10
7569018.92814870644
 20
5714874.58821518254
  0
SEQEND
  5
290
100
AcDbEntity
  8
_Woda
  0
POLYLINE
  5
291
100
AcDbEntity
  8
_Woda
  6
CONTINUOUS
370
35
100
AcDb2dPolyline
 66
1
 70
128
  0
VERTEX
  5
292
100
AcDbEntity
  8
_Woda
100
AcDbVertex
100
AcDb2dVertex
 10
7569038.45963769592
 20
5714827.49195203371
  0
VERTEX
  5
293
100
AcDbEntity
  8
_Woda
100
AcDbVertex
100
AcDb2dVertex
 10
7569038.24718882609
 20
5714827.51070819236
  0
SEQEND
  5
294
100
AcDbEntity
  8
_Woda
  0
POLYLINE
  5
295
100
AcDbEntity
  8
_Woda
  6
CONTINUOUS
370
35
100
AcDb2dPolyline
 66
1
 70
128
  0
VERTEX
  5
296
100
AcDbEntity
  8
_Woda
100
AcDbVertex
100
AcDb2dVertex
 10
7569037.64951354545
 20
5714827.56347426493
  0
VERTEX
  5
297
100
AcDbEntity
  8
_Woda
100
AcDbVertex
100
AcDb2dVertex
 10
7569035.26691562589
 20
5714827.77382316068
  0
SEQEND
  5
298
100
AcDbEntity
  8
_Woda
  0
POLYLINE
  5
299
100
AcDbEntity
  8
_Woda
  6
CONTINUOUS
370
35
100
AcDb2dPolyline
 66
1
 70
128
  0
VERTEX
  5
29A
100
AcDbEntity
  8
_Woda
100
AcDbVertex
100
AcDb2dVertex
 10
7569038.45963769686
 20
5714827.49195203371
  0
VERTEX
  5
29B
100
AcDbEntity
  8
_Woda
100
AcDbVertex
100
AcDb2dVertex
 10
7569039.54957089201
 20
5714839.83750095405
  0
VERTEX
  5
29C
100
AcDbEntity
  8
_Woda
100
AcDbVertex
100
AcDb2dVertex
 10
7569065.37419017032
 20
5714837.55756103434
  0
SEQEND
  5
29D
100
AcDbEntity
  8
_Woda
  0
POLYLINE
  5
29E
100
AcDbEntity
  8
_Woda
  6
CONTINUOUS
370
35
100
AcDb2dPolyline
 66
1
 70
128
  0
VERTEX
  5
29F
100
AcDbEntity
  8
_Woda
100
AcDbVertex
100
AcDb2dVertex
 10
7569055.32451810222
 20
5714838.6008164268
  0
VERTEX
  5
2A0
100
AcDbEntity
  8
_Woda
100
AcDbVertex
100
AcDb2dVertex
 10
7569060.40268283244
 20
5714838.15248801745
  0
SEQEND
  5
2A1
100
AcDbEntity
  8
_Woda
  0
POLYLINE
  5
2A2
100
AcDbEntity
  8
_Woda
  6
CONTINUOUS
370
35
100
AcDb2dPolyline
 66
1
 70
128
  0
VERTEX
  5
2A3
100
AcDbEntity
  8
_Woda
100
AcDbVertex
100
AcDb2dVertex
 10
7569055.29718344845
 20
5714838.29119993001
  0
VERTEX
  5
2A4
100
AcDbEntity
  8
_Woda
100
AcDbVertex
100
AcDb2dVertex
 10
7569060.37534817867
 20
5714837.84287152067
  0
SEQEND
  5
2A5
100
AcDbEntity
  8
_Woda
  0
POLYLINE
  5
2A6
100
AcDbEntity
  8
_Woda
  6
CONTINUOUS
370
35
100
AcDb2dPolyline
 66
1
 70
128
  0
VERTEX
  5
2A7
100
AcDbEntity
  8
_Woda
100
AcDbVertex
100
AcDb2dVertex
 10
7569050.73361483309
 20
5714838.85011182819
  0
VERTEX
  5
2A8
100
AcDbEntity
  8
_Woda
100
AcDbVertex
100
AcDb2dVertex
 10
7569050.69072550256
 20
5714838.31042108871
  0
SEQEND
  5
2A9
100
AcDbEntity
  8
_Woda
  0
POLYLINE
  5
2AA
100
AcDbEntity
  8
_Woda
  6
CONTINUOUS
370
35
100
AcDb2dPolyline
 66
1
 70
128
  0
VERTEX
  5
2AB
100
AcDbEntity
  8
_Woda
100
AcDbVertex
100
AcDb2dVertex
 10
7569040.42684220243
 20
5714843.27367918007
  0
VERTEX
  5
2AC
100
AcDbEntity
  8
_Woda
100
AcDbVertex
100
AcDb2dVertex
 10
7569040.11931109615
 20
5714839.787201114
  0
SEQEND
  5
2AD
100
AcDbEntity
  8
_Woda
  0
POLYLINE
  5
2AE
100
AcDbEntity
  8
_Woda
  6
CONTINUOUS
370
35
100
AcDb2dPolyline
 66
1
 70
128
  0
VERTEX
  5
2AF
100
AcDbEntity
  8
_Woda
100
AcDbVertex
100
AcDb2dVertex
 10
7569040.42684220243
 20
5714843.27367918007
  0
VERTEX
  5
2B0
100
AcDbEntity
  8
_Woda
100
AcDbVertex
100
AcDb2dVertex
 10
7569020.54738417175
 20
5714845.02777405363
  0
VERTEX
  5
2B1
100
AcDbEntity
  8
_Woda
100
AcDbVertex
100
AcDb2dVertex
 10
7569022.23335392866
 20
5714864.1333988281
  0
VERTEX
  5
2B2
100
AcDbEntity
  8
_Woda
100
AcDbVertex
100
AcDb2dVertex
 10
7569027.0045564482
 20
5714863.7120012464
  0
SEQEND
  5
2B3
100
AcDbEntity
  8
_Woda
  0
POLYLINE
  5
2B4
100
AcDbEntity
  8
__projekt_wodociag
  6
ByLayer
370
35
100
AcDb2dPolyline
 66
1
 70
128
  0
VERTEX
  5
2B5
100
AcDbEntity
  8
__projekt_wodociag
100
AcDbVertex
100
AcDb2dVertex
 10
0.0
 20
0.0
  0
VERTEX
  5
2B6
100
AcDbEntity
  8
__projekt_wodociag
100
AcDbVertex
100
AcDb2dVertex
 10
0.0
 20
0.0
  0
VERTEX
  5
2B7
100
AcDbEntity
  8
__projekt_wodociag
100
AcDbVertex
100
AcDb2dVertex
 10
0.0
 20
0.0
  0
VERTEX
  5
2B8
100
AcDbEntity
  8
__projekt_wodociag
100
AcDbVertex
100
AcDb2dVertex
 10
0.0
 20
0.0
  0
VERTEX
  5
2B9
100
AcDbEntity
  8
__projekt_wodociag
100
AcDbVertex
100
AcDb2dVertex
 10
0.0
 20
0.0
  0
VERTEX
  5
2BA
100
AcDbEntity
  8
__projekt_wodociag
100
AcDbVertex
100
AcDb2dVertex
 10
0.0
 20
0.0
  0
VERTEX
  5
2BB
100
AcDbEntity
  8
__projekt_wodociag
100
AcDbVertex
100
AcDb2dVertex
 10
0.0
 20
0.0
  0
VERTEX
  5
2BC
100
AcDbEntity
  8
__projekt_wodociag
100
AcDbVertex
100
AcDb2dVertex
 10
0.0
 20
0.0
  0
VERTEX
  5
2BD
100
AcDbEntity
  8
__projekt_wodociag
100
AcDbVertex
100
AcDb2dVertex
 10
0.0
 20
0.0
  0
SEQEND
  5
2BE
100
AcDbEntity
  8
__projekt_wodociag
  0
POLYLINE
  5
2BF
100
AcDbEntity
  8
__projekt_wodociag
  6
ByLayer
370
35
100
AcDb2dPolyline
 66
1
 70
128
  0
VERTEX
  5
2C0
100
AcDbEntity
  8
__projekt_wodociag
100
AcDbVertex
100
AcDb2dVertex
 10
7569022.23335392866
 20
5714864.1333988281
  0
VERTEX
  5
2C1
100
AcDbEntity
  8
__projekt_wodociag
100
AcDbVertex
100
AcDb2dVertex
 10
7569027.0045564482
 20
5714863.7120012464
  0
SEQEND
  5
2C2
100
AcDbEntity
  8
__projekt_wodociag
  0
POLYLINE
  5
2C3
100
AcDbEntity
  8
__projekt_wodociag
  6
ByLayer
370
35
100
AcDb2dPolyline
 66
1
 70
128
  0
VERTEX
  5
2C4
100
AcDbEntity
  8
__projekt_wodociag
100
AcDbVertex
100
AcDb2dVertex
 10
7569040.11931109615
 20
5714839.787201114
  0
VERTEX
  5
2C5
100
AcDbEntity
  8
__projekt_wodociag
100
AcDbVertex
100
AcDb2dVertex
 10
7569039.62124836445
 20
5714839.83117287233
  0
VERTEX
  5
2C6
100
AcDbEntity
  8
__projekt_wodociag
100
AcDbVertex
100
AcDb2dVertex
 10
7569038.53131516837
 20
5714827.48562395293
  0
VERTEX
  5
2C7
100
AcDbEntity
  8
__projekt_wodociag
100
AcDbVertex
100
AcDb2dVertex
 10
7569037.94835118577
 20
5714827.53709122911
  0
VERTEX
  5
2C8
100
AcDbEntity
  8
__projekt_wodociag
100
AcDbVertex
100
AcDb2dVertex
 10
7569035.26691562589
 20
5714827.77382316068
  0
SEQEND
  5
2C9
100
AcDbEntity
  8
__projekt_wodociag
  0
POLYLINE
  5
2CA
100
AcDbEntity
  8
__projekt_wodociag
  6
ByLayer
370
35
100
AcDb2dPolyline
 66
1
 70
128
  0
VERTEX
  5
2CB
100
AcDbEntity
  8
__projekt_wodociag
100
AcDbVertex
100
AcDb2dVertex
 10
7569065.37419017032
 20
5714837.55756103434
  0
VERTEX
  5
2CC
100
AcDbEntity
  8
__projekt_wodociag
100
AcDbVertex
100
AcDb2dVertex
 10
7569050.73400000017
 20
5714838.84999999963
  0
VERTEX
  5
2CD
100
AcDbEntity
  8
__projekt_wodociag
100
AcDbVertex
100
AcDb2dVertex
 10
7569040.11931109615
 20
5714839.787201114
  0
VERTEX
  5
2CE
100
AcDbEntity
  8
__projekt_wodociag
100
AcDbVertex
100
AcDb2dVertex
 10
7569040.42700000014
 20
5714843.27400000021
  0
VERTEX
  5
2CF
100
AcDbEntity
  8
__projekt_wodociag
100
AcDbVertex
100
AcDb2dVertex
 10
7569020.54700000025
 20
5714845.02799999993
  0
VERTEX
  5
2D0
100
AcDbEntity
  8
__projekt_wodociag
100
AcDbVertex
100
AcDb2dVertex
 10
7569022.23300000001
 20
5714864.13300000038
  0
VERTEX
  5
2D1
100
AcDbEntity
  8
__projekt_wodociag
100
AcDbVertex
100
AcDb2dVertex
 10
7569018.56822342519
 20
5714870.55784176756
  0
VERTEX
  5
2D2
100
AcDbEntity
  8
__projekt_wodociag
100
AcDbVertex
100
AcDb2dVertex
 10
7569018.61400543992
 20
5714871.07049987838
  0
VERTEX
  5
2D3
100
AcDbEntity
  8
__projekt_wodociag
100
AcDbVertex
100
AcDb2dVertex
 10
7569018.92800000031
 20
5714874.58800000045
  0
SEQEND
  5
2D4
100
AcDbEntity
  8
__projekt_wodociag
  0
POINT
  5
2D5
100
AcDbEntity
  8
Dzialki
100
AcDbPoint
 62
256
 10
7569057.87000000011
 20
5714901.16000000015
  0
POINT
  5
2D6
100
AcDbEntity
  8
Dzialki
100
AcDbPoint
 62
256
 10
7569059.66000000015
 20
5714919.76999999862
  0
POINT
  5
2D7
100
AcDbEntity
  8
Dzialki
100
AcDbPoint
 62
256
 10
7568958.41000000015
 20
5714908.78000000026
  0
POINT
  5
2D8
100
AcDbEntity
  8
Dzialki
100
AcDbPoint
 62
256
 10
7569057.87000000011
 20
5714901.16000000015
  0
POINT
  5
2D9
100
AcDbEntity
  8
Dzialki
100
AcDbPoint
 62
256
 10
7569052.5
 20
5714840.20000000019
  0
POINT
  5
2DA
100
AcDbEntity
  8
Dzialki
100
AcDbPoint
 62
256
 10
7569054.90000000037
 20
5714867.37000000011
  0
POINT
  5
2DB
100
AcDbEntity
  8
Dzialki
100
AcDbPoint
 62
256
 10
7569054.90000000037
 20
5714867.37000000011
  0
POINT
  5
2DC
100
AcDbEntity
  8
Dzialki
100
AcDbPoint
 62
256
 10
7568996.58999999985
 20
5714872.51999999862
  0
POINT
  5
2DD
100
AcDbEntity
  8
Dzialki
100
AcDbPoint
 62
256
 10
7568996.58999999985
 20
5714872.51999999862
  0
POINT
  5
2DE
100
AcDbEntity
  8
Dzialki
100
AcDbPoint
 62
256
 10
7568993.94000000041
 20
5714845.37000000011
  0
POINT
  5
2DF
100
AcDbEntity
  8
Dzialki
100
AcDbPoint
 62
256
 10
7568954.33000000007
 20
5714566.59999999963
  0
POINT
  5
2E0
100
AcDbEntity
  8
Dzialki
100
AcDbPoint
 62
256
 10
7568986.04999999981
 20
5714900.0700000003
  0
POINT
  5
2E1
100
AcDbEntity
  8
Dzialki
100
AcDbPoint
 62
256
 10
7568986.04999999981
 20
5714900.0700000003
  0
POINT
  5
2E2
100
AcDbEntity
  8
Dzialki
100
AcDbPoint
 62
256
 10
7568958.00999999884
 20
5714901.95999999996
  0
POINT
  5
2E3
100
AcDbEntity
  8
Dzialki
100
AcDbPoint
 62
256
 10
7569054.90000000037
 20
5714867.37000000011
  0
POINT
  5
2E4
100
AcDbEntity
  8
Dzialki
100
AcDbPoint
 62
256
 10
7569056.92999999877
 20
5714895.29999999981
  0
POINT
  5
2E5
100
AcDbEntity
  8
Dzialki
100
AcDbPoint
 62
256
 10
7569056.92999999877
 20
5714895.29999999981
  0
POINT
  5
2E6
100
AcDbEntity
  8
Dzialki
100
AcDbPoint
 62
256
 10
7568999.04999999981
 20
5714899.19000000041
  0
POINT
  5
2E7
100
AcDbEntity
  8
Dzialki
100
AcDbPoint
 62
256
 10
7568999.04999999981
 20
5714899.19000000041
  0
POINT
  5
2E8
100
AcDbEntity
  8
Dzialki
100
AcDbPoint
 62
256
 10
7568996.58999999985
 20
5714872.51999999862
  0
POINT
  5
2E9
100
AcDbEntity
  8
Dzialki
100
AcDbPoint
 62
256
 10
7569068.51999999862
 20
5714901.54000000004
  0
POINT
  5
2EA
100
AcDbEntity
  8
Dzialki
100
AcDbPoint
 62
256
 10
7569089.88999999873
 20
5714895.16999999993
  0
POINT
  5
2EB
100
AcDbEntity
  8
Dzialki
100
AcDbPoint
 62
256
 10
7569071.51759806741
 20
5714934.39839456603
  0
POINT
  5
2EC
100
AcDbEntity
  8
Dzialki
100
AcDbPoint
 62
256
 10
7569068.51999999862
 20
5714901.54000000004
  0
POINT
  5
2ED
100
AcDbEntity
  8
Dzialki
100
AcDbPoint
 62
256
 10
7568986.04999999981
 20
5714900.0700000003
  0
POINT
  5
2EE
100
AcDbEntity
  8
Dzialki
100
AcDbPoint
 62
256
 10
7568999.04999999981
 20
5714899.19000000041
  0
POINT
  5
2EF
100
AcDbEntity
  8
Dzialki
100
AcDbPoint
 62
256
 10
7569056.92999999877
 20
5714895.29999999981
  0
POINT
  5
2F0
100
AcDbEntity
  8
Dzialki
100
AcDbPoint
 62
256
 10
7569057.87000000011
 20
5714901.16000000015
  0
POINT
  5
2F1
100
AcDbEntity
  8
Dzialki
100
AcDbPoint
 62
256
 10
7569089.63999999873
 20
5714888.08000000007
  0
POINT
  5
2F2
100
AcDbEntity
  8
Dzialki
100
AcDbPoint
 62
256
 10
7569067.91000000015
 20
5714894.5700000003
  0
POINT
  5
2F3
100
AcDbEntity
  8
Dzialki
100
AcDbPoint
 62
256
 10
7569067.91000000015
 20
5714894.5700000003
  0
POINT
  5
2F4
100
AcDbEntity
  8
Dzialki
100
AcDbPoint
 62
256
 10
7569046.36000000034
 20
5714649.5700000003
  0
POINT
  5
2F5
100
AcDbEntity
  8
Dzialki
100
AcDbPoint
 62
256
 10
7569067.91000000015
 20
5714894.5700000003
  0
POINT
  5
2F6
100
AcDbEntity
  8
Dzialki
100
AcDbPoint
 62
256
 10
7569068.51999999862
 20
5714901.54000000004
  0
POINT
  5
2F7
100
AcDbEntity
  8
Dzialki
100
AcDbPoint
 62
256
 10
7569052.5
 20
5714840.20000000019
  0
POINT
  5
2F8
100
AcDbEntity
  8
Dzialki
100
AcDbPoint
 62
256
 10
7569054.90000000037
 20
5714867.37000000011
  0
POINT
  5
2F9
100
AcDbEntity
  8
Dzialki
100
AcDbPoint
 62
256
 10
7568995.98779266886
 20
5714866.35021544527
  0
POINT
  5
2FA
100
AcDbEntity
  8
Dzialki
100
AcDbPoint
 62
256
 10
7568993.94000000041
 20
5714845.37000000011
  0
POINT
  5
2FB
100
AcDbEntity
  8
Dzialki
100
AcDbPoint
 62
256
 10
7568993.94000000041
 20
5714845.37000000011
  0
POINT
  5
2FC
100
AcDbEntity
  8
Dzialki
100
AcDbPoint
 62
256
 10
7569052.5
 20
5714840.20000000019
  0
POINT
  5
2FD
100
AcDbEntity
  8
Dzialki
100
AcDbPoint
 62
256
 10
7569050.11000000034
 20
5714813.15000000037
  0
POINT
  5
2FE
100
AcDbEntity
  8
Dzialki
100
AcDbPoint
 62
256
 10
7569052.5
 20
5714840.20000000019
  0
POINT
  5
2FF
100
AcDbEntity
  8
Dzialki
100
AcDbPoint
 62
256
 10
7568993.94000000041
 20
5714845.37000000011
  0
POINT
  5
300
100
AcDbEntity
  8
Dzialki
100
AcDbPoint
 62
256
 10
7568991.29000000004
 20
5714818.33999999985
  0
POINT
  5
301
100
AcDbEntity
  8
Dzialki
100
AcDbPoint
 62
256
 10
7568991.29000000004
 20
5714818.33999999985
  0
POINT
  5
302
100
AcDbEntity
  8
Dzialki
100
AcDbPoint
 62
256
 10
7569050.11000000034
 20
5714813.15000000037
  0
POINT
  5
303
100
AcDbEntity
  8
Dzialki
100
AcDbPoint
 62
256
 10
7569048.21756306477
 20
5714791.63109763246
  0
POINT
  5
304
100
AcDbEntity
  8
Dzialki
100
AcDbPoint
 62
256
 10
7569050.11000000034
 20
5714813.15000000037
  0
POINT
  5
305
100
AcDbEntity
  8
Dzialki
100
AcDbPoint
 62
256
 10
7568991.29000000004
 20
5714818.33999999985
  0
POINT
  5
306
100
AcDbEntity
  8
Dzialki
100
AcDbPoint
 62
256
 10
7568988.65000000037
 20
5714791.44000000041
  0
POINT
  5
307
100
AcDbEntity
  8
Dzialki
100
AcDbPoint
 62
256
 10
7568976.66383332666
 20
5714801.39392810874
  0
POINT
  5
308
100
AcDbEntity
  8
Dzialki
100
AcDbPoint
 62
256
 10
7568982.6614589151
 20
5714864.44651969243
  0
POINT
  5
309
100
AcDbEntity
  8
Dzialki
100
AcDbPoint
 62
256
 10
7569065.01019837894
 20
5714861.59822358843
  0
POINT
  5
30A
100
AcDbEntity
  8
Dzialki
100
AcDbPoint
 62
256
 10
7569058.59701853246
 20
5714788.67808642238
  0
POINT
  5
30B
100
AcDbEntity
  8
SUEP_L_0
100
AcDbPoint
 62
256
 10
7569035.41000000015
 20
5714921.38999999966
  0
POINT
  5
30C
100
AcDbEntity
  8
SUEP_L_0
100
AcDbPoint
 62
256
 10
7569035.47085443884
 20
5714915.99921827763
  0
POINT
  5
30D
100
AcDbEntity
  8
SUGP_L_0
100
AcDbPoint
 62
256
 10
7569051.94587462116
 20
5714886.36689085979
  0
POINT
  5
30E
100
AcDbEntity
  8
SUGP_L_0
100
AcDbPoint
 62
256
 10
7569046.3757811999
 20
5714821.89656343963
  0
POINT
  5
30F
100
AcDbEntity
  8
SUGP_L_0
100
AcDbPoint
 62
256
 10
7569046.3757811999
 20
5714821.89656343963
  0
POINT
  5
310
100
AcDbEntity
  8
SUGP_L_0
100
AcDbPoint
 62
256
 10
7569043.82729569916
 20
5714794.56435073912
  0
POINT
  5
311
100
AcDbEntity
  8
SUGP_L_0
100
AcDbPoint
 62
256
 10
7569043.82729569916
 20
5714794.56435073912
  0
POINT
  5
312
100
AcDbEntity
  8
SUGP_L_0
100
AcDbPoint
 62
256
 10
7569042.41557031032
 20
5714778.77579593845
  0
POINT
  5
313
100
AcDbEntity
  8
SUGP_L_0
100
AcDbPoint
 62
256
 10
7569042.41557031032
 20
5714778.77579593845
  0
POINT
  5
314
100
AcDbEntity
  8
SUGP_L_0
100
AcDbPoint
 62
256
 10
7569039.46000385005
 20
5714749.02068709955
  0
POINT
  5
315
100
AcDbEntity
  8
SUGP_L_0
100
AcDbPoint
 62
256
 10
7569039.46000385005
 20
5714749.02068709955
  0
POINT
  5
316
100
AcDbEntity
  8
SUGP_L_0
100
AcDbPoint
 62
256
 10
7569037.5755570177
 20
5714729.10848302022
  0
POINT
  5
317
100
AcDbEntity
  8
SUGP_L_0
100
AcDbPoint
 62
256
 10
7569037.5755570177
 20
5714729.10848302022
  0
POINT
  5
318
100
AcDbEntity
  8
SUGP_L_0
100
AcDbPoint
 62
256
 10
7569033.10557963978
 20
5714676.48124161921
  0
POINT
  5
319
100
AcDbEntity
  8
SUGP_L_0
100
AcDbPoint
 62
256
 10
7569051.94587462116
 20
5714886.36689085979
  0
POINT
  5
31A
100
AcDbEntity
  8
SUGP_L_0
100
AcDbPoint
 62
256
 10
7569051.95924045891
 20
5714893.53777869977
  0
POINT
  5
31B
100
AcDbEntity
  8
SUGP_L_0
100
AcDbPoint
 62
256
 10
7569051.95924045891
 20
5714893.53777869977
  0
POINT
  5
31C
100
AcDbEntity
  8
SUGP_L_0
100
AcDbPoint
 62
256
 10
7569052.47745152004
 20
5714901.95838528965
  0
POINT
  5
31D
100
AcDbEntity
  8
SUGP_L_0
100
AcDbPoint
 62
256
 10
7569052.47745152004
 20
5714901.95838528965
  0
POINT
  5
31E
100
AcDbEntity
  8
SUGP_L_0
100
AcDbPoint
 62
256
 10
7569054.59564297088
 20
5714932.59857160971
  0
POINT
  5
31F
100
AcDbEntity
  8
SUGP_L_0
100
AcDbPoint
 62
256
 10
7569051.94587462116
 20
5714886.36689085979
  0
POINT
  5
320
100
AcDbEntity
  8
SUGP_L_0
100
AcDbPoint
 62
256
 10
7569051.95924045891
 20
5714893.53777869977
  0
POINT
  5
321
100
AcDbEntity
  8
SUGP_L_0
100
AcDbPoint
 62
256
 10
7569051.95924045891
 20
5714893.53777869977
  0
POINT
  5
322
100
AcDbEntity
  8
SUGP_L_0
100
AcDbPoint
 62
256
 10
7569052.47745152004
 20
5714901.95838528965
  0
POINT
  5
323
100
AcDbEntity
  8
SUGP_L_0
100
AcDbPoint
 62
256
 10
7569052.47745152004
 20
5714901.95838528965
  0
POINT
  5
324
100
AcDbEntity
  8
SUGP_L_0
100
AcDbPoint
 62
256
 10
7569054.59564297088
 20
5714932.59857160971
  0
POINT
  5
325
100
AcDbEntity
  8
SUGR_T_0
100
AcDbPoint
 62
256
 10
7569051.94587462116
 20
5714886.36689085979
  0
POINT
  5
326
100
AcDbEntity
  8
SUPG_L_2
100
AcDbPoint
 62
256
 10
7569049.9213108588
 20
5714862.93383889645
  0
POINT
  5
327
100
AcDbEntity
  8
SUPG_L_2
100
AcDbPoint
 62
256
 10
7569046.3757811999
 20
5714821.89656343963
  0
POINT
  5
328
100
AcDbEntity
  8
SUPG_L_2
100
AcDbPoint
 62
256
 10
7569046.3757811999
 20
5714821.89656343963
  0
POINT
  5
329
100
AcDbEntity
  8
SUPG_L_2
100
AcDbPoint
 62
256
 10
7569043.82729569916
 20
5714794.56435073912
  0
POINT
  5
32A
100
AcDbEntity
  8
SUPG_L_2
100
AcDbPoint
 62
256
 10
7569043.82729569916
 20
5714794.56435073912
  0
POINT
  5
32B
100
AcDbEntity
  8
SUPG_L_2
100
AcDbPoint
 62
256
 10
7569043.49965246767
 20
5714790.90003107209
  0
POINT
  5
32C
100
AcDbEntity
  8
SUPG_L_2
100
AcDbPoint
 62
256
 10
7569052.47745152004
 20
5714901.95838528965
  0
POINT
  5
32D
100
AcDbEntity
  8
SUPG_L_2
100
AcDbPoint
 62
256
 10
7569053.38346166722
 20
5714915.0640560342
  0
POINT
  5
32E
100
AcDbEntity
  8
SUPG_L_2
100
AcDbPoint
 62
256
 10
7569051.94587462116
 20
5714886.36689085979
  0
POINT
  5
32F
100
AcDbEntity
  8
SUPG_L_2
100
AcDbPoint
 62
256
 10
7569051.95924045891
 20
5714893.53777869977
  0
POINT
  5
330
100
AcDbEntity
  8
SUPG_L_2
100
AcDbPoint
 62
256
 10
7569043.82729569916
 20
5714794.56435073912
  0
POINT
  5
331
100
AcDbEntity
  8
SUPG_L_2
100
AcDbPoint
 62
256
 10
7569042.41557031032
 20
5714778.77579593845
  0
POINT
  5
332
100
AcDbEntity
  8
SUPG_L_2
100
AcDbPoint
 62
256
 10
7569042.41557031032
 20
5714778.77579593845
  0
POINT
  5
333
100
AcDbEntity
  8
SUPG_L_2
100
AcDbPoint
 62
256
 10
7569041.20415439457
 20
5714766.57988936733
  0
POINT
  5
334
100
AcDbEntity
  8
SUPG_L_2
100
AcDbPoint
 62
256
 10
7569051.94587462116
 20
5714886.36689085979
  0
POINT
  5
335
100
AcDbEntity
  8
SUPG_L_2
100
AcDbPoint
 62
256
 10
7569046.3757811999
 20
5714821.89656343963
  0
POINT
  5
336
100
AcDbEntity
  8
SUPG_L_2
100
AcDbPoint
 62
256
 10
7569046.3757811999
 20
5714821.89656343963
  0
POINT
  5
337
100
AcDbEntity
  8
SUPG_L_2
100
AcDbPoint
 62
256
 10
7569043.82729569916
 20
5714794.56435073912
  0
POINT
  5
338
100
AcDbEntity
  8
SUPG_L_2
100
AcDbPoint
 62
256
 10
7569051.95924045891
 20
5714893.53777869977
  0
POINT
  5
339
100
AcDbEntity
  8
SUPG_L_2
100
AcDbPoint
 62
256
 10
7569052.47745152004
 20
5714901.95838528965
  0
POINT
  5
33A
100
AcDbEntity
  8
SUPT_L_0
100
AcDbPoint
 62
256
 10
7569044.47401916794
 20
5714790.1282302998
  0
POINT
  5
33B
100
AcDbEntity
  8
SUPT_L_0
100
AcDbPoint
 62
256
 10
7569049.42442537006
 20
5714839.11829644907
  0
POINT
  5
33C
100
AcDbEntity
  8
SUPT_L_0
100
AcDbPoint
 62
256
 10
7569049.42442537006
 20
5714839.11829644907
  0
POINT
  5
33D
100
AcDbEntity
  8
SUPT_L_0
100
AcDbPoint
 62
256
 10
7569051.6323762117
 20
5714862.69696822856
  0
POINT
  5
33E
100
AcDbEntity
  8
SUPT_L_0
100
AcDbPoint
 62
256
 10
7569058.63541615661
 20
5714791.22021550499
  0
POINT
  5
33F
100
AcDbEntity
  8
SUPT_L_0
100
AcDbPoint
 62
256
 10
7569062.08600000013
 20
5714832.59200000018
  0
POINT
  5
340
100
AcDbEntity
  8
SUPT_L_0
100
AcDbPoint
 62
256
 10
7569062.08600000013
 20
5714832.59200000018
  0
POINT
  5
341
100
AcDbEntity
  8
SUPT_L_0
100
AcDbPoint
 62
256
 10
7569064.25303975027
 20
5714857.37299652491
  0
POINT
  5
342
100
AcDbEntity
  8
SUPT_L_0
100
AcDbPoint
 62
256
 10
7569012.01776218973
 20
5714898.98760673031
  0
POINT
  5
343
100
AcDbEntity
  8
SUPT_L_0
100
AcDbPoint
 62
256
 10
7568962.55909052957
 20
5714902.50759263244
  0
POINT
  5
344
100
AcDbEntity
  8
SUPT_L_0
100
AcDbPoint
 62
256
 10
7569054.74526473042
 20
5714895.93945505004
  0
POINT
  5
345
100
AcDbEntity
  8
SUPT_L_0
100
AcDbPoint
 62
256
 10
7569012.01776218973
 20
5714898.98760673031
  0
POINT
  5
346
100
AcDbEntity
  8
SUPT_L_0
100
AcDbPoint
 62
256
 10
7569042.65112677962
 20
5714766.57988936733
  0
POINT
  5
347
100
AcDbEntity
  8
SUPT_L_0
100
AcDbPoint
 62
256
 10
7569044.47401916794
 20
5714790.1282302998
  0
POINT
  5
348
100
AcDbEntity
  8
SUPT_L_0
100
AcDbPoint
 62
256
 10
7569044.47401916794
 20
5714790.1282302998
  0
POINT
  5
349
100
AcDbEntity
  8
SUPT_L_0
100
AcDbPoint
 62
256
 10
7569049.42442537006
 20
5714839.11829644907
  0
POINT
  5
34A
100
AcDbEntity
  8
SUPT_L_0
100
AcDbPoint
 62
256
 10
7569049.42442537006
 20
5714839.11829644907
  0
POINT
  5
34B
100
AcDbEntity
  8
SUPT_L_0
100
AcDbPoint
 62
256
 10
7569054.74526473042
 20
5714895.93945505004
  0
POINT
  5
34C
100
AcDbEntity
  8
SUPT_L_0
100
AcDbPoint
 62
256
 10
7569067.38900000043
 20
5714893.23400000017
  0
POINT
  5
34D
100
AcDbEntity
  8
SUPT_L_0
100
AcDbPoint
 62
256
 10
7569068.39499999955
 20
5714903.52100000158
  0
POINT
  5
34E
100
AcDbEntity
  8
SUPT_L_0
100
AcDbPoint
 62
256
 10
7569069.46800000034
 20
5714916.08500000089
  0
POINT
  5
34F
100
AcDbEntity
  8
SUPT_L_0
100
AcDbPoint
 62
256
 10
7569070.41500000097
 20
5714926.1810000008
  0
POINT
  5
350
100
AcDbEntity
  8
SUPT_L_0
100
AcDbPoint
 62
256
 10
7569068.39499999955
 20
5714903.52100000158
  0
POINT
  5
351
100
AcDbEntity
  8
SUPT_L_0
100
AcDbPoint
 62
256
 10
7569069.46800000034
 20
5714916.08500000089
  0
POINT
  5
352
100
AcDbEntity
  8
SUPT_L_0
100
AcDbPoint
 62
256
 10
7569062.08600000013
 20
5714832.59200000018
  0
POINT
  5
353
100
AcDbEntity
  8
SUPT_L_0
100
AcDbPoint
 62
256
 10
7569067.38900000043
 20
5714893.23400000017
  0
POINT
  5
354
100
AcDbEntity
  8
SUPT_L_0
100
AcDbPoint
 62
256
 10
7569056.58030752744
 20
5714766.57988936733
  0
POINT
  5
355
100
AcDbEntity
  8
SUPT_L_0
100
AcDbPoint
 62
256
 10
7569062.08600000013
 20
5714832.59200000018
  0
POINT
  5
356
100
AcDbEntity
  8
SUPW_L_2
100
AcDbPoint
 62
256
 10
7569061.84240579884
 20
5714796.22276245523
  0
POINT
  5
357
100
AcDbEntity
  8
SUPW_L_2
100
AcDbPoint
 62
256
 10
7569062.17404889036
 20
5714799.54058596026
  0
POINT
  5
358
100
AcDbEntity
  8
SUPW_L_2
100
AcDbPoint
 62
256
 10
7569062.17404889036
 20
5714799.54058596026
  0
POINT
  5
359
100
AcDbEntity
  8
SUPW_L_2
100
AcDbPoint
 62
256
 10
7569065.17085308023
 20
5714835.00715805963
  0
POINT
  5
35A
100
AcDbEntity
  8
SUPW_L_2
100
AcDbPoint
 62
256
 10
7569065.17085308023
 20
5714835.00715805963
  0
POINT
  5
35B
100
AcDbEntity
  8
SUPW_L_2
100
AcDbPoint
 62
256
 10
7569066.7968691159
 20
5714855.40184416343
  0
POINT
  5
35C
100
AcDbEntity
  8
SUPW_L_2
100
AcDbPoint
 62
256
 10
7569070.95046836976
 20
5714901.01963259
  0
POINT
  5
35D
100
AcDbEntity
  8
SUPW_L_2
100
AcDbPoint
 62
256
 10
7569071.92750904243
 20
5714915.0640560342
  0
POINT
  5
35E
100
AcDbEntity
  8
SUPW_L_2
100
AcDbPoint
 62
256
 10
7569068.02720240969
 20
5714870.83358701039
  0
POINT
  5
35F
100
AcDbEntity
  8
SUPW_L_2
100
AcDbPoint
 62
256
 10
7569070.2422460299
 20
5714891.357975021
  0
POINT
  5
360
100
AcDbEntity
  8
SUPW_L_2
100
AcDbPoint
 62
256
 10
7569070.2422460299
 20
5714891.357975021
  0
POINT
  5
361
100
AcDbEntity
  8
SUPW_L_2
100
AcDbPoint
 62
256
 10
7569070.95046836976
 20
5714901.01963259
  0
POINT
  5
362
100
AcDbEntity
  8
SUPW_L_2
100
AcDbPoint
 62
256
 10
7569065.17085308023
 20
5714835.00715805963
  0
POINT
  5
363
100
AcDbEntity
  8
SUPW_L_2
100
AcDbPoint
 62
256
 10
7569068.02720240969
 20
5714870.83358701039
  0
POINT
  5
364
100
AcDbEntity
  8
SUPW_L_2
100
AcDbPoint
 62
256
 10
7569059.66459001042
 20
5714774.43545971997
  0
POINT
  5
365
100
AcDbEntity
  8
SUPW_L_2
100
AcDbPoint
 62
256
 10
7569062.17404889036
 20
5714799.54058596026
  0
POINT
  5
366
100
AcDbEntity
  8
SUPW_L_2
100
AcDbPoint
 62
256
 10
7569062.17404889036
 20
5714799.54058596026
  0
POINT
  5
367
100
AcDbEntity
  8
SUPW_L_2
100
AcDbPoint
 62
256
 10
7569065.17085308023
 20
5714835.00715805963
  0
POINT
  5
368
100
AcDbEntity
  8
SUPW_L_2
100
AcDbPoint
 62
256
 10
7569058.98385099415
 20
5714766.57988936733
  0
POINT
  5
369
100
AcDbEntity
  8
SUPW_L_2
100
AcDbPoint
 62
256
 10
7569059.66459001042
 20
5714774.43545971997
  0
POINT
  5
36A
100
AcDbEntity
  8
SUP_T_4
100
AcDbPoint
 62
256
 10
7569052.28000000026
 20
5714895.87000000011
  0
POINT
  5
36B
100
AcDbEntity
  8
SUTP_L_0
100
AcDbPoint
 62
256
 10
7569049.42442537006
 20
5714839.11829644907
  0
POINT
  5
36C
100
AcDbEntity
  8
SUTP_L_0
100
AcDbPoint
 62
256
 10
7569054.74526473042
 20
5714895.93945505004
  0
POINT
  5
36D
100
AcDbEntity
  8
SUTP_L_0
100
AcDbPoint
 62
256
 10
7569054.74526473042
 20
5714895.93945505004
  0
POINT
  5
36E
100
AcDbEntity
  8
SUTP_L_0
100
AcDbPoint
 62
256
 10
7569012.01776218973
 20
5714898.98760673031
  0
POINT
  5
36F
100
AcDbEntity
  8
SUTP_L_0
100
AcDbPoint
 62
256
 10
7569012.01776218973
 20
5714898.98760673031
  0
POINT
  5
370
100
AcDbEntity
  8
SUTP_L_0
100
AcDbPoint
 62
256
 10
7568962.55909052957
 20
5714902.50759263244
  0
POINT
  5
371
100
AcDbEntity
  8
SUTP_L_0
100
AcDbPoint
 62
256
 10
7569062.08600000013
 20
5714832.59200000018
  0
POINT
  5
372
100
AcDbEntity
  8
SUTP_L_0
100
AcDbPoint
 62
256
 10
7569067.38900000043
 20
5714893.23400000017
  0
POINT
  5
373
100
AcDbEntity
  8
SUTP_L_0
100
AcDbPoint
 62
256
 10
7569067.38900000043
 20
5714893.23400000017
  0
POINT
  5
374
100
AcDbEntity
  8
SUTP_L_0
100
AcDbPoint
 62
256
 10
7569068.39499999955
 20
5714903.52100000158
  0
POINT
  5
375
100
AcDbEntity
  8
SUTP_L_0
100
AcDbPoint
 62
256
 10
7569068.39499999955
 20
5714903.52100000158
  0
POINT
  5
376
100
AcDbEntity
  8
SUTP_L_0
100
AcDbPoint
 62
256
 10
7569069.46800000034
 20
5714916.08500000089
  0
POINT
  5
377
100
AcDbEntity
  8
SUTR_T_0
100
AcDbPoint
 62
256
 10
7569012.01776218973
 20
5714898.98760673031
  0
POINT
  5
378
100
AcDbEntity
  8
SUTR_T_0
100
AcDbPoint
 62
256
 10
7569068.39499999955
 20
5714903.52100000158
  0
POINT
  5
379
100
AcDbEntity
  8
SUWP_L_0
100
AcDbPoint
 62
256
 10
7569051.36039111018
 20
5714679.32749924995
  0
POINT
  5
37A
100
AcDbEntity
  8
SUWP_L_0
100
AcDbPoint
 62
256
 10
7569055.59181868006
 20
5714727.43662325013
  0
POINT
  5
37B
100
AcDbEntity
  8
SUWP_L_0
100
AcDbPoint
 62
256
 10
7569055.59181868006
 20
5714727.43662325013
  0
POINT
  5
37C
100
AcDbEntity
  8
SUWP_L_0
100
AcDbPoint
 62
256
 10
7569059.66459001042
 20
5714774.43545971997
  0
POINT
  5
37D
100
AcDbEntity
  8
SUWP_L_0
100
AcDbPoint
 62
256
 10
7569059.66459001042
 20
5714774.43545971997
  0
POINT
  5
37E
100
AcDbEntity
  8
SUWP_L_0
100
AcDbPoint
 62
256
 10
7569062.17404889036
 20
5714799.54058596026
  0
POINT
  5
37F
100
AcDbEntity
  8
SUWP_L_0
100
AcDbPoint
 62
256
 10
7569062.17404889036
 20
5714799.54058596026
  0
POINT
  5
380
100
AcDbEntity
  8
SUWP_L_0
100
AcDbPoint
 62
256
 10
7569065.17085308023
 20
5714835.00715805963
  0
POINT
  5
381
100
AcDbEntity
  8
SUWP_L_0
100
AcDbPoint
 62
256
 10
7569065.17085308023
 20
5714835.00715805963
  0
POINT
  5
382
100
AcDbEntity
  8
SUWP_L_0
100
AcDbPoint
 62
256
 10
7569068.02720240969
 20
5714870.83358701039
  0
POINT
  5
383
100
AcDbEntity
  8
SUWP_L_0
100
AcDbPoint
 62
256
 10
7569068.02720240969
 20
5714870.83358701039
  0
POINT
  5
384
100
AcDbEntity
  8
SUWP_L_0
100
AcDbPoint
 62
256
 10
7569070.2422460299
 20
5714891.357975021
  0
POINT
  5
385
100
AcDbEntity
  8
SUWP_L_0
100
AcDbPoint
 62
256
 10
7569070.2422460299
 20
5714891.357975021
  0
POINT
  5
386
100
AcDbEntity
  8
SUWP_L_0
100
AcDbPoint
 62
256
 10
7569070.95046836976
 20
5714901.01963259
  0
POINT
  5
387
100
AcDbEntity
  8
SUWP_L_0
100
AcDbPoint
 62
256
 10
7569070.95046836976
 20
5714901.01963259
  0
POINT
  5
388
100
AcDbEntity
  8
SUWP_L_0
100
AcDbPoint
 62
256
 10
7569073.31895427872
 20
5714935.06531762984
  0
POINT
  5
389
100
AcDbEntity
  8
SUWP_L_0
100
AcDbPoint
 62
256
 10
7569051.36039111018
 20
5714679.32749924995
  0
POINT
  5
38A
100
AcDbEntity
  8
SUWP_L_0
100
AcDbPoint
 62
256
 10
7569055.59181868006
 20
5714727.43662325013
  0
POINT
  5
38B
100
AcDbEntity
  8
SUWP_L_0
100
AcDbPoint
 62
256
 10
7569055.59181868006
 20
5714727.43662325013
  0
POINT
  5
38C
100
AcDbEntity
  8
SUWP_L_0
100
AcDbPoint
 62
256
 10
7569059.66459001042
 20
5714774.43545971997
  0
POINT
  5
38D
100
AcDbEntity
  8
SUWP_L_0
100
AcDbPoint
 62
256
 10
7569059.66459001042
 20
5714774.43545971997
  0
POINT
  5
38E
100
AcDbEntity
  8
SUWP_L_0
100
AcDbPoint
 62
256
 10
7569062.17404889036
 20
5714799.54058596026
  0
POINT
  5
38F
100
AcDbEntity
  8
SUWP_L_0
100
AcDbPoint
 62
256
 10
7569062.17404889036
 20
5714799.54058596026
  0
POINT
  5
390
100
AcDbEntity
  8
SUWP_L_0
100
AcDbPoint
 62
256
 10
7569065.17085308023
 20
5714835.00715805963
  0
POINT
  5
391
100
AcDbEntity
  8
SUWP_L_0
100
AcDbPoint
 62
256
 10
7569065.17085308023
 20
5714835.00715805963
  0
POINT
  5
392
100
AcDbEntity
  8
SUWP_L_0
100
AcDbPoint
 62
256
 10
7569068.02720240969
 20
5714870.83358701039
  0
POINT
  5
393
100
AcDbEntity
  8
SUWP_L_0
100
AcDbPoint
 62
256
 10
7569068.02720240969
 20
5714870.83358701039
  0
POINT
  5
394
100
AcDbEntity
  8
SUWP_L_0
100
AcDbPoint
 62
256
 10
7569070.2422460299
 20
5714891.357975021
  0
POINT
  5
395
100
AcDbEntity
  8
SUWP_L_0
100
AcDbPoint
 62
256
 10
7569070.2422460299
 20
5714891.357975021
  0
POINT
  5
396
100
AcDbEntity
  8
SUWP_L_0
100
AcDbPoint
 62
256
 10
7569070.95046836976
 20
5714901.01963259
  0
POINT
  5
397
100
AcDbEntity
  8
SUWP_L_0
100
AcDbPoint
 62
256
 10
7569070.95046836976
 20
5714901.01963259
  0
POINT
  5
398
100
AcDbEntity
  8
SUWP_L_0
100
AcDbPoint
 62
256
 10
7569073.31895427872
 20
5714935.06531762984
  0
POINT
  5
399
100
AcDbEntity
  8
_Gaz
100
AcDbPoint
 62
256
 10
7569029.27040953655
 20
5714866.63568232115
  0
POINT
  5
39A
100
AcDbEntity
  8
_Gaz
100
AcDbPoint
 62
256
 10
7569029.36039423943
 20
5714867.64549177419
  0
POINT
  5
39B
100
AcDbEntity
  8
_Gaz
100
AcDbPoint
 62
256
 10
7569054.42783571035
 20
5714865.43150565773
  0
POINT
  5
39C
100
AcDbEntity
  8
_Gaz
100
AcDbPoint
 62
256
 10
7569054.70931714401
 20
5714865.21131116338
  0
POINT
  5
39D
100
AcDbEntity
  8
_Gaz
100
AcDbPoint
 62
256
 10
7569054.76112331822
 20
5714865.80907041579
  0
POINT
  5
39E
100
AcDbEntity
  8
_Gaz
100
AcDbPoint
 62
256
 10
7569054.46224369295
 20
5714865.83497350197
  0
POINT
  5
39F
100
AcDbEntity
  8
_Gaz
100
AcDbPoint
 62
256
 10
7569054.41043751966
 20
5714865.23721424956
  0
POINT
  5
3A0
100
AcDbEntity
  8
_Gaz
100
AcDbPoint
 62
256
 10
7569054.89174853917
 20
5714868.22591693606
  0
POINT
  5
3A1
100
AcDbEntity
  8
_Gaz
100
AcDbPoint
 62
256
 10
7569054.94355471339
 20
5714868.82367618755
  0
POINT
  5
3A2
100
AcDbEntity
  8
_Gaz
100
AcDbPoint
 62
256
 10
7569054.64467508812
 20
5714868.84957927465
  0
POINT
  5
3A3
100
AcDbEntity
  8
_Gaz
100
AcDbPoint
 62
256
 10
7569054.59286891483
 20
5714868.25182002317
  0
POINT
  5
3A4
100
AcDbEntity
  8
_Gaz
100
AcDbPoint
 62
256
 10
7569054.89355563838
 20
5714868.24031242169
  0
POINT
  5
3A5
100
AcDbEntity
  8
_Gaz
100
AcDbPoint
 62
256
 10
7569054.89355563838
 20
5714868.24031242169
  0
POINT
  5
3A6
100
AcDbEntity
  8
_Gaz
100
AcDbPoint
 62
256
 10
7569054.9453618126
 20
5714868.83807167318
  0
POINT
  5
3A7
100
AcDbEntity
  8
_Gaz
100
AcDbPoint
 62
256
 10
7569054.9453618126
 20
5714868.83807167318
  0
POINT
  5
3A8
100
AcDbEntity
  8
_Gaz
100
AcDbPoint
 62
256
 10
7569054.9453618126
 20
5714868.83807167411
  0
POINT
  5
3A9
100
AcDbEntity
  8
_Gaz
100
AcDbPoint
 62
256
 10
7569054.9453618126
 20
5714868.83807167411
  0
POINT
  5
3AA
100
AcDbEntity
  8
_Gaz
100
AcDbPoint
 62
256
 10
7569054.64648218732
 20
5714868.86397476122
  0
POINT
  5
3AB
100
AcDbEntity
  8
_Gaz
100
AcDbPoint
 62
256
 10
7569054.64648218732
 20
5714868.86397476122
  0
POINT
  5
3AC
100
AcDbEntity
  8
_Gaz
100
AcDbPoint
 62
256
 10
7569026.04072329402
 20
5714871.92666685954
  0
POINT
  5
3AD
100
AcDbEntity
  8
_Gaz
100
AcDbPoint
 62
256
 10
7569019.79320190661
 20
5714872.46788404137
  0
POINT
  5
3AE
100
AcDbEntity
  8
_Gaz
100
AcDbPoint
 62
256
 10
7569019.96916034073
 20
5714874.45988013688
  0
POINT
  5
3AF
100
AcDbEntity
  8
_Gaz
100
AcDbPoint
 62
256
 10
7569054.61877200194
 20
5714868.55069964845
  0
POINT
  5
3B0
100
AcDbEntity
  8
_Gaz
100
AcDbPoint
 62
256
 10
7569053.22864445392
 20
5714869.52540131845
  0
POINT
  5
3B1
100
AcDbEntity
  8
_Gaz
100
AcDbPoint
 62
256
 10
7569053.22864445392
 20
5714869.52540131845
  0
POINT
  5
3B2
100
AcDbEntity
  8
_Gaz
100
AcDbPoint
 62
256
 10
7569026.04072329402
 20
5714871.92666685954
  0
POINT
  5
3B3
100
AcDbEntity
  8
_Gaz
100
AcDbPoint
 62
256
 10
7569026.04072329402
 20
5714871.92666685954
  0
POINT
  5
3B4
100
AcDbEntity
  8
_Gaz
100
AcDbPoint
 62
256
 10
7569026.36616920959
 20
5714875.61216581985
  0
POINT
  5
3B5
100
AcDbEntity
  8
_Gaz
100
AcDbPoint
 62
256
 10
7569026.36616920959
 20
5714875.61216581985
  0
POINT
  5
3B6
100
AcDbEntity
  8
_Gaz
100
AcDbPoint
 62
256
 10
7569020.36649374291
 20
5714876.14195203409
  0
POINT
  5
3B7
100
AcDbEntity
  8
_Gaz
100
AcDbPoint
 62
256
 10
7569035.75364450924
 20
5714833.3980141338
  0
POINT
  5
3B8
100
AcDbEntity
  8
_Gaz
100
AcDbPoint
 62
256
 10
7569036.68721111119
 20
5714833.76162008569
  0
POINT
  5
3B9
100
AcDbEntity
  8
_Gaz
100
AcDbPoint
 62
256
 10
7569051.52444032114
 20
5714832.45170760155
  0
POINT
  5
3BA
100
AcDbEntity
  8
_Gaz
100
AcDbPoint
 62
256
 10
7569051.46126647759
 20
5714832.08045688644
  0
POINT
  5
3BB
100
AcDbEntity
  8
_Gaz
100
AcDbPoint
 62
256
 10
7569051.51342473738
 20
5714832.67818551976
  0
POINT
  5
3BC
100
AcDbEntity
  8
_Gaz
100
AcDbPoint
 62
256
 10
7569051.21456042212
 20
5714832.70426464919
  0
POINT
  5
3BD
100
AcDbEntity
  8
_Gaz
100
AcDbPoint
 62
256
 10
7569051.16240216233
 20
5714832.1065360168
  0
POINT
  5
3BE
100
AcDbEntity
  8
_Gaz
100
AcDbPoint
 62
256
 10
7569051.46126647759
 20
5714832.08045688644
  0
POINT
  5
3BF
100
AcDbEntity
  8
_Gaz
100
AcDbPoint
 62
256
 10
7569051.46126647759
 20
5714832.08045688644
  0
POINT
  5
3C0
100
AcDbEntity
  8
_Gaz
100
AcDbPoint
 62
256
 10
7569051.51342473738
 20
5714832.67818551883
  0
POINT
  5
3C1
100
AcDbEntity
  8
_Gaz
100
AcDbPoint
 62
256
 10
7569051.51342473738
 20
5714832.67818551883
  0
POINT
  5
3C2
100
AcDbEntity
  8
_Gaz
100
AcDbPoint
 62
256
 10
7569051.51342473738
 20
5714832.67818551976
  0
POINT
  5
3C3
100
AcDbEntity
  8
_Gaz
100
AcDbPoint
 62
256
 10
7569051.51342473738
 20
5714832.67818551976
  0
POINT
  5
3C4
100
AcDbEntity
  8
_Gaz
100
AcDbPoint
 62
256
 10
7569051.21456042212
 20
5714832.70426465012
  0
POINT
  5
3C5
100
AcDbEntity
  8
_Gaz
100
AcDbPoint
 62
256
 10
7569029.27040953655
 20
5714866.63568232115
  0
POINT
  5
3C6
100
AcDbEntity
  8
_Gaz
100
AcDbPoint
 62
256
 10
7569029.36039423943
 20
5714867.64549177419
  0
POINT
  5
3C7
100
AcDbEntity
  8
_Gaz
100
AcDbPoint
 62
256
 10
7569054.12392810173
 20
5714865.45835064445
  0
POINT
  5
3C8
100
AcDbEntity
  8
_Gaz
100
AcDbPoint
 62
256
 10
7569054.40540953539
 20
5714865.23815614916
  0
POINT
  5
3C9
100
AcDbEntity
  8
_Gaz
100
AcDbPoint
 62
256
 10
7569054.45721570961
 20
5714865.83591540158
  0
POINT
  5
3CA
100
AcDbEntity
  8
_Gaz
100
AcDbPoint
 62
256
 10
7569054.15833608434
 20
5714865.86181848776
  0
POINT
  5
3CB
100
AcDbEntity
  8
_Gaz
100
AcDbPoint
 62
256
 10
7569054.10652991105
 20
5714865.26405923627
  0
POINT
  5
3CC
100
AcDbEntity
  8
_Gaz
100
AcDbPoint
 62
256
 10
7569054.4072166346
 20
5714865.2525516348
  0
POINT
  5
3CD
100
AcDbEntity
  8
_Gaz
100
AcDbPoint
 62
256
 10
7569054.4072166346
 20
5714865.2525516348
  0
POINT
  5
3CE
100
AcDbEntity
  8
_Gaz
100
AcDbPoint
 62
256
 10
7569054.45902280882
 20
5714865.85031088628
  0
POINT
  5
3CF
100
AcDbEntity
  8
_Gaz
100
AcDbPoint
 62
256
 10
7569054.45902280882
 20
5714865.85031088628
  0
POINT
  5
3D0
100
AcDbEntity
  8
_Gaz
100
AcDbPoint
 62
256
 10
7569054.45902280882
 20
5714865.85031088721
  0
POINT
  5
3D1
100
AcDbEntity
  8
_Gaz
100
AcDbPoint
 62
256
 10
7569054.45902280882
 20
5714865.85031088721
  0
POINT
  5
3D2
100
AcDbEntity
  8
_Gaz
100
AcDbPoint
 62
256
 10
7569054.16014318354
 20
5714865.87621397432
  0
POINT
  5
3D3
100
AcDbEntity
  8
_Gaz
100
AcDbPoint
 62
256
 10
7569054.16014318354
 20
5714865.87621397432
  0
POINT
  5
3D4
100
AcDbEntity
  8
_Kanalizacja
100
AcDbPoint
 62
256
 10
7569046.05517868511
 20
5714862.32344679069
  0
POINT
  5
3D5
100
AcDbEntity
  8
_Kanalizacja
100
AcDbPoint
 62
256
 10
7569048.34670704696
 20
5714862.12622162979
  0
POINT
  5
3D6
100
AcDbEntity
  8
_Kanalizacja
100
AcDbPoint
 62
256
 10
7569048.54393220879
 20
5714864.41774999164
  0
POINT
  5
3D7
100
AcDbEntity
  8
_Kanalizacja
100
AcDbPoint
 62
256
 10
7569046.25240384601
 20
5714864.61497515254
  0
POINT
  5
3D8
100
AcDbEntity
  8
_Kanalizacja
100
AcDbPoint
 62
256
 10
7569048.18064563908
 20
5714863.5114856679
  0
POINT
  5
3D9
100
AcDbEntity
  8
_Kanalizacja
100
AcDbPoint
 62
256
 10
7569048.18064563908
 20
5714863.5114856679
  0
POINT
  5
3DA
100
AcDbEntity
  8
_Kanalizacja
100
AcDbPoint
 62
256
 10
7569047.73156585358
 20
5714863.11358200014
  0
POINT
  5
3DB
100
AcDbEntity
  8
_Kanalizacja
100
AcDbPoint
 62
256
 10
7569047.20094286744
 20
5714862.22483421024
  0
POINT
  5
3DC
100
AcDbEntity
  8
_Kanalizacja
100
AcDbPoint
 62
256
 10
7569046.76554029528
 20
5714857.290271746
  0
POINT
  5
3DD
100
AcDbEntity
  8
_Kanalizacja
100
AcDbPoint
 62
256
 10
7569046.57911017165
 20
5714857.13408703171
  0
POINT
  5
3DE
100
AcDbEntity
  8
_Kanalizacja
100
AcDbPoint
 62
256
 10
7569037.87764676288
 20
5714857.90260935295
  0
POINT
  5
3DF
100
AcDbEntity
  8
_Kanalizacja
100
AcDbPoint
 62
256
 10
7569046.75042423513
 20
5714857.11895639542
  0
POINT
  5
3E0
100
AcDbEntity
  8
_Kanalizacja
100
AcDbPoint
 62
256
 10
7569048.44906182587
 20
5714863.27165757213
  0
POINT
  5
3E1
100
AcDbEntity
  8
_Kanalizacja
100
AcDbPoint
 62
256
 10
7569054.55807851255
 20
5714862.75266074855
  0
POINT
  5
3E2
100
AcDbEntity
  8
_Kanalizacja
100
AcDbPoint
 62
256
 10
7569026.85201001167
 20
5714893.10887888819
  0
POINT
  5
3E3
100
AcDbEntity
  8
_Kanalizacja
100
AcDbPoint
 62
256
 10
7569027.01696423814
 20
5714895.40295606665
  0
POINT
  5
3E4
100
AcDbEntity
  8
_Kanalizacja
100
AcDbPoint
 62
256
 10
7569024.72288705874
 20
5714895.56791029405
  0
POINT
  5
3E5
100
AcDbEntity
  8
_Kanalizacja
100
AcDbPoint
 62
256
 10
7569024.55793283228
 20
5714893.27383311465
  0
POINT
  5
3E6
100
AcDbEntity
  8
_Kanalizacja
100
AcDbPoint
 62
256
 10
7569025.63417458441
 20
5714895.21741463989
  0
POINT
  5
3E7
100
AcDbEntity
  8
_Kanalizacja
100
AcDbPoint
 62
256
 10
7569025.63417458441
 20
5714895.21741463989
  0
POINT
  5
3E8
100
AcDbEntity
  8
_Kanalizacja
100
AcDbPoint
 62
256
 10
7569026.03835927416
 20
5714894.77397950552
  0
POINT
  5
3E9
100
AcDbEntity
  8
_Kanalizacja
100
AcDbPoint
 62
256
 10
7569024.56049366388
 20
5714880.6553814644
  0
POINT
  5
3EA
100
AcDbEntity
  8
_Kanalizacja
100
AcDbPoint
 62
256
 10
7569025.66752143484
 20
5714893.19404882006
  0
POINT
  5
3EB
100
AcDbEntity
  8
_Kanalizacja
100
AcDbPoint
 62
256
 10
7569024.57545479946
 20
5714880.82671041414
  0
POINT
  5
3EC
100
AcDbEntity
  8
_Kanalizacja
100
AcDbPoint
 62
256
 10
7569024.38913990743
 20
5714880.67005574703
  0
POINT
  5
3ED
100
AcDbEntity
  8
_Kanalizacja
100
AcDbPoint
 62
256
 10
7569020.79372249544
 20
5714880.97795778327
  0
POINT
  5
3EE
100
AcDbEntity
  8
_Kanalizacja
100
AcDbPoint
 62
256
 10
7569043.6906068828
 20
5714835.65958700608
  0
POINT
  5
3EF
100
AcDbEntity
  8
_Kanalizacja
100
AcDbPoint
 62
256
 10
7569045.9814787684
 20
5714835.4548774492
  0
POINT
  5
3F0
100
AcDbEntity
  8
_Kanalizacja
100
AcDbPoint
 62
256
 10
7569046.18618832529
 20
5714837.7457493348
  0
POINT
  5
3F1
100
AcDbEntity
  8
_Kanalizacja
100
AcDbPoint
 62
256
 10
7569043.89531643875
 20
5714837.95045889169
  0
POINT
  5
3F2
100
AcDbEntity
  8
_Kanalizacja
100
AcDbPoint
 62
256
 10
7569045.81994331256
 20
5714836.84067654889
  0
POINT
  5
3F3
100
AcDbEntity
  8
_Kanalizacja
100
AcDbPoint
 62
256
 10
7569045.81994331256
 20
5714836.84067654889
  0
POINT
  5
3F4
100
AcDbEntity
  8
_Kanalizacja
100
AcDbPoint
 62
256
 10
7569045.36956614256
 20
5714836.44424195681
  0
POINT
  5
3F5
100
AcDbEntity
  8
_Kanalizacja
100
AcDbPoint
 62
256
 10
7569046.08383354731
 20
5714836.60031339154
  0
POINT
  5
3F6
100
AcDbEntity
  8
_Kanalizacja
100
AcDbPoint
 62
256
 10
7569051.83537696954
 20
5714836.11168602016
  0
POINT
  5
3F7
100
AcDbEntity
  8
_Kanalizacja
100
AcDbPoint
 62
256
 10
7569051.75475619175
 20
5714836.22903044056
  0
POINT
  5
3F8
100
AcDbEntity
  8
_Kanalizacja
100
AcDbPoint
 62
256
 10
7569051.72619680595
 20
5714836.0023403177
  0
POINT
  5
3F9
100
AcDbEntity
  8
_Kanalizacja
100
AcDbPoint
 62
256
 10
7569044.57582548074
 20
5714834.53751565889
  0
POINT
  5
3FA
100
AcDbEntity
  8
_Kanalizacja
100
AcDbPoint
 62
256
 10
7569035.9314290313
 20
5714835.3006906854
  0
POINT
  5
3FB
100
AcDbEntity
  8
_Kanalizacja
100
AcDbPoint
 62
256
 10
7569044.74310893286
 20
5714834.52368795685
  0
POINT
  5
3FC
100
AcDbEntity
  8
_Kanalizacja
100
AcDbPoint
 62
256
 10
7569044.74310893286
 20
5714834.69566889945
  0
POINT
  5
3FD
100
AcDbEntity
  8
_Kanalizacja
100
AcDbPoint
 62
256
 10
7569044.82022351306
 20
5714835.55864582211
  0
POINT
  5
3FE
100
AcDbEntity
  8
_Kanalizacja
100
AcDbPoint
 62
256
 10
7569046.05517868511
 20
5714862.32344679069
  0
POINT
  5
3FF
100
AcDbEntity
  8
_Kanalizacja
100
AcDbPoint
 62
256
 10
7569048.34670704696
 20
5714862.12622162979
  0
POINT
  5
400
100
AcDbEntity
  8
_Kanalizacja
100
AcDbPoint
 62
256
 10
7569048.54393220879
 20
5714864.41774999164
  0
POINT
  5
401
100
AcDbEntity
  8
_Kanalizacja
100
AcDbPoint
 62
256
 10
7569046.25240384601
 20
5714864.61497515254
  0
POINT
  5
402
100
AcDbEntity
  8
_Kanalizacja
100
AcDbPoint
 62
256
 10
7569048.18064563908
 20
5714863.5114856679
  0
POINT
  5
403
100
AcDbEntity
  8
_Kanalizacja
100
AcDbPoint
 62
256
 10
7569048.18064563908
 20
5714863.5114856679
  0
POINT
  5
404
100
AcDbEntity
  8
_Kanalizacja
100
AcDbPoint
 62
256
 10
7569047.73156585358
 20
5714863.11358200014
  0
POINT
  5
405
100
AcDbEntity
  8
_Kanalizacja
100
AcDbPoint
 62
256
 10
7569047.20094286744
 20
5714862.22483421024
  0
POINT
  5
406
100
AcDbEntity
  8
_Kanalizacja
100
AcDbPoint
 62
256
 10
7569046.76554029528
 20
5714857.290271746
  0
POINT
  5
407
100
AcDbEntity
  8
_Kanalizacja
100
AcDbPoint
 62
256
 10
7569046.57911017165
 20
5714857.13408703171
  0
POINT
  5
408
100
AcDbEntity
  8
_Kanalizacja
100
AcDbPoint
 62
256
 10
7569037.87764676288
 20
5714857.90260935295
  0
POINT
  5
409
100
AcDbEntity
  8
_Kanalizacja
100
AcDbPoint
 62
256
 10
7569046.75042423513
 20
5714857.11895639542
  0
POINT
  5
40A
100
AcDbEntity
  8
_Kanalizacja
100
AcDbPoint
 62
256
 10
7569048.44906182587
 20
5714863.27165757213
  0
POINT
  5
40B
100
AcDbEntity
  8
_Kanalizacja
100
AcDbPoint
 62
256
 10
7569054.2006052481
 20
5714862.78303020075
  0
POINT
  5
40C
100
AcDbEntity
  8
_Kanalizacja
100
AcDbPoint
 62
256
 10
7569054.11998447031
 20
5714862.90037462208
  0
POINT
  5
40D
100
AcDbEntity
  8
_Kanalizacja
100
AcDbPoint
 62
256
 10
7569054.09142508544
 20
5714862.6736844983
  0
POINT
  5
40E
100
AcDbEntity
  8
_Woda
100
AcDbPoint
 62
256
 10
7568999.0383679932
 20
5714877.14660670236
  0
POINT
  5
40F
100
AcDbEntity
  8
_Woda
100
AcDbPoint
 62
256
 10
7568999.70842848532
 20
5714877.24703638628
  0
POINT
  5
410
100
AcDbEntity
  8
_Woda
100
AcDbPoint
 62
256
 10
7569000.37382471841
 20
5714877.11930605397
  0
POINT
  5
411
100
AcDbEntity
  8
_Woda
100
AcDbPoint
 62
256
 10
7569001.0392209515
 20
5714876.99157572165
  0
POINT
  5
412
100
AcDbEntity
  8
_Woda
100
AcDbPoint
 62
256
 10
7569001.70928144362
 20
5714877.09200540558
  0
POINT
  5
413
100
AcDbEntity
  8
_Woda
100
AcDbPoint
 62
256
 10
7569002.37934193574
 20
5714877.1924350895
  0
POINT
  5
414
100
AcDbEntity
  8
_Woda
100
AcDbPoint
 62
256
 10
7569003.04473816883
 20
5714877.06470475718
  0
POINT
  5
415
100
AcDbEntity
  8
_Woda
100
AcDbPoint
 62
256
 10
7569003.71013440192
 20
5714876.93697442487
  0
POINT
  5
416
100
AcDbEntity
  8
_Woda
100
AcDbPoint
 62
256
 10
7569004.38019489404
 20
5714877.03740410879
  0
POINT
  5
417
100
AcDbEntity
  8
_Woda
100
AcDbPoint
 62
256
 10
7569005.05025538616
 20
5714877.13783379272
  0
POINT
  5
418
100
AcDbEntity
  8
_Woda
100
AcDbPoint
 62
256
 10
7569005.71565161925
 20
5714877.0101034604
  0
POINT
  5
419
100
AcDbEntity
  8
_Woda
100
AcDbPoint
 62
256
 10
7569006.13662128616
 20
5714876.90436197445
  0
POINT
  5
41A
100
AcDbEntity
  8
_Woda
100
AcDbPoint
 62
256
 10
7569006.55304635037
 20
5714877.02678292058
  0
POINT
  5
41B
100
AcDbEntity
  8
_Woda
100
AcDbPoint
 62
256
 10
7568999.0383679932
 20
5714877.0417722119
  0
POINT
  5
41C
100
AcDbEntity
  8
_Woda
100
AcDbPoint
 62
256
 10
7568999.70842848532
 20
5714877.14220189676
  0
POINT
  5
41D
100
AcDbEntity
  8
_Woda
100
AcDbPoint
 62
256
 10
7569000.37382471841
 20
5714877.01447156444
  0
POINT
  5
41E
100
AcDbEntity
  8
_Woda
100
AcDbPoint
 62
256
 10
7569001.0392209515
 20
5714876.8867412312
  0
POINT
  5
41F
100
AcDbEntity
  8
_Woda
100
AcDbPoint
 62
256
 10
7569001.70928144362
 20
5714876.98717091512
  0
POINT
  5
420
100
AcDbEntity
  8
_Woda
100
AcDbPoint
 62
256
 10
7569002.37934193574
 20
5714877.08760059904
  0
POINT
  5
421
100
AcDbEntity
  8
_Woda
100
AcDbPoint
 62
256
 10
7569003.04473816883
 20
5714876.95987026673
  0
POINT
  5
422
100
AcDbEntity
  8
_Woda
100
AcDbPoint
 62
256
 10
7569003.71013440192
 20
5714876.83213993441
  0
POINT
  5
423
100
AcDbEntity
  8
_Woda
100
AcDbPoint
 62
256
 10
7569004.38019489404
 20
5714876.93256961834
  0
POINT
  5
424
100
AcDbEntity
  8
_Woda
100
AcDbPoint
 62
256
 10
7569005.05025538616
 20
5714877.03299930226
  0
POINT
  5
425
100
AcDbEntity
  8
_Woda
100
AcDbPoint
 62
256
 10
7569005.71565161925
 20
5714876.90526896995
  0
POINT
  5
426
100
AcDbEntity
  8
_Woda
100
AcDbPoint
 62
256
 10
7569006.13662128616
 20
5714876.79952748399
  0
POINT
  5
427
100
AcDbEntity
  8
_Woda
100
AcDbPoint
 62
256
 10
7569006.55304635037
 20
5714876.92194843013
  0
POINT
  5
428
100
AcDbEntity
  8
_Woda
100
AcDbPoint
 62
256
 10
7569039.92877947073
 20
5714843.31765093841
  0
POINT
  5
429
100
AcDbEntity
  8
_Woda
100
AcDbPoint
 62
256
 10
7569020.54738417175
 20
5714845.02777405363
  0
POINT
  5
42A
100
AcDbEntity
  8
_Woda
100
AcDbPoint
 62
256
 10
7569022.23335392866
 20
5714864.1333988281
  0
POINT
  5
42B
100
AcDbEntity
  8
_Woda
100
AcDbPoint
 62
256
 10
7569027.0045564482
 20
5714863.7120012464
  0
POINT
  5
42C
100
AcDbEntity
  8
_Woda
100
AcDbPoint
 62
256
 10
7569039.92877947073
 20
5714843.31765093841
  0
POINT
  5
42D
100
AcDbEntity
  8
_Woda
100
AcDbPoint
 62
256
 10
7569039.62124836445
 20
5714839.83117287233
  0
POINT
  5
42E
100
AcDbEntity
  8
_Woda
100
AcDbPoint
 62
256
 10
7569018.61400543992
 20
5714871.07049987838
  0
POINT
  5
42F
100
AcDbEntity
  8
_Woda
100
AcDbPoint
 62
256
 10
7569018.61400543992
 20
5714871.07049987838
  0
POINT
  5
430
100
AcDbEntity
  8
_Woda
100
AcDbPoint
 62
256
 10
7569018.61400543992
 20
5714871.07049987838
  0
POINT
  5
431
100
AcDbEntity
  8
_Woda
100
AcDbPoint
 62
256
 10
7569022.23337141145
 20
5714864.1335969409
  0
POINT
  5
432
100
AcDbEntity
  8
_Woda
100
AcDbPoint
 62
256
 10
7569018.56822342519
 20
5714870.55784176756
  0
POINT
  5
433
100
AcDbEntity
  8
_Woda
100
AcDbPoint
 62
256
 10
7569018.92814870644
 20
5714874.58821518254
  0
POINT
  5
434
100
AcDbEntity
  8
_Woda
100
AcDbPoint
 62
256
 10
7569022.59844412655
 20
5714864.10115368106
  0
POINT
  5
435
100
AcDbEntity
  8
_Woda
100
AcDbPoint
 62
256
 10
7569022.59844412655
 20
5714864.10115368106
  0
POINT
  5
436
100
AcDbEntity
  8
_Woda
100
AcDbPoint
 62
256
 10
7569022.59844412655
 20
5714864.10115368106
  0
POINT
  5
437
100
AcDbEntity
  8
_Woda
100
AcDbPoint
 62
256
 10
7569022.59844412655
 20
5714864.10115368106
  0
POINT
  5
438
100
AcDbEntity
  8
_Woda
100
AcDbPoint
 62
256
 10
7569022.59844412655
 20
5714864.10115368106
  0
POINT
  5
439
100
AcDbEntity
  8
_Woda
100
AcDbPoint
 62
256
 10
7569022.59844412655
 20
5714864.10115368106
  0
POINT
  5
43A
100
AcDbEntity
  8
_Woda
100
AcDbPoint
 62
256
 10
7569022.59844412655
 20
5714864.10115368106
  0
POINT
  5
43B
100
AcDbEntity
  8
_Woda
100
AcDbPoint
 62
256
 10
7569022.59844412655
 20
5714864.10115368106
  0
POINT
  5
43C
100
AcDbEntity
  8
_Woda
100
AcDbPoint
 62
256
 10
7569022.59844412655
 20
5714864.10115368106
  0
POINT
  5
43D
100
AcDbEntity
  8
_Woda
100
AcDbPoint
 62
256
 10
7569038.45963769592
 20
5714827.49195203371
  0
POINT
  5
43E
100
AcDbEntity
  8
_Woda
100
AcDbPoint
 62
256
 10
7569038.24718882609
 20
5714827.51070819236
  0
POINT
  5
43F
100
AcDbEntity
  8
_Woda
100
AcDbPoint
 62
256
 10
7569037.64951354545
 20
5714827.56347426493
  0
POINT
  5
440
100
AcDbEntity
  8
_Woda
100
AcDbPoint
 62
256
 10
7569035.26691562589
 20
5714827.77382316068
  0
POINT
  5
441
100
AcDbEntity
  8
_Woda
100
AcDbPoint
 62
256
 10
7569038.45963769686
 20
5714827.49195203371
  0
POINT
  5
442
100
AcDbEntity
  8
_Woda
100
AcDbPoint
 62
256
 10
7569039.54957089201
 20
5714839.83750095405
  0
POINT
  5
443
100
AcDbEntity
  8
_Woda
100
AcDbPoint
 62
256
 10
7569065.37419017032
 20
5714837.55756103434
  0
POINT
  5
444
100
AcDbEntity
  8
_Woda
100
AcDbPoint
 62
256
 10
7569040.04763362836
 20
5714839.79352925438
  0
POINT
  5
445
100
AcDbEntity
  8
_Woda
100
AcDbPoint
 62
256
 10
7569040.35978688393
 20
5714843.2764258096
  0
POINT
  5
446
100
AcDbEntity
  8
_Woda
100
AcDbPoint
 62
256
 10
7569040.35978688393
 20
5714843.2764258096
  0
POINT
  5
447
100
AcDbEntity
  8
_Woda
100
AcDbPoint
 62
256
 10
7569020.47752635181
 20
5714845.03076792415
  0
POINT
  5
448
100
AcDbEntity
  8
_Woda
100
AcDbPoint
 62
256
 10
7569022.16349610873
 20
5714864.13639269862
  0
POINT
  5
449
100
AcDbEntity
  8
_Woda
100
AcDbPoint
 62
256
 10
7569026.93469862826
 20
5714863.71499511693
  0
POINT
  5
44A
100
AcDbEntity
  8
_Woda
100
AcDbPoint
 62
256
 10
7569039.54957089201
 20
5714839.83750095405
  0
POINT
  5
44B
100
AcDbEntity
  8
_Woda
100
AcDbPoint
 62
256
 10
7569055.32451810222
 20
5714838.6008164268
  0
POINT
  5
44C
100
AcDbEntity
  8
_Woda
100
AcDbPoint
 62
256
 10
7569060.40268283244
 20
5714838.15248801745
  0
POINT
  5
44D
100
AcDbEntity
  8
_Woda
100
AcDbPoint
 62
256
 10
7569055.29718344845
 20
5714838.29119993001
  0
POINT
  5
44E
100
AcDbEntity
  8
_Woda
100
AcDbPoint
 62
256
 10
7569060.37534817867
 20
5714837.84287152067
  0
POINT
  5
44F
100
AcDbEntity
  8
_Woda
100
AcDbPoint
 62
256
 10
7569050.73361483309
 20
5714838.85011182819
  0
POINT
  5
450
100
AcDbEntity
  8
_Woda
100
AcDbPoint
 62
256
 10
7569050.69072550256
 20
5714838.31042108871
  0
POINT
  5
451
100
AcDbEntity
  8
_Woda
100
AcDbPoint
 62
256
 10
7569039.62124836445
 20
5714839.83117287233
  0
POINT
  5
452
100
AcDbEntity
  8
_Woda
100
AcDbPoint
 62
256
 10
7569037.57092255633
 20
5714827.5704127131
  0
POINT
  5
453
100
AcDbEntity
  8
_Woda
100
AcDbPoint
 62
256
 10
7569035.33859309834
 20
5714827.76749507897
  0
POINT
  5
454
100
AcDbEntity
  8
_Woda
100
AcDbPoint
 62
256
 10
7569040.42684220243
 20
5714843.27367918007
  0
POINT
  5
455
100
AcDbEntity
  8
_Woda
100
AcDbPoint
 62
256
 10
7569040.11931109615
 20
5714839.787201114
  0
POINT
  5
456
100
AcDbEntity
  8
_Woda
100
AcDbPoint
 62
256
 10
7569040.42684220243
 20
5714843.27367918007
  0
POINT
  5
457
100
AcDbEntity
  8
_Woda
100
AcDbPoint
 62
256
 10
7569020.54738417175
 20
5714845.02777405363
  0
POINT
  5
458
100
AcDbEntity
  8
_Woda
100
AcDbPoint
 62
256
 10
7569022.23335392866
 20
5714864.1333988281
  0
POINT
  5
459
100
AcDbEntity
  8
_Woda
100
AcDbPoint
 62
256
 10
7569027.0045564482
 20
5714863.7120012464
  0
POINT
  5
45A
100
AcDbEntity
  8
_Woda
100
AcDbPoint
 62
256
 10
7569035.26699999999
 20
5714827.77400000021
  0
POINT
  5
45B
100
AcDbEntity
  8
_Woda
100
AcDbPoint
 62
256
 10
7569037.94799999986
 20
5714827.53699999955
  0
POINT
  5
45C
100
AcDbEntity
  8
_Woda
100
AcDbPoint
 62
256
 10
7569038.53100000042
 20
5714827.48599999957
  0
POINT
  5
45D
100
AcDbEntity
  8
_Woda
100
AcDbPoint
 62
256
 10
7569039.62100000028
 20
5714839.83100000024
  0
POINT
  5
45E
100
AcDbEntity
  8
_Woda
100
AcDbPoint
 62
256
 10
7569040.11899999995
 20
5714839.78699999955
  0
POINT
  5
45F
100
AcDbEntity
  8
_Woda
100
AcDbPoint
 62
256
 10
7569050.73400000017
 20
5714838.84999999963
  0
POINT
  5
460
100
AcDbEntity
  8
_Woda
100
AcDbPoint
 62
256
 10
7569065.37399999984
 20
5714837.55800000019
  0
POINT
  5
461
100
AcDbEntity
  8
_Woda
100
AcDbPoint
 62
256
 10
7569040.42700000014
 20
5714843.27400000021
  0
POINT
  5
462
100
AcDbEntity
  8
_Woda
100
AcDbPoint
 62
256
 10
7569020.54700000025
 20
5714845.02799999993
  0
POINT
  5
463
100
AcDbEntity
  8
_Woda
100
AcDbPoint
 62
256
 10
7569022.23300000001
 20
5714864.13300000038
  0
POINT
  5
464
100
AcDbEntity
  8
_Woda
100
AcDbPoint
 62
256
 10
7569022.59800000023
 20
5714864.10099999979
  0
POINT
  5
465
100
AcDbEntity
  8
_Woda
100
AcDbPoint
 62
256
 10
7569027.00499999989
 20
5714863.71200000029
  0
POINT
  5
466
100
AcDbEntity
  8
_Woda
100
AcDbPoint
 62
256
 10
7569018.56799999997
 20
5714870.55800000019
  0
POINT
  5
467
100
AcDbEntity
  8
_Woda
100
AcDbPoint
 62
256
 10
7569018.61400000006
 20
5714871.0700000003
  0
POINT
  5
468
100
AcDbEntity
  8
_Woda
100
AcDbPoint
 62
256
 10
7569018.92800000031
 20
5714874.58800000045
  0
POINT
  5
469
100
AcDbEntity
  8
_Woda
100
AcDbPoint
 62
256
 10
7569049.40799999982
 20
5714838.96800000034
  0
POINT
  5
46A
100
AcDbEntity
  8
_Woda
100
AcDbPoint
 62
256
 10
7569047.86500000022
 20
5714839.10900000017
  0
TEXT
  5
46B
100
AcDbEntity
  8
NR_DZIALEK_T_0
100
AcDbText
 10
7569070.21999999601
 20
5714825.02999999654
 40
1.00
  1
6-302
 50
0.00
 41
0.78
  7
simplex.shx
 72
0
 11
7569070.21999999601
 21
5714826.02999999654
100
AcDbText
 73
3
  0
TEXT
  5
46C
100
AcDbEntity
  8
NR_DZIALEK_T_0
100
AcDbText
 10
7569021.92999999598
 20
5714898.86999999639
 40
1.00
  1
6-190
 50
0.00
 41
0.78
  7
simplex.shx
 72
0
 11
7569021.92999999598
 21
5714899.86999999639
100
AcDbText
 73
3
  0
TEXT
  5
46D
100
AcDbEntity
  8
NR_DZIALEK_T_0
100
AcDbText
 10
7569057.19999999832
 20
5714854.49999999907
 40
1.00
  1
6-191
 50
0.00
 41
0.78
  7
simplex.shx
 72
0
 11
7569057.19999999832
 21
5714855.49999999907
100
AcDbText
 73
3
  0
TEXT
  5
46E
100
AcDbEntity
  8
NR_DZIALEK_T_0
100
AcDbText
 10
7568984.19999999832
 20
5714840.39999999944
 40
1.00
  1
6-300
 50
0.00
 41
0.78
  7
simplex.shx
 72
0
 11
7568984.19999999832
 21
5714841.39999999944
100
AcDbText
 73
3
  0
TEXT
  5
46F
100
AcDbEntity
  8
NR_DZIALEK_T_0
100
AcDbText
 10
7569021.46999999881
 20
5714882.61000000034
 40
1.00
  1
6-301/1
 50
0.00
 41
0.78
  7
simplex.shx
 72
0
 11
7569021.46999999881
 21
5714883.61000000034
100
AcDbText
 73
3
  0
TEXT
  5
470
100
AcDbEntity
  8
NR_DZIALEK_T_0
100
AcDbText
 10
7569016.42999999877
 20
5714831.25
 40
1.00
  1
6-301/3
 50
0.00
 41
0.78
  7
simplex.shx
 72
0
 11
7569016.42999999877
 21
5714832.25
100
AcDbText
 73
3
  0
TEXT
  5
471
100
AcDbEntity
  8
NR_DZIALEK_T_0
100
AcDbText
 10
7569018.3499999987
 20
5714857.41000000015
 40
1.00
  1
6-301/2
 50
0.00
 41
0.78
  7
simplex.shx
 72
0
 11
7569018.3499999987
 21
5714858.41000000015
100
AcDbText
 73
3
  0
TEXT
  5
472
100
AcDbEntity
  8
NR_DZIALEK_T_0
100
AcDbText
 10
7568972.49999999627
 20
5714847.3499999959
 40
1.00
  1
6-299
 50
0.00
 41
0.78
  7
simplex.shx
 72
0
 11
7568972.49999999627
 21
5714848.3499999959
100
AcDbText
 73
3
  0
TEXT
  5
473
100
AcDbEntity
  8
NR_DZIALEK_T_0
100
AcDbText
 10
7569019.4199999962
 20
5714813.65999999642
 40
1.00
  1
6-301/4
 50
0.00
 41
0.78
  7
simplex.shx
 72
0
 11
7569019.4199999962
 21
5714814.65999999642
100
AcDbText
 73
3
  0
TEXT
  5
474
100
AcDbEntity
  8
SUGR_T_0
370
15
100
AcDbText
 39
0.15
 10
7569052.14093581773
 20
5714884.10130648222
 40
0.75
  1
118.48
 50
85.40
 41
0.66
  7
STANDARD
 72
0
 11
7569051.39335165918
 21
5714884.16145567503
100
AcDbText
 73
3
  0
TEXT
  5
475
100
AcDbEntity
  8
SUPT_E_T_0
100
AcDbText
 10
7569046.60745883267
 20
5714807.51115249842
 40
0.75
  1
t
 50
84.20
 41
0.78
  7
simplex.shx
 72
0
 11
7569045.86129830126
 21
5714807.58694472164
100
AcDbText
 73
3
  0
TEXT
  5
476
100
AcDbEntity
  8
SUPT_E_T_0
100
AcDbText
 10
7569042.9723016154
 20
5714896.77933049388
 40
0.75
  1
t
 50
355.90
 41
0.78
  7
simplex.shx
 72
0
 11
7569043.02592469845
 21
5714897.5274110809
100
AcDbText
 73
3
  0
TEXT
  5
477
100
AcDbEntity
  8
SUPT_E_T_0
100
AcDbText
 10
7569046.22412024345
 20
5714807.44753122702
 40
0.75
  1
t
 50
84.20
 41
0.78
  7
simplex.shx
 72
0
 11
7569045.47795971204
 21
5714807.52332345024
100
AcDbText
 73
3
  0
TEXT
  5
478
100
AcDbEntity
  8
SUPT_E_T_0
100
AcDbText
 10
7569068.95393130742
 20
5714910.06563774683
 40
0.75
  1
t
 50
85.10
 41
0.78
  7
simplex.shx
 72
0
 11
7569068.20667233504
 21
5714910.12970043905
100
AcDbText
 73
3
  0
TEXT
  5
479
100
AcDbEntity
  8
SUPT_E_T_0
100
AcDbText
 10
7569065.06519092713
 20
5714866.66029532533
 40
0.75
  1
t
 50
85.00
 41
0.78
  7
simplex.shx
 72
0
 11
7569064.31804490369
 21
5714866.72566213272
100
AcDbText
 73
3
  0
TEXT
  5
47A
100
AcDbEntity
  8
SUPW_E_T_2
100
AcDbText
 10
7569065.96376778465
 20
5714840.75677021872
 40
0.75
  1
w110
 50
82.80
 41
0.78
  7
simplex.shx
 72
0
 11
7569065.21968175843
 21
5714840.85077014379
100
AcDbText
 73
3
  0
TEXT
  5
47B
100
AcDbEntity
  8
SUPW_E_T_2
100
AcDbText
 10
7569065.48114825413
 20
5714839.9345688615
 40
0.75
  1
w110
 50
82.80
 41
0.78
  7
simplex.shx
 72
0
 11
7569064.73706222791
 21
5714840.02856878657
100
AcDbText
 73
3
  0
TEXT
  5
47C
100
AcDbEntity
  8
SUP_E_T_1
370
15
100
AcDbText
 39
0.15
 10
7569052.25499999989
 20
5714894.79600000009
 40
0.75
  1
g
 50
0.00
 41
0.66
  7
STANDARD
 72
0
 11
7569052.25499999989
 21
5714895.54600000009
100
AcDbText
 73
3
  0
TEXT
  5
47D
100
AcDbEntity
  8
SUTG_T_0
100
AcDbText
 10
7569046.74943199009
 20
5714821.86477961112
 40
0.75
  1
118.75
 50
85.10
 41
0.78
  7
simplex.shx
 72
0
 11
7569046.00217301771
 21
5714821.92884230334
100
AcDbText
 73
3
  0
TEXT
  5
47E
100
AcDbEntity
  8
SUTG_T_0
100
AcDbText
 10
7569046.37582380511
 20
5714821.89705847483
 40
0.75
  1
118.75
 50
85.10
 41
0.78
  7
simplex.shx
 72
0
 11
7569045.62856483273
 21
5714821.96112116706
100
AcDbText
 73
3
  0
TEXT
  5
47F
100
AcDbEntity
  8
SUTG_T_0
100
AcDbText
 10
7569051.58841285575
 20
5714881.89587129932
 40
0.75
  1
118.48
 50
85.40
 41
0.78
  7
simplex.shx
 72
0
 11
7569050.8408286972
 21
5714881.95602049213
100
AcDbText
 73
3
  0
TEXT
  5
480
100
AcDbEntity
  8
SUTR_T_0
370
15
100
AcDbText
 39
0.15
 10
7569011.99082358088
 20
5714898.61357552465
 40
0.75
  1
118.3
 50
355.90
 41
0.66
  7
STANDARD
 72
0
 11
7569012.04444666393
 21
5714899.36165611166
100
AcDbText
 73
3
  0
TEXT
  5
481
100
AcDbEntity
  8
SUTR_T_0
370
15
100
AcDbText
 39
0.15
 10
7569068.76861887984
 20
5714903.48884468153
 40
0.75
  1
118.4
 50
85.10
 41
0.66
  7
STANDARD
 72
0
 11
7569068.02135990746
 21
5714903.55290737376
100
AcDbText
 73
3
  0
TEXT
  5
482
100
AcDbEntity
  8
SUTT_T_0
100
AcDbText
 10
7569049.7978523057
 20
5714839.08398121875
 40
0.75
  1
118.8
 50
84.70
 41
0.78
  7
simplex.shx
 72
0
 11
7569049.05105878226
 21
5714839.15325915907
100
AcDbText
 73
3
  0
TEXT
  5
483
100
AcDbEntity
  8
SUTT_T_0
100
AcDbText
 10
7569062.45957187563
 20
5714832.55930361245
 40
0.75
  1
118.6
 50
85.00
 41
0.78
  7
simplex.shx
 72
0
 11
7569061.71242585219
 21
5714832.62467041984
100
AcDbText
 73
3
  0
TEXT
  5
484
100
AcDbEntity
  8
SUTT_T_0
100
AcDbText
 10
7569012.01750805415
 20
5714898.98762490321
 40
0.75
  1
118.3
 50
355.90
 41
0.78
  7
simplex.shx
 72
0
 11
7569012.0711311372
 21
5714899.73570549022
100
AcDbText
 73
3
  0
TEXT
  5
485
100
AcDbEntity
  8
SUTT_T_0
100
AcDbText
 10
7569049.42448571697
 20
5714839.11894392688
 40
0.75
  1
118.8
 50
84.70
 41
0.78
  7
simplex.shx
 72
0
 11
7569048.67769219354
 21
5714839.1882218672
100
AcDbText
 73
3
  0
TEXT
  5
486
100
AcDbEntity
  8
SUTT_T_0
100
AcDbText
 10
7569044.47397974134
 20
5714790.12784114666
 40
0.75
  1
118.7
 50
84.20
 41
0.78
  7
simplex.shx
 72
0
 11
7569043.72781920992
 21
5714790.20363336988
100
AcDbText
 73
3
  0
TEXT
  5
487
100
AcDbEntity
  8
SUTT_T_0
100
AcDbText
 10
7569068.39497878402
 20
5714903.52075205278
 40
0.75
  1
118.4
 50
85.10
 41
0.78
  7
simplex.shx
 72
0
 11
7569067.64771981165
 21
5714903.584814745
100
AcDbText
 73
3
  0
TEXT
  5
488
100
AcDbEntity
  8
SUTT_T_0
100
AcDbText
 10
7569062.08599772863
 20
5714832.59197403397
 40
0.75
  1
118.6
 50
85.00
 41
0.78
  7
simplex.shx
 72
0
 11
7569061.33885170519
 21
5714832.65734084137
100
AcDbText
 73
3
  0
TEXT
  5
489
100
AcDbEntity
  8
SUTW_T_0
100
AcDbText
 10
7569068.02714555524
 20
5714870.83306193445
 40
0.75
  1
118.10
 50
83.80
 41
0.78
  7
simplex.shx
 72
0
 11
7569067.2815323323
 21
5714870.91406145133
100
AcDbText
 73
3
  0
TEXT
  5
48A
100
AcDbEntity
  8
SUTW_T_0
100
AcDbText
 10
7569059.6645363085
 20
5714774.43484296929
 40
0.75
  1
117.70
 50
85.00
 41
0.78
  7
simplex.shx
 72
0
 11
7569058.91739028506
 21
5714774.50020977668
100
AcDbText
 73
3
  0
TEXT
  5
48B
100
AcDbEntity
  8
_Gaz
100
AcDbText
 10
7569055.6247238135
 20
5714868.33569538221
 40
0.90
  1
PRP
 50
0.00
 41
0.78
  7
Arial.ttf
 72
0
 11
7569055.6247238135
 21
5714869.23569538258
100
AcDbText
 73
3
  0
TEXT
  5
48C
100
AcDbEntity
  8
_Gaz
370
13
100
AcDbText
 39
0.13
 10
7569034.46315504517
 20
5714871.67376694363
 40
0.70
  1
g
 50
-4.60
 41
0.66
  7
STANDARD
 72
0
 11
7569034.51929429267
 21
5714872.37151215877
100
AcDbText
 73
3
  0
TEXT
  5
48D
100
AcDbEntity
  8
_Gaz
100
AcDbText
 10
7569040.42985054478
 20
5714833.60527686588
 40
0.70
  1
g
 50
355.40
 41
0.78
  7
simplex.shx
 72
0
 11
7569040.48598979227
 21
5714834.30302208103
100
AcDbText
 73
3
  0
TEXT
  5
48E
100
AcDbEntity
  8
_Gaz
100
AcDbText
 10
7569049.39150915388
 20
5714833.0172418952
 40
0.70
  1
PRP
 50
355.40
 41
0.78
  7
simplex.shx
 72
0
 11
7569049.44764840137
 21
5714833.71498711035
100
AcDbText
 73
3
  0
TEXT
  5
48F
100
AcDbEntity
  8
_Gaz
100
AcDbText
 10
7569041.68394877296
 20
5714865.76537777483
 40
0.70
  1
g
 50
355.40
 41
0.78
  7
simplex.shx
 72
0
 11
7569041.74008802045
 21
5714866.46312298998
100
AcDbText
 73
3
  0
TEXT
  5
490
100
AcDbEntity
  8
_Gaz
100
AcDbText
 10
7569055.07548411563
 20
5714864.54536832962
 40
0.90
  1
PRP
 50
0.00
 41
0.78
  7
simplex.shx
 72
0
 11
7569055.07548411563
 21
5714865.44536832999
100
AcDbText
 73
3
  0
TEXT
  5
491
100
AcDbEntity
  8
_Kanalizacja
370
13
100
AcDbText
 39
0.13
 10
7569026.07648524828
 20
5714892.05897959601
 40
0.70
  1
SZ
 50
-0.10
 41
0.66
  7
STANDARD
 72
0
 11
7569026.07770697772
 21
5714892.75897852983
100
AcDbText
 73
3
  0
TEXT
  5
492
100
AcDbEntity
  8
_Kanalizacja
370
13
100
AcDbText
 39
0.13
 10
7569025.7780471677
 20
5714882.3883313695
 40
0.70
  1
PCV DN160
 50
86.50
 41
0.66
  7
STANDARD
 72
0
 11
7569025.07935280912
 21
5714882.43106534705
100
AcDbText
 73
3
  0
TEXT
  5
493
100
AcDbEntity
  8
_Kanalizacja
370
13
100
AcDbText
 39
0.13
 10
7569025.07684383914
 20
5714880.5366244074
 40
0.70
  1
S
 50
-3.60
 41
0.66
  7
STANDARD
 72
0
 11
7569025.12079720292
 21
5714881.23524311744
100
AcDbText
 73
3
  0
TEXT
  5
494
100
AcDbEntity
  8
_Kanalizacja
370
13
100
AcDbText
 39
0.13
 10
7569037.80784893315
 20
5714835.34586031176
 40
0.70
  1
PCV DN160
 50
-4.50
 41
0.66
  7
STANDARD
 72
0
 11
7569037.86277030036
 21
5714836.04370244499
100
AcDbText
 73
3
  0
TEXT
  5
495
100
AcDbEntity
  8
_Kanalizacja
370
13
100
AcDbText
 39
0.13
 10
7569042.63197324798
 20
5714838.03376765922
 40
0.70
  1
SZ
 50
0.00
 41
0.66
  7
STANDARD
 72
0
 11
7569042.63197324798
 21
5714838.7337676594
100
AcDbText
 73
3
  0
TEXT
  5
496
100
AcDbEntity
  8
_Kanalizacja
370
13
100
AcDbText
 39
0.13
 10
7569045.25058641098
 20
5714834.12944294699
 40
0.70
  1
S
 50
-3.60
 41
0.66
  7
STANDARD
 72
0
 11
7569045.29453977477
 21
5714834.82806165703
100
AcDbText
 73
3
  0
TEXT
  5
497
100
AcDbEntity
  8
_Kanalizacja
370
13
100
AcDbText
 39
0.13
 10
7569047.70213285834
 20
5714864.73465250153
 40
0.70
  1
SZ
 50
0.20
 41
0.66
  7
STANDARD
 72
0
 11
7569047.69968940224
 21
5714865.43464823719
100
AcDbText
 73
3
  0
TEXT
  5
498
100
AcDbEntity
  8
_Kanalizacja
370
13
100
AcDbText
 39
0.13
 10
7569047.26400764752
 20
5714856.66768932622
 40
0.70
  1
S
 50
-3.60
 41
0.66
  7
STANDARD
 72
0
 11
7569047.3079610113
 21
5714857.36630803626
100
AcDbText
 73
3
  0
TEXT
  5
499
100
AcDbEntity
  8
_Kanalizacja
370
13
100
AcDbText
 39
0.13
 10
7569039.30909045134
 20
5714856.84826135915
 40
0.70
  1
PCV DN160
 50
-4.50
 41
0.66
  7
STANDARD
 72
0
 11
7569039.36401181854
 21
5714857.54610349238
100
AcDbText
 73
3
  0
TEXT
  5
49A
100
AcDbEntity
  8
_Woda
370
13
100
AcDbText
 39
0.13
 10
7568998.67781205568
 20
5714877.34910377581
 40
0.60
  1
rz.w.1%=119,41m n.p.m.
 50
0.00
 41
0.66
  7
STANDARD
 72
0
 11
7568998.67781205568
 21
5714877.94910377543
100
AcDbText
 73
3
  0
TEXT
  5
49B
100
AcDbEntity
  8
_Woda
370
15
100
AcDbText
 39
0.15
 10
7569017.76044448744
 20
5714870.87017325126
 40
0.80
  1
z
 50
0.00
 41
0.66
  7
STANDARD
 72
0
 11
7569017.76044448744
 21
5714871.67017325107
100
AcDbText
 73
3
  0
TEXT
  5
49C
100
AcDbEntity
  8
__projekt_wodociag
370
18
100
AcDbText
 39
0.18
 10
7569057.17320789117
 20
5714838.46153573133
 40
0.90
  1
-15-
 50
-5.00
 41
0.66
  7
STANDARD
 72
1
 11
7569058.04363639653
 21
5714838.08423715271
100
AcDbText
 73
1
  0
TEXT
  5
49D
100
AcDbEntity
  8
__projekt_wodociag
370
18
100
AcDbText
 39
0.18
 10
7569044.54576835316
 20
5714839.57635577116
 40
0.90
  1
-11-
 50
-5.00
 41
0.66
  7
STANDARD
 72
1
 11
7569045.41619685851
 21
5714839.19905719254
100
AcDbText
 73
1
  0
TEXT
  5
49E
100
AcDbEntity
  8
__projekt_wodociag
370
18
100
AcDbText
 39
0.18
 10
7569040.03501037601
 20
5714840.87385716941
 40
0.90
  1
-4-
 50
-275.00
 41
0.66
  7
STANDARD
 72
1
 11
7569040.39269891195
 21
5714841.52014186792
100
AcDbText
 73
1
  0
TEXT
  5
49F
100
AcDbEntity
  8
__projekt_wodociag
370
18
100
AcDbText
 39
0.18
 10
7569029.6061128052
 20
5714844.40875521488
 40
0.90
  1
-20-
 50
-5.00
 41
0.66
  7
STANDARD
 72
1
 11
7569030.47654131055
 21
5714844.03145663626
100
AcDbText
 73
1
  0
TEXT
  5
4A0
100
AcDbEntity
  8
__projekt_wodociag
370
18
100
AcDbText
 39
0.18
 10
7569021.13224478625
 20
5714853.69961280562
 40
0.90
  1
-19-
 50
-275.00
 41
0.66
  7
STANDARD
 72
1
 11
7569021.50954336487
 21
5714854.57004131097
100
AcDbText
 73
1
  0
TEXT
  5
4A1
100
AcDbEntity
  8
__projekt_wodociag
370
18
100
AcDbText
 39
0.18
 10
7569020.21899628453
 20
5714868.01998803113
 40
0.90
  1
-7-
 50
-60.00
 41
0.66
  7
STANDARD
 72
1
 11
7569020.29668866377
 21
5714867.28542088345
100
AcDbText
 73
1
  0
TEXT
  5
4A2
100
AcDbEntity
  8
__projekt_wodociag
370
18
100
AcDbText
 39
0.18
 10
7569018.35296926089
 20
5714870.15742743481
 40
0.90
  1
-1-
 50
-275.00
 41
0.66
  7
STANDARD
 72
1
 11
7569018.71065779682
 21
5714870.80371213332
100
AcDbText
 73
1
  0
TEXT
  5
4A3
100
AcDbEntity
  8
__projekt_wodociag
370
18
100
AcDbText
 39
0.18
 10
7569018.53285754845
 20
5714872.17250655126
 40
0.90
  1
-4-
 50
-275.00
 41
0.66
  7
STANDARD
 72
1
 11
7569018.89054608438
 21
5714872.81879124977
100
AcDbText
 73
1
  0
TEXT
  5
4A4
100
AcDbEntity
  8
__projekt_wodociag
370
18
100
AcDbText
 39
0.18
 10
7569023.96221180074
 20
5714864.16084520891
 40
0.90
  1
-5-
 50
-5.00
 41
0.66
  7
STANDARD
 72
1
 11
7569024.60849649925
 21
5714863.80315667298
100
AcDbText
 73
1
  0
TEXT
  5
4A5
100
AcDbEntity
  8
__projekt_wodociag
370
18
100
AcDbText
 39
0.18
 10
7569039.21353634261
 20
5714840.04733216483
 40
0.90
  1
-0-
 50
-5.00
 41
0.66
  7
STANDARD
 72
1
 11
7569039.85982104112
 21
5714839.6896436289
100
AcDbText
 73
1
  0
TEXT
  5
4A6
100
AcDbEntity
  8
__projekt_wodociag
370
18
100
AcDbText
 39
0.18
 10
7569038.81852655206
 20
5714832.77751121763
 40
0.90
  1
-12-
 50
-275.00
 41
0.66
  7
STANDARD
 72
1
 11
7569039.19582513068
 21
5714833.64793972299
100
AcDbText
 73
1
  0
TEXT
  5
4A7
100
AcDbEntity
  8
__projekt_wodociag
370
18
100
AcDbText
 39
0.18
 10
7569037.58308978938
 20
5714827.74950276222
 40
0.90
  1
-1-
 50
-5.00
 41
0.66
  7
STANDARD
 72
1
 11
7569038.22937448788
 21
5714827.39181422628
100
AcDbText
 73
1
  0
TEXT
  5
4A8
100
AcDbEntity
  8
__projekt_wodociag
370
18
100
AcDbText
 39
0.18
 10
7569035.9508900186
 20
5714827.89360236656
 40
0.90
  1
-3-
 50
-5.00
 41
0.66
  7
STANDARD
 72
1
 11
7569036.59717471711
 21
5714827.53591383062
100
AcDbText
 73
1
  0
ENDSEC
  0
SECTION
  2
OBJECTS
  0
DICTIONARY
  5
4A9
330
0
100
AcDbDictionary
280
0
281
1
  3
ACAD_GROUP
350
4AA
  3
ACAD_LAYOUT
350
4AB
  3
ACAD_MLINESTYLE
350
4AC
  3
ACAD_PLOTSETTINGS
350
4AD
  3
ACAD_PLOTSTYLENAME
350
4AE
  0
DICTIONARY
  5
4AA
102
{ACAD_REACTORS
330
4A9
102
}
330
4A9
100
AcDbDictionary
280
0
281
1
  0
DICTIONARY
  5
4AB
102
{ACAD_REACTORS
330
4A9
102
}
330
4A9
100
AcDbDictionary
280
0
281
1
  3
Layout
350
39
  3
Model
350
37
  0
DICTIONARY
  5
4AC
102
{ACAD_REACTORS
330
4A9
102
}
330
4A9
100
AcDbDictionary
280
0
281
1
  3
Standard
350
4AF
  3
L_0_02
350
7
  3
L_0_17
350
F
  0
DICTIONARY
  5
4AD
102
{ACAD_REACTORS
330
4A9
102
}
330
4A9
100
AcDbDictionary
280
0
281
1
  0
ACDBDICTIONARYWDFLT
  5
4AE
102
{ACAD_REACTORS
330
4A9
102
}
330
4A9
100
AcDbDictionary
281
1
  3
Normal
350
13
100
AcDbDictionaryWithDefault
340
13
  0
LAYOUT
  5
39
100
AcDbPlotSettings
  1

  2

  4

  6

 40
0.0
 41
0.0
 42
0.0
 43
0.0
 44
0.0
 45
0.0
 46
0.0
 47
0.0
 48
0.0
 49
0.0
140
0.0
141
0.0
142
1.0
143
1.0
 70
688
 72
1
 73
0
 74
5
  7

 75
0
147
1.0
148
0.0
149
0.0
100
AcDbLayout
  1
Layout
 70
1
 71
1
 10
0.0
 20
0.0
 11
420.0
 21
297.0
 12
0.0
 22
0.0
 32
0.0
 14
100000000000000000000.0
 24
100000000000000000000.0
 34
100000000000000000000.0
 15
-100000000000000000000.0
 25
-100000000000000000000.0
 35
-100000000000000000000.0
146
0.0
 13
0.0
 23
0.0
 33
0.0
 16
1.0
 26
0.0
 36
0.0
 17
0.0
 27
1.0
 37
0.0
 76
0
330
38
  0
LAYOUT
  5
37
100
AcDbPlotSettings
  1

  2

  4

  6

 40
0.0
 41
0.0
 42
0.0
 43
0.0
 44
0.0
 45
0.0
 46
0.0
 47
0.0
 48
0.0
 49
0.0
140
0.0
141
0.0
142
1.0
143
1.0
 70
1712
 72
1
 73
0
 74
0
  7

 75
0
147
1.0
148
0.0
149
0.0
100
AcDbLayout
  1
Model
 70
1
 71
0
 10
0.0
 20
0.0
 11
12.0
 21
9.0
 12
0.0
 22
0.0
 32
0.0
 14
0.0
 24
0.0
 34
0.0
 15
0.0
 25
0.0
 35
0.0
146
0.0
 13
0.0
 23
0.0
 33
0.0
 16
1.0
 26
0.0
 36
0.0
 17
0.0
 27
1.0
 37
0.0
 76
0
330
36
  0
MLINESTYLE
  5
4AF
102
{ACAD_REACTORS
330
4AC
102
}
330
4AC
100
AcDbMlineStyle
  2
Standard
 70
0
  3

 62
256
 51
90.0
 52
90.0
  2
Standard
 71
2
 49
0.5
 62
256
  6
ByLayer
 49
-0.5
 62
256
  6
ByLayer
  0
MLINESTYLE
  5
7
100
AcDbMlineStyle
  2
L_0_02
 70
0
  3

 51
90.0
 52
90.0
 71
1
 49
0.0
 62
256
  6
CONTINUOUS
  0
MLINESTYLE
  5
F
100
AcDbMlineStyle
  2
L_0_17
 70
0
  3

 51
90.0
 52
90.0
 71
2
 49
0.0
 62
256
  6
CONTINUOUS
 49
0.0
 62
256
  6
L_0_17_SHX
  0
ACDBPLACEHOLDER
  5
13
  0
ENDSEC
  0
EOF
