  0
SECTION
  2
HEADER
  9
$ACADVER
  1
AC1018
  9
$HANDSEED
  5
FFFFFF
  9
$EXTMAX
 10
7567920.6799999997
 20
5729721.38999999966
 30
1000000.00
  9
$EXTMIN
 10
7566241.62999999989
 20
5728515.23000000045
 30
0.00
  9
$LIMMIN
 10
7566241.62999999989
 20
5728515.23000000045
  9
$LIMMAX
 10
7567920.6799999997
 20
5729721.38999999966
  9
$DIMASZ
 40
2.5
  9
$DIMGAP
 40
0.625
  9
$INSUNITS
 70
6
  9
$MEASUREMENT
 70
1
  9
$DIMEXO
 40
0.625
  9
$DIMTXT
 40
2.5
  9
$DIMSTYLE
  2
Standard
  9
$PLIMMIN
 10
0.0
 20
0.0
  9
$PLIMMAX
 10
210.0
 20
297.0
  9
$DIMEXE
 40
1.25
  9
$TEXTSIZE
 40
2.5
  9
$TEXTSTYLE
  7
Standard
  9
$LWDISPLAY
290
1
  9
$TDCREATE
 40
45621.253305023
  9
$TDUCREATE
 40
45621.211638356
  9
$TDUPDATE
 40
45621.253305023
  9
$TDUUPDATE
 40
45621.211638356
  9
$TDINDWG
 40
0.0
  9
$TDUSRTIMER
 40
0.0
  9
$USRTIMER
 70
1
  0
ENDSEC
  0
SECTION
  2
TABLES
  0
TABLE
  2
VPORT
  5
1
100
AcDbSymbolTable
 70
1
  0
VPORT
  5
2
100
AcDbSymbolTableRecord
100
AcDbViewportTableRecord
  2
*ACTIVE
 70
0
 10
0.0
 20
0.0
 11
1.0
 21
1.0
 12
7567081.155
 22
5729118.310
 13
0.0
 23
0.0
 14
1.0
 24
1.0
 15
0.0
 25
0.0
 16
0.0
 26
0.0
 36
1.0
 17
0.0
 27
0.0
 37
0.0
 40
1206.160
 41
1.392
 42
50.0
 43
0.0
 44
0.0
 50
0.0
 51
0.0
 71
0
 72
100
 73
1
 74
1
 75
0
 76
0
 77
0
 78
0
  0
ENDTAB
  0
TABLE
  2
LTYPE
  5
3
100
AcDbSymbolTable
 70
3
  0
LTYPE
  5
4
100
AcDbSymbolTableRecord
100
AcDbLinetypeTableRecord
  2
ByBlock
 70
0
  3

 72
65
 73
0
 40
0.0
  0
LTYPE
  5
5
100
AcDbSymbolTableRecord
100
AcDbLinetypeTableRecord
  2
ByLayer
 70
0
  3

 72
65
 73
0
 40
0.0
  0
LTYPE
  5
6
100
AcDbSymbolTableRecord
100
AcDbLinetypeTableRecord
  2
CONTINUOUS
 70
0
  3
Solid line
 72
65
 73
0
 40
0.0
  0
ENDTAB
  0
TABLE
  2
LAYER
  5
7
100
AcDbSymbolTable
 70
3
  0
LAYER
  5
8
100
AcDbSymbolTableRecord
100
AcDbLayerTableRecord
  2
0
 70
0
420
0
  6
CONTINUOUS
370
18
390
9
  0
LAYER
  5
A
100
AcDbSymbolTableRecord
100
AcDbLayerTableRecord
  2
dzialka
 70
0
420
0
  6
CONTINUOUS
370
18
390
9
  0
LAYER
  5
B
100
AcDbSymbolTableRecord
100
AcDbLayerTableRecord
  2
gnojnik
 70
0
420
255
  6
CONTINUOUS
370
35
390
9
  0
ENDTAB
  0
TABLE
  2
STYLE
  5
C
100
AcDbSymbolTable
 70
2
  0
STYLE
  5
D
100
AcDbSymbolTableRecord
100
AcDbTextStyleTableRecord
  2
STANDARD
 70
0
 40
0.0
 41
1.0
 50
0.0
 71
0
  3
simplex.shx
  4

  0
STYLE
  5
E
100
AcDbSymbolTableRecord
100
AcDbTextStyleTableRecord
  2
STANDARD_ITALIC
 70
0
 40
0.0
 41
1.0
 50
15.0
 71
0
  3
simplex.shx
  4

  0
ENDTAB
  0
TABLE
  2
VIEW
  5
F
100
AcDbSymbolTable
 70
0
  0
ENDTAB
  0
TABLE
  2
UCS
  5
10
100
AcDbSymbolTable
 70
0
  0
ENDTAB
  0
TABLE
  2
APPID
  5
11
100
AcDbSymbolTable
 70
1
  0
APPID
  5
12
100
AcDbSymbolTableRecord
100
AcDbRegAppTableRecord
  2
ACAD
 70
0
  0
ENDTAB
  0
TABLE
  2
DIMSTYLE
  5
13
100
AcDbSymbolTable
 70
1
100
AcDbDimStyleTable
  0
DIMSTYLE
105
14
100
AcDbSymbolTableRecord
100
AcDbDimStyleTableRecord
  2
Standard
 70
0
340
D
  0
ENDTAB
  0
TABLE
  2
BLOCK_RECORD
  5
15
100
AcDbSymbolTable
 70
2
  0
BLOCK_RECORD
  5
16
100
AcDbSymbolTableRecord
100
AcDbBlockTableRecord
  2
*Model_Space
340
17
  0
BLOCK_RECORD
  5
18
100
AcDbSymbolTableRecord
100
AcDbBlockTableRecord
  2
*Paper_Space
340
19
  0
ENDTAB
  0
ENDSEC
  0
SECTION
  2
BLOCKS
  0
BLOCK
  5
1A
100
AcDbEntity
  8
0
100
AcDbBlockBegin
  2
*Model_Space
 70
0
 10
0.0
 20
0.0
 30
0.0
  3
*Model_Space
  1

  0
ENDBLK
  5
1B
100
AcDbEntity
  8
0
100
AcDbBlockEnd
  0
BLOCK
  5
1C
100
AcDbEntity
 67
1
  8
0
100
AcDbBlockBegin
  2
*Paper_Space
 70
0
 10
0.0
 20
0.0
 30
0.0
  3
*Paper_Space
  1

  0
ENDBLK
  5
1D
100
AcDbEntity
 67
1
  8
0
100
AcDbBlockEnd
  0
ENDSEC
  0
SECTION
  2
ENTITIES
  0
POLYLINE
  5
1E
100
AcDbEntity
  8
dzialka
  6
CONTINUOUS
370
18
100
AcDb2dPolyline
 66
1
 70
128
  0
VERTEX
  5
1F
100
AcDbEntity
  8
dzialka
100
AcDbVertex
100
AcDb2dVertex
 10
7566443.41000000015
 20
5728974.29000000004
  0
VERTEX
  5
20
100
AcDbEntity
  8
dzialka
100
AcDbVertex
100
AcDb2dVertex
 10
7566466.1799999997
 20
5729094.11000000034
  0
SEQEND
  5
21
100
AcDbEntity
  8
dzialka
  0
POLYLINE
  5
22
100
AcDbEntity
  8
dzialka
  6
CONTINUOUS
370
18
100
AcDb2dPolyline
 66
1
 70
128
  0
VERTEX
  5
23
100
AcDbEntity
  8
dzialka
100
AcDbVertex
100
AcDb2dVertex
 10
7566466.1799999997
 20
5729094.11000000034
  0
VERTEX
  5
24
100
AcDbEntity
  8
dzialka
100
AcDbVertex
100
AcDb2dVertex
 10
7566501.00999999978
 20
5729099.87000000011
  0
SEQEND
  5
25
100
AcDbEntity
  8
dzialka
  0
POLYLINE
  5
26
100
AcDbEntity
  8
dzialka
  6
CONTINUOUS
370
18
100
AcDb2dPolyline
 66
1
 70
128
  0
VERTEX
  5
27
100
AcDbEntity
  8
dzialka
100
AcDbVertex
100
AcDb2dVertex
 10
7566501.00999999978
 20
5729099.87000000011
  0
VERTEX
  5
28
100
AcDbEntity
  8
dzialka
100
AcDbVertex
100
AcDb2dVertex
 10
7566478.20999999996
 20
5728979.09999999963
  0
SEQEND
  5
29
100
AcDbEntity
  8
dzialka
  0
POLYLINE
  5
2A
100
AcDbEntity
  8
dzialka
  6
CONTINUOUS
370
18
100
AcDb2dPolyline
 66
1
 70
128
  0
VERTEX
  5
2B
100
AcDbEntity
  8
dzialka
100
AcDbVertex
100
AcDb2dVertex
 10
7566478.20999999996
 20
5728979.09999999963
  0
VERTEX
  5
2C
100
AcDbEntity
  8
dzialka
100
AcDbVertex
100
AcDb2dVertex
 10
7566443.41000000015
 20
5728974.29000000004
  0
SEQEND
  5
2D
100
AcDbEntity
  8
dzialka
  0
POLYLINE
  5
2E
100
AcDbEntity
  8
dzialka
  6
CONTINUOUS
370
18
100
AcDb2dPolyline
 66
1
 70
129
  0
VERTEX
  5
2F
100
AcDbEntity
  8
dzialka
100
AcDbVertex
100
AcDb2dVertex
 10
7566350.1799999997
 20
5729222.66999999993
  0
VERTEX
  5
30
100
AcDbEntity
  8
dzialka
100
AcDbVertex
100
AcDb2dVertex
 10
7566384.37999999989
 20
5729216.12999999989
  0
VERTEX
  5
31
100
AcDbEntity
  8
dzialka
100
AcDbVertex
100
AcDb2dVertex
 10
7566372.49000000022
 20
5729161.16000000015
  0
VERTEX
  5
32
100
AcDbEntity
  8
dzialka
100
AcDbVertex
100
AcDb2dVertex
 10
7566357.41999999993
 20
5729091.28000000026
  0
VERTEX
  5
33
100
AcDbEntity
  8
dzialka
100
AcDbVertex
100
AcDb2dVertex
 10
7566320.45999999996
 20
5729086.40000000037
  0
VERTEX
  5
34
100
AcDbEntity
  8
dzialka
100
AcDbVertex
100
AcDb2dVertex
 10
7566327.45000000019
 20
5729120.91999999993
  0
VERTEX
  5
35
100
AcDbEntity
  8
dzialka
100
AcDbVertex
100
AcDb2dVertex
 10
7566331.4299999997
 20
5729137.74000000022
  0
SEQEND
  5
36
100
AcDbEntity
  8
dzialka
  0
POLYLINE
  5
37
100
AcDbEntity
  8
dzialka
  6
CONTINUOUS
370
18
100
AcDb2dPolyline
 66
1
 70
129
  0
VERTEX
  5
38
100
AcDbEntity
  8
dzialka
100
AcDbVertex
100
AcDb2dVertex
 10
7566384.37999999989
 20
5729216.12999999989
  0
VERTEX
  5
39
100
AcDbEntity
  8
dzialka
100
AcDbVertex
100
AcDb2dVertex
 10
7566411.44000000041
 20
5729211.21999999974
  0
VERTEX
  5
3A
100
AcDbEntity
  8
dzialka
100
AcDbVertex
100
AcDb2dVertex
 10
7566386.36000000034
 20
5729094.66999999993
  0
VERTEX
  5
3B
100
AcDbEntity
  8
dzialka
100
AcDbVertex
100
AcDb2dVertex
 10
7566357.41999999993
 20
5729091.28000000026
  0
VERTEX
  5
3C
100
AcDbEntity
  8
dzialka
100
AcDbVertex
100
AcDb2dVertex
 10
7566372.49000000022
 20
5729161.16000000015
  0
SEQEND
  5
3D
100
AcDbEntity
  8
dzialka
  0
POLYLINE
  5
3E
100
AcDbEntity
  8
dzialka
  6
CONTINUOUS
370
18
100
AcDb2dPolyline
 66
1
 70
129
  0
VERTEX
  5
3F
100
AcDbEntity
  8
dzialka
100
AcDbVertex
100
AcDb2dVertex
 10
7566464.58999999985
 20
5729104.75999999978
  0
VERTEX
  5
40
100
AcDbEntity
  8
dzialka
100
AcDbVertex
100
AcDb2dVertex
 10
7566443.84999999963
 20
5729101.87000000011
  0
VERTEX
  5
41
100
AcDbEntity
  8
dzialka
100
AcDbVertex
100
AcDb2dVertex
 10
7566465.71999999974
 20
5729201.03000000026
  0
VERTEX
  5
42
100
AcDbEntity
  8
dzialka
100
AcDbVertex
100
AcDb2dVertex
 10
7566484.45999999996
 20
5729197.40000000037
  0
VERTEX
  5
43
100
AcDbEntity
  8
dzialka
100
AcDbVertex
100
AcDb2dVertex
 10
7566479.00999999978
 20
5729171.99000000022
  0
SEQEND
  5
44
100
AcDbEntity
  8
dzialka
  0
POLYLINE
  5
45
100
AcDbEntity
  8
dzialka
  6
CONTINUOUS
370
18
100
AcDb2dPolyline
 66
1
 70
129
  0
VERTEX
  5
46
100
AcDbEntity
  8
dzialka
100
AcDbVertex
100
AcDb2dVertex
 10
7566464.58999999985
 20
5729104.75999999978
  0
VERTEX
  5
47
100
AcDbEntity
  8
dzialka
100
AcDbVertex
100
AcDb2dVertex
 10
7566479.00999999978
 20
5729171.99000000022
  0
VERTEX
  5
48
100
AcDbEntity
  8
dzialka
100
AcDbVertex
100
AcDb2dVertex
 10
7566484.45999999996
 20
5729197.40000000037
  0
VERTEX
  5
49
100
AcDbEntity
  8
dzialka
100
AcDbVertex
100
AcDb2dVertex
 10
7566502.48000000045
 20
5729193.91000000015
  0
VERTEX
  5
4A
100
AcDbEntity
  8
dzialka
100
AcDbVertex
100
AcDb2dVertex
 10
7566485.71999999974
 20
5729108.0
  0
SEQEND
  5
4B
100
AcDbEntity
  8
dzialka
  0
POLYLINE
  5
4C
100
AcDbEntity
  8
dzialka
  6
CONTINUOUS
370
18
100
AcDb2dPolyline
 66
1
 70
129
  0
VERTEX
  5
4D
100
AcDbEntity
  8
dzialka
100
AcDbVertex
100
AcDb2dVertex
 10
7566511.44000000041
 20
5729219.33000000007
  0
VERTEX
  5
4E
100
AcDbEntity
  8
dzialka
100
AcDbVertex
100
AcDb2dVertex
 10
7566522.86000000034
 20
5729210.75999999978
  0
VERTEX
  5
4F
100
AcDbEntity
  8
dzialka
100
AcDbVertex
100
AcDb2dVertex
 10
7566503.25999999978
 20
5729110.58000000007
  0
VERTEX
  5
50
100
AcDbEntity
  8
dzialka
100
AcDbVertex
100
AcDb2dVertex
 10
7566485.71999999974
 20
5729108.0
  0
VERTEX
  5
51
100
AcDbEntity
  8
dzialka
100
AcDbVertex
100
AcDb2dVertex
 10
7566502.48000000045
 20
5729193.91000000015
  0
VERTEX
  5
52
100
AcDbEntity
  8
dzialka
100
AcDbVertex
100
AcDb2dVertex
 10
7566505.53000000026
 20
5729209.62000000011
  0
VERTEX
  5
53
100
AcDbEntity
  8
dzialka
100
AcDbVertex
100
AcDb2dVertex
 10
7566509.66999999992
 20
5729209.49000000022
  0
SEQEND
  5
54
100
AcDbEntity
  8
dzialka
  0
POLYLINE
  5
55
100
AcDbEntity
  8
dzialka
  6
CONTINUOUS
370
18
100
AcDb2dPolyline
 66
1
 70
129
  0
VERTEX
  5
56
100
AcDbEntity
  8
dzialka
100
AcDbVertex
100
AcDb2dVertex
 10
7566522.86000000034
 20
5729210.75999999978
  0
VERTEX
  5
57
100
AcDbEntity
  8
dzialka
100
AcDbVertex
100
AcDb2dVertex
 10
7566534.29999999981
 20
5729201.69000000041
  0
VERTEX
  5
58
100
AcDbEntity
  8
dzialka
100
AcDbVertex
100
AcDb2dVertex
 10
7566538.66000000015
 20
5729200.66999999993
  0
VERTEX
  5
59
100
AcDbEntity
  8
dzialka
100
AcDbVertex
100
AcDb2dVertex
 10
7566521.46999999974
 20
5729113.3200000003
  0
VERTEX
  5
5A
100
AcDbEntity
  8
dzialka
100
AcDbVertex
100
AcDb2dVertex
 10
7566503.25999999978
 20
5729110.58000000007
  0
SEQEND
  5
5B
100
AcDbEntity
  8
dzialka
  0
POLYLINE
  5
5C
100
AcDbEntity
  8
dzialka
  6
CONTINUOUS
370
18
100
AcDb2dPolyline
 66
1
 70
129
  0
VERTEX
  5
5D
100
AcDbEntity
  8
dzialka
100
AcDbVertex
100
AcDb2dVertex
 10
7566538.66000000015
 20
5729200.66999999993
  0
VERTEX
  5
5E
100
AcDbEntity
  8
dzialka
100
AcDbVertex
100
AcDb2dVertex
 10
7566631.21999999974
 20
5729178.95999999996
  0
VERTEX
  5
5F
100
AcDbEntity
  8
dzialka
100
AcDbVertex
100
AcDb2dVertex
 10
7566610.41000000015
 20
5729163.30999999959
  0
VERTEX
  5
60
100
AcDbEntity
  8
dzialka
100
AcDbVertex
100
AcDb2dVertex
 10
7566557.75
 20
5729123.41999999993
  0
VERTEX
  5
61
100
AcDbEntity
  8
dzialka
100
AcDbVertex
100
AcDb2dVertex
 10
7566549.36000000034
 20
5729118.66999999993
  0
VERTEX
  5
62
100
AcDbEntity
  8
dzialka
100
AcDbVertex
100
AcDb2dVertex
 10
7566521.46999999974
 20
5729113.3200000003
  0
SEQEND
  5
63
100
AcDbEntity
  8
dzialka
  0
POLYLINE
  5
64
100
AcDbEntity
  8
dzialka
  6
CONTINUOUS
370
18
100
AcDb2dPolyline
 66
1
 70
129
  0
VERTEX
  5
65
100
AcDbEntity
  8
dzialka
100
AcDbVertex
100
AcDb2dVertex
 10
7566567.12999999989
 20
5729121.16999999993
  0
VERTEX
  5
66
100
AcDbEntity
  8
dzialka
100
AcDbVertex
100
AcDb2dVertex
 10
7566614.53000000026
 20
5729157.65000000037
  0
VERTEX
  5
67
100
AcDbEntity
  8
dzialka
100
AcDbVertex
100
AcDb2dVertex
 10
7566600.54000000004
 20
5729096.5
  0
SEQEND
  5
68
100
AcDbEntity
  8
dzialka
  0
POLYLINE
  5
69
100
AcDbEntity
  8
dzialka
  6
CONTINUOUS
370
18
100
AcDb2dPolyline
 66
1
 70
129
  0
VERTEX
  5
6A
100
AcDbEntity
  8
dzialka
100
AcDbVertex
100
AcDb2dVertex
 10
7566657.29000000004
 20
5729176.9299999997
  0
VERTEX
  5
6B
100
AcDbEntity
  8
dzialka
100
AcDbVertex
100
AcDb2dVertex
 10
7566661.86000000034
 20
5729176.04000000004
  0
VERTEX
  5
6C
100
AcDbEntity
  8
dzialka
100
AcDbVertex
100
AcDb2dVertex
 10
7566677.09999999963
 20
5729173.12999999989
  0
VERTEX
  5
6D
100
AcDbEntity
  8
dzialka
100
AcDbVertex
100
AcDb2dVertex
 10
7566682.79999999981
 20
5729172.04000000004
  0
VERTEX
  5
6E
100
AcDbEntity
  8
dzialka
100
AcDbVertex
100
AcDb2dVertex
 10
7566689.95000000019
 20
5729170.66999999993
  0
VERTEX
  5
6F
100
AcDbEntity
  8
dzialka
100
AcDbVertex
100
AcDb2dVertex
 10
7566666.50999999978
 20
5729052.15000000037
  0
VERTEX
  5
70
100
AcDbEntity
  8
dzialka
100
AcDbVertex
100
AcDb2dVertex
 10
7566634.23000000045
 20
5729073.83999999985
  0
SEQEND
  5
71
100
AcDbEntity
  8
dzialka
  0
POLYLINE
  5
72
100
AcDbEntity
  8
dzialka
  6
CONTINUOUS
370
18
100
AcDb2dPolyline
 66
1
 70
129
  0
VERTEX
  5
73
100
AcDbEntity
  8
dzialka
100
AcDbVertex
100
AcDb2dVertex
 10
7566652.58999999985
 20
5729177.80999999959
  0
VERTEX
  5
74
100
AcDbEntity
  8
dzialka
100
AcDbVertex
100
AcDb2dVertex
 10
7566657.29000000004
 20
5729176.9299999997
  0
VERTEX
  5
75
100
AcDbEntity
  8
dzialka
100
AcDbVertex
100
AcDb2dVertex
 10
7566634.23000000045
 20
5729073.83999999985
  0
VERTEX
  5
76
100
AcDbEntity
  8
dzialka
100
AcDbVertex
100
AcDb2dVertex
 10
7566600.54000000004
 20
5729096.5
  0
VERTEX
  5
77
100
AcDbEntity
  8
dzialka
100
AcDbVertex
100
AcDb2dVertex
 10
7566614.53000000026
 20
5729157.65000000037
  0
VERTEX
  5
78
100
AcDbEntity
  8
dzialka
100
AcDbVertex
100
AcDb2dVertex
 10
7566639.37999999989
 20
5729174.87999999989
  0
VERTEX
  5
79
100
AcDbEntity
  8
dzialka
100
AcDbVertex
100
AcDb2dVertex
 10
7566649.00999999978
 20
5729176.45000000019
  0
VERTEX
  5
7A
100
AcDbEntity
  8
dzialka
100
AcDbVertex
100
AcDb2dVertex
 10
7566649.19000000041
 20
5729174.41000000015
  0
SEQEND
  5
7B
100
AcDbEntity
  8
dzialka
  0
POLYLINE
  5
7C
100
AcDbEntity
  8
dzialka
  6
CONTINUOUS
370
18
100
AcDb2dPolyline
 66
1
 70
129
  0
VERTEX
  5
7D
100
AcDbEntity
  8
dzialka
100
AcDbVertex
100
AcDb2dVertex
 10
7566323.71999999974
 20
5728959.61000000034
  0
VERTEX
  5
7E
100
AcDbEntity
  8
dzialka
100
AcDbVertex
100
AcDb2dVertex
 10
7566338.69000000041
 20
5729077.20999999996
  0
VERTEX
  5
7F
100
AcDbEntity
  8
dzialka
100
AcDbVertex
100
AcDb2dVertex
 10
7566368.75
 20
5729080.83000000007
  0
VERTEX
  5
80
100
AcDbEntity
  8
dzialka
100
AcDbVertex
100
AcDb2dVertex
 10
7566347.41999999993
 20
5728962.74000000022
  0
SEQEND
  5
81
100
AcDbEntity
  8
dzialka
  0
POLYLINE
  5
82
100
AcDbEntity
  8
dzialka
  6
CONTINUOUS
370
18
100
AcDb2dPolyline
 66
1
 70
129
  0
VERTEX
  5
83
100
AcDbEntity
  8
dzialka
100
AcDbVertex
100
AcDb2dVertex
 10
7566347.41999999993
 20
5728962.74000000022
  0
VERTEX
  5
84
100
AcDbEntity
  8
dzialka
100
AcDbVertex
100
AcDb2dVertex
 10
7566368.75
 20
5729080.83000000007
  0
VERTEX
  5
85
100
AcDbEntity
  8
dzialka
100
AcDbVertex
100
AcDb2dVertex
 10
7566391.95000000019
 20
5729083.62000000011
  0
VERTEX
  5
86
100
AcDbEntity
  8
dzialka
100
AcDbVertex
100
AcDb2dVertex
 10
7566368.6799999997
 20
5728965.53000000026
  0
SEQEND
  5
87
100
AcDbEntity
  8
dzialka
  0
POLYLINE
  5
88
100
AcDbEntity
  8
dzialka
  6
CONTINUOUS
370
18
100
AcDb2dPolyline
 66
1
 70
129
  0
VERTEX
  5
89
100
AcDbEntity
  8
dzialka
100
AcDbVertex
100
AcDb2dVertex
 10
7566323.71999999974
 20
5728959.61000000034
  0
VERTEX
  5
8A
100
AcDbEntity
  8
dzialka
100
AcDbVertex
100
AcDb2dVertex
 10
7566347.41999999993
 20
5728962.74000000022
  0
VERTEX
  5
8B
100
AcDbEntity
  8
dzialka
100
AcDbVertex
100
AcDb2dVertex
 10
7566368.6799999997
 20
5728965.53000000026
  0
VERTEX
  5
8C
100
AcDbEntity
  8
dzialka
100
AcDbVertex
100
AcDb2dVertex
 10
7566368.37000000011
 20
5728963.98000000045
  0
VERTEX
  5
8D
100
AcDbEntity
  8
dzialka
100
AcDbVertex
100
AcDb2dVertex
 10
7566323.51999999955
 20
5728958.0700000003
  0
SEQEND
  5
8E
100
AcDbEntity
  8
dzialka
  0
POLYLINE
  5
8F
100
AcDbEntity
  8
dzialka
  6
CONTINUOUS
370
18
100
AcDb2dPolyline
 66
1
 70
129
  0
VERTEX
  5
90
100
AcDbEntity
  8
dzialka
100
AcDbVertex
100
AcDb2dVertex
 10
7566368.6799999997
 20
5728965.53000000026
  0
VERTEX
  5
91
100
AcDbEntity
  8
dzialka
100
AcDbVertex
100
AcDb2dVertex
 10
7566391.95000000019
 20
5729083.62000000011
  0
VERTEX
  5
92
100
AcDbEntity
  8
dzialka
100
AcDbVertex
100
AcDb2dVertex
 10
7566411.33000000007
 20
5729086.61000000034
  0
VERTEX
  5
93
100
AcDbEntity
  8
dzialka
100
AcDbVertex
100
AcDb2dVertex
 10
7566387.08000000007
 20
5728966.55999999959
  0
VERTEX
  5
94
100
AcDbEntity
  8
dzialka
100
AcDbVertex
100
AcDb2dVertex
 10
7566368.37000000011
 20
5728963.98000000045
  0
SEQEND
  5
95
100
AcDbEntity
  8
dzialka
  0
POLYLINE
  5
96
100
AcDbEntity
  8
dzialka
  6
CONTINUOUS
370
18
100
AcDb2dPolyline
 66
1
 70
129
  0
VERTEX
  5
97
100
AcDbEntity
  8
dzialka
100
AcDbVertex
100
AcDb2dVertex
 10
7566387.08000000007
 20
5728966.55999999959
  0
VERTEX
  5
98
100
AcDbEntity
  8
dzialka
100
AcDbVertex
100
AcDb2dVertex
 10
7566411.33000000007
 20
5729086.61000000034
  0
VERTEX
  5
99
100
AcDbEntity
  8
dzialka
100
AcDbVertex
100
AcDb2dVertex
 10
7566429.21999999974
 20
5729089.08999999985
  0
VERTEX
  5
9A
100
AcDbEntity
  8
dzialka
100
AcDbVertex
100
AcDb2dVertex
 10
7566406.23000000045
 20
5728969.19000000041
  0
SEQEND
  5
9B
100
AcDbEntity
  8
dzialka
  0
POLYLINE
  5
9C
100
AcDbEntity
  8
dzialka
  6
CONTINUOUS
370
18
100
AcDb2dPolyline
 66
1
 70
129
  0
VERTEX
  5
9D
100
AcDbEntity
  8
dzialka
100
AcDbVertex
100
AcDb2dVertex
 10
7566406.23000000045
 20
5728969.19000000041
  0
VERTEX
  5
9E
100
AcDbEntity
  8
dzialka
100
AcDbVertex
100
AcDb2dVertex
 10
7566429.21999999974
 20
5729089.08999999985
  0
VERTEX
  5
9F
100
AcDbEntity
  8
dzialka
100
AcDbVertex
100
AcDb2dVertex
 10
7566448.46999999974
 20
5729091.58000000007
  0
VERTEX
  5
A0
100
AcDbEntity
  8
dzialka
100
AcDbVertex
100
AcDb2dVertex
 10
7566425.58000000008
 20
5728971.84999999963
  0
SEQEND
  5
A1
100
AcDbEntity
  8
dzialka
  0
POLYLINE
  5
A2
100
AcDbEntity
  8
dzialka
  6
CONTINUOUS
370
18
100
AcDb2dPolyline
 66
1
 70
129
  0
VERTEX
  5
A3
100
AcDbEntity
  8
dzialka
100
AcDbVertex
100
AcDb2dVertex
 10
7566425.58000000008
 20
5728971.84999999963
  0
VERTEX
  5
A4
100
AcDbEntity
  8
dzialka
100
AcDbVertex
100
AcDb2dVertex
 10
7566448.46999999974
 20
5729091.58000000007
  0
VERTEX
  5
A5
100
AcDbEntity
  8
dzialka
100
AcDbVertex
100
AcDb2dVertex
 10
7566466.1799999997
 20
5729094.11000000034
  0
VERTEX
  5
A6
100
AcDbEntity
  8
dzialka
100
AcDbVertex
100
AcDb2dVertex
 10
7566443.41000000015
 20
5728974.29000000004
  0
SEQEND
  5
A7
100
AcDbEntity
  8
dzialka
  0
POLYLINE
  5
A8
100
AcDbEntity
  8
dzialka
  6
CONTINUOUS
370
18
100
AcDb2dPolyline
 66
1
 70
129
  0
VERTEX
  5
A9
100
AcDbEntity
  8
dzialka
100
AcDbVertex
100
AcDb2dVertex
 10
7566478.20999999996
 20
5728979.09999999963
  0
VERTEX
  5
AA
100
AcDbEntity
  8
dzialka
100
AcDbVertex
100
AcDb2dVertex
 10
7566501.00999999978
 20
5729099.87000000011
  0
VERTEX
  5
AB
100
AcDbEntity
  8
dzialka
100
AcDbVertex
100
AcDb2dVertex
 10
7566518.53000000026
 20
5729102.8200000003
  0
VERTEX
  5
AC
100
AcDbEntity
  8
dzialka
100
AcDbVertex
100
AcDb2dVertex
 10
7566495.5
 20
5728981.19000000041
  0
SEQEND
  5
AD
100
AcDbEntity
  8
dzialka
  0
POLYLINE
  5
AE
100
AcDbEntity
  8
dzialka
  6
CONTINUOUS
370
18
100
AcDb2dPolyline
 66
1
 70
129
  0
VERTEX
  5
AF
100
AcDbEntity
  8
dzialka
100
AcDbVertex
100
AcDb2dVertex
 10
7566495.5
 20
5728981.19000000041
  0
VERTEX
  5
B0
100
AcDbEntity
  8
dzialka
100
AcDbVertex
100
AcDb2dVertex
 10
7566518.53000000026
 20
5729102.8200000003
  0
VERTEX
  5
B1
100
AcDbEntity
  8
dzialka
100
AcDbVertex
100
AcDb2dVertex
 10
7566536.09999999963
 20
5729105.79999999981
  0
VERTEX
  5
B2
100
AcDbEntity
  8
dzialka
100
AcDbVertex
100
AcDb2dVertex
 10
7566513.29000000004
 20
5728983.78000000026
  0
SEQEND
  5
B3
100
AcDbEntity
  8
dzialka
  0
POLYLINE
  5
B4
100
AcDbEntity
  8
dzialka
  6
CONTINUOUS
370
18
100
AcDb2dPolyline
 66
1
 70
129
  0
VERTEX
  5
B5
100
AcDbEntity
  8
dzialka
100
AcDbVertex
100
AcDb2dVertex
 10
7566513.29000000004
 20
5728983.78000000026
  0
VERTEX
  5
B6
100
AcDbEntity
  8
dzialka
100
AcDbVertex
100
AcDb2dVertex
 10
7566536.09999999963
 20
5729105.79999999981
  0
VERTEX
  5
B7
100
AcDbEntity
  8
dzialka
100
AcDbVertex
100
AcDb2dVertex
 10
7566558.4299999997
 20
5729109.58999999985
  0
VERTEX
  5
B8
100
AcDbEntity
  8
dzialka
100
AcDbVertex
100
AcDb2dVertex
 10
7566559.95000000019
 20
5729109.84999999963
  0
VERTEX
  5
B9
100
AcDbEntity
  8
dzialka
100
AcDbVertex
100
AcDb2dVertex
 10
7566567.86000000034
 20
5729111.20000000019
  0
VERTEX
  5
BA
100
AcDbEntity
  8
dzialka
100
AcDbVertex
100
AcDb2dVertex
 10
7566599.11000000034
 20
5729090.20000000019
  0
VERTEX
  5
BB
100
AcDbEntity
  8
dzialka
100
AcDbVertex
100
AcDb2dVertex
 10
7566579.71999999974
 20
5728993.0700000003
  0
SEQEND
  5
BC
100
AcDbEntity
  8
dzialka
  0
POLYLINE
  5
BD
100
AcDbEntity
  8
dzialka
  6
CONTINUOUS
370
18
100
AcDb2dPolyline
 66
1
 70
129
  0
VERTEX
  5
BE
100
AcDbEntity
  8
dzialka
100
AcDbVertex
100
AcDb2dVertex
 10
7566579.71999999974
 20
5728993.0700000003
  0
VERTEX
  5
BF
100
AcDbEntity
  8
dzialka
100
AcDbVertex
100
AcDb2dVertex
 10
7566599.11000000034
 20
5729090.20000000019
  0
VERTEX
  5
C0
100
AcDbEntity
  8
dzialka
100
AcDbVertex
100
AcDb2dVertex
 10
7566665.25999999978
 20
5729045.78000000026
  0
VERTEX
  5
C1
100
AcDbEntity
  8
dzialka
100
AcDbVertex
100
AcDb2dVertex
 10
7566656.95000000019
 20
5729003.70000000019
  0
SEQEND
  5
C2
100
AcDbEntity
  8
dzialka
  0
POLYLINE
  5
C3
100
AcDbEntity
  8
dzialka
  6
CONTINUOUS
370
18
100
AcDb2dPolyline
 66
1
 70
129
  0
VERTEX
  5
C4
100
AcDbEntity
  8
dzialka
100
AcDbVertex
100
AcDb2dVertex
 10
7566269.49000000022
 20
5728926.37999999989
  0
VERTEX
  5
C5
100
AcDbEntity
  8
dzialka
100
AcDbVertex
100
AcDb2dVertex
 10
7566263.73000000045
 20
5728946.25
  0
VERTEX
  5
C6
100
AcDbEntity
  8
dzialka
100
AcDbVertex
100
AcDb2dVertex
 10
7566381.53000000026
 20
5728962.54999999981
  0
VERTEX
  5
C7
100
AcDbEntity
  8
dzialka
100
AcDbVertex
100
AcDb2dVertex
 10
7566481.24000000022
 20
5728976.34999999963
  0
VERTEX
  5
C8
100
AcDbEntity
  8
dzialka
100
AcDbVertex
100
AcDb2dVertex
 10
7566400.23000000045
 20
5728599.95999999996
  0
VERTEX
  5
C9
100
AcDbEntity
  8
dzialka
100
AcDbVertex
100
AcDb2dVertex
 10
7566364.76999999955
 20
5728603.12000000011
  0
VERTEX
  5
CA
100
AcDbEntity
  8
dzialka
100
AcDbVertex
100
AcDb2dVertex
 10
7566361.84999999963
 20
5728603.37999999989
  0
SEQEND
  5
CB
100
AcDbEntity
  8
dzialka
  0
POLYLINE
  5
CC
100
AcDbEntity
  8
dzialka
  6
CONTINUOUS
370
18
100
AcDb2dPolyline
 66
1
 70
129
  0
VERTEX
  5
CD
100
AcDbEntity
  8
dzialka
100
AcDbVertex
100
AcDb2dVertex
 10
7566262.91000000015
 20
5728949.15000000037
  0
VERTEX
  5
CE
100
AcDbEntity
  8
dzialka
100
AcDbVertex
100
AcDb2dVertex
 10
7566263.29999999981
 20
5728949.20999999996
  0
VERTEX
  5
CF
100
AcDbEntity
  8
dzialka
100
AcDbVertex
100
AcDb2dVertex
 10
7566302.91999999993
 20
5728955.04000000004
  0
VERTEX
  5
D0
100
AcDbEntity
  8
dzialka
100
AcDbVertex
100
AcDb2dVertex
 10
7566323.51999999955
 20
5728958.0700000003
  0
VERTEX
  5
D1
100
AcDbEntity
  8
dzialka
100
AcDbVertex
100
AcDb2dVertex
 10
7566368.37000000011
 20
5728963.98000000045
  0
VERTEX
  5
D2
100
AcDbEntity
  8
dzialka
100
AcDbVertex
100
AcDb2dVertex
 10
7566387.08000000007
 20
5728966.55999999959
  0
VERTEX
  5
D3
100
AcDbEntity
  8
dzialka
100
AcDbVertex
100
AcDb2dVertex
 10
7566406.23000000045
 20
5728969.19000000041
  0
VERTEX
  5
D4
100
AcDbEntity
  8
dzialka
100
AcDbVertex
100
AcDb2dVertex
 10
7566425.58000000008
 20
5728971.84999999963
  0
VERTEX
  5
D5
100
AcDbEntity
  8
dzialka
100
AcDbVertex
100
AcDb2dVertex
 10
7566443.41000000015
 20
5728974.29000000004
  0
VERTEX
  5
D6
100
AcDbEntity
  8
dzialka
100
AcDbVertex
100
AcDb2dVertex
 10
7566478.20999999996
 20
5728979.09999999963
  0
VERTEX
  5
D7
100
AcDbEntity
  8
dzialka
100
AcDbVertex
100
AcDb2dVertex
 10
7566495.5
 20
5728981.19000000041
  0
VERTEX
  5
D8
100
AcDbEntity
  8
dzialka
100
AcDbVertex
100
AcDb2dVertex
 10
7566513.29000000004
 20
5728983.78000000026
  0
VERTEX
  5
D9
100
AcDbEntity
  8
dzialka
100
AcDbVertex
100
AcDb2dVertex
 10
7566579.71999999974
 20
5728993.0700000003
  0
VERTEX
  5
DA
100
AcDbEntity
  8
dzialka
100
AcDbVertex
100
AcDb2dVertex
 10
7566656.95000000019
 20
5729003.70000000019
  0
VERTEX
  5
DB
100
AcDbEntity
  8
dzialka
100
AcDbVertex
100
AcDb2dVertex
 10
7566665.25999999978
 20
5729045.78000000026
  0
VERTEX
  5
DC
100
AcDbEntity
  8
dzialka
100
AcDbVertex
100
AcDb2dVertex
 10
7566668.25
 20
5729045.45999999996
  0
VERTEX
  5
DD
100
AcDbEntity
  8
dzialka
100
AcDbVertex
100
AcDb2dVertex
 10
7566659.54000000004
 20
5729001.03000000026
  0
VERTEX
  5
DE
100
AcDbEntity
  8
dzialka
100
AcDbVertex
100
AcDb2dVertex
 10
7566656.1799999997
 20
5729000.55999999959
  0
VERTEX
  5
DF
100
AcDbEntity
  8
dzialka
100
AcDbVertex
100
AcDb2dVertex
 10
7566579.04000000004
 20
5728989.87999999989
  0
VERTEX
  5
E0
100
AcDbEntity
  8
dzialka
100
AcDbVertex
100
AcDb2dVertex
 10
7566574.69000000041
 20
5728989.28000000026
  0
VERTEX
  5
E1
100
AcDbEntity
  8
dzialka
100
AcDbVertex
100
AcDb2dVertex
 10
7566529.58000000007
 20
5728983.03000000026
  0
VERTEX
  5
E2
100
AcDbEntity
  8
dzialka
100
AcDbVertex
100
AcDb2dVertex
 10
7566481.24000000022
 20
5728976.34999999963
  0
VERTEX
  5
E3
100
AcDbEntity
  8
dzialka
100
AcDbVertex
100
AcDb2dVertex
 10
7566381.53000000026
 20
5728962.54999999981
  0
VERTEX
  5
E4
100
AcDbEntity
  8
dzialka
100
AcDbVertex
100
AcDb2dVertex
 10
7566263.73000000045
 20
5728946.25
  0
SEQEND
  5
E5
100
AcDbEntity
  8
dzialka
  0
POLYLINE
  5
E6
100
AcDbEntity
  8
dzialka
  6
CONTINUOUS
370
18
100
AcDb2dPolyline
 66
1
 70
129
  0
VERTEX
  5
E7
100
AcDbEntity
  8
dzialka
100
AcDbVertex
100
AcDb2dVertex
 10
7566400.23000000045
 20
5728599.95999999996
  0
VERTEX
  5
E8
100
AcDbEntity
  8
dzialka
100
AcDbVertex
100
AcDb2dVertex
 10
7566481.24000000022
 20
5728976.34999999963
  0
VERTEX
  5
E9
100
AcDbEntity
  8
dzialka
100
AcDbVertex
100
AcDb2dVertex
 10
7566529.58000000007
 20
5728983.03000000026
  0
VERTEX
  5
EA
100
AcDbEntity
  8
dzialka
100
AcDbVertex
100
AcDb2dVertex
 10
7566447.08000000007
 20
5728595.79000000004
  0
SEQEND
  5
EB
100
AcDbEntity
  8
dzialka
  0
POLYLINE
  5
EC
100
AcDbEntity
  8
dzialka
  6
CONTINUOUS
370
18
100
AcDb2dPolyline
 66
1
 70
129
  0
VERTEX
  5
ED
100
AcDbEntity
  8
dzialka
100
AcDbVertex
100
AcDb2dVertex
 10
7566656.1799999997
 20
5729000.55999999959
  0
VERTEX
  5
EE
100
AcDbEntity
  8
dzialka
100
AcDbVertex
100
AcDb2dVertex
 10
7566619.13999999966
 20
5728829.21999999974
  0
VERTEX
  5
EF
100
AcDbEntity
  8
dzialka
100
AcDbVertex
100
AcDb2dVertex
 10
7566566.41000000015
 20
5728585.29999999981
  0
VERTEX
  5
F0
100
AcDbEntity
  8
dzialka
100
AcDbVertex
100
AcDb2dVertex
 10
7566513.54999999981
 20
5728589.87000000011
  0
VERTEX
  5
F1
100
AcDbEntity
  8
dzialka
100
AcDbVertex
100
AcDb2dVertex
 10
7566493.78000000026
 20
5728591.71999999974
  0
VERTEX
  5
F2
100
AcDbEntity
  8
dzialka
100
AcDbVertex
100
AcDb2dVertex
 10
7566579.04000000004
 20
5728989.87999999989
  0
SEQEND
  5
F3
100
AcDbEntity
  8
dzialka
  0
POLYLINE
  5
F4
100
AcDbEntity
  8
dzialka
  6
CONTINUOUS
370
18
100
AcDb2dPolyline
 66
1
 70
129
  0
VERTEX
  5
F5
100
AcDbEntity
  8
dzialka
100
AcDbVertex
100
AcDb2dVertex
 10
7566529.58000000007
 20
5728983.03000000026
  0
VERTEX
  5
F6
100
AcDbEntity
  8
dzialka
100
AcDbVertex
100
AcDb2dVertex
 10
7566574.69000000041
 20
5728989.28000000026
  0
VERTEX
  5
F7
100
AcDbEntity
  8
dzialka
100
AcDbVertex
100
AcDb2dVertex
 10
7566579.04000000004
 20
5728989.87999999989
  0
VERTEX
  5
F8
100
AcDbEntity
  8
dzialka
100
AcDbVertex
100
AcDb2dVertex
 10
7566493.78000000026
 20
5728591.71999999974
  0
VERTEX
  5
F9
100
AcDbEntity
  8
dzialka
100
AcDbVertex
100
AcDb2dVertex
 10
7566484.24000000022
 20
5728592.48000000045
  0
VERTEX
  5
FA
100
AcDbEntity
  8
dzialka
100
AcDbVertex
100
AcDb2dVertex
 10
7566447.08000000007
 20
5728595.79000000004
  0
SEQEND
  5
FB
100
AcDbEntity
  8
dzialka
  0
POLYLINE
  5
FC
100
AcDbEntity
  8
dzialka
  6
CONTINUOUS
370
18
100
AcDb2dPolyline
 66
1
 70
129
  0
VERTEX
  5
FD
100
AcDbEntity
  8
dzialka
100
AcDbVertex
100
AcDb2dVertex
 10
7566637.6799999997
 20
5729183.9299999997
  0
VERTEX
  5
FE
100
AcDbEntity
  8
dzialka
100
AcDbVertex
100
AcDb2dVertex
 10
7566641.61000000034
 20
5729184.95000000019
  0
VERTEX
  5
FF
100
AcDbEntity
  8
dzialka
100
AcDbVertex
100
AcDb2dVertex
 10
7566649.37000000011
 20
5729186.95000000019
  0
VERTEX
  5
100
100
AcDbEntity
  8
dzialka
100
AcDbVertex
100
AcDb2dVertex
 10
7566659.66000000015
 20
5729189.61000000034
  0
VERTEX
  5
101
100
AcDbEntity
  8
dzialka
100
AcDbVertex
100
AcDb2dVertex
 10
7566669.36000000034
 20
5729192.11000000034
  0
VERTEX
  5
102
100
AcDbEntity
  8
dzialka
100
AcDbVertex
100
AcDb2dVertex
 10
7566683.48000000045
 20
5729195.75999999978
  0
VERTEX
  5
103
100
AcDbEntity
  8
dzialka
100
AcDbVertex
100
AcDb2dVertex
 10
7566689.46999999974
 20
5729197.29999999981
  0
VERTEX
  5
104
100
AcDbEntity
  8
dzialka
100
AcDbVertex
100
AcDb2dVertex
 10
7566699.54000000004
 20
5729199.90000000037
  0
VERTEX
  5
105
100
AcDbEntity
  8
dzialka
100
AcDbVertex
100
AcDb2dVertex
 10
7566708.21999999974
 20
5729202.13999999966
  0
VERTEX
  5
106
100
AcDbEntity
  8
dzialka
100
AcDbVertex
100
AcDb2dVertex
 10
7566714.25
 20
5729203.70000000019
  0
VERTEX
  5
107
100
AcDbEntity
  8
dzialka
100
AcDbVertex
100
AcDb2dVertex
 10
7566720.28000000026
 20
5729205.25999999978
  0
VERTEX
  5
108
100
AcDbEntity
  8
dzialka
100
AcDbVertex
100
AcDb2dVertex
 10
7566725.80999999959
 20
5729206.69000000041
  0
VERTEX
  5
109
100
AcDbEntity
  8
dzialka
100
AcDbVertex
100
AcDb2dVertex
 10
7566732.01999999955
 20
5729208.29000000004
  0
VERTEX
  5
10A
100
AcDbEntity
  8
dzialka
100
AcDbVertex
100
AcDb2dVertex
 10
7566737.95000000019
 20
5729209.8200000003
  0
VERTEX
  5
10B
100
AcDbEntity
  8
dzialka
100
AcDbVertex
100
AcDb2dVertex
 10
7566750.74000000022
 20
5729213.12000000011
  0
VERTEX
  5
10C
100
AcDbEntity
  8
dzialka
100
AcDbVertex
100
AcDb2dVertex
 10
7566765.54000000004
 20
5729216.95000000019
  0
VERTEX
  5
10D
100
AcDbEntity
  8
dzialka
100
AcDbVertex
100
AcDb2dVertex
 10
7566769.73000000045
 20
5729218.03000000026
  0
VERTEX
  5
10E
100
AcDbEntity
  8
dzialka
100
AcDbVertex
100
AcDb2dVertex
 10
7566773.34999999963
 20
5729218.95999999996
  0
VERTEX
  5
10F
100
AcDbEntity
  8
dzialka
100
AcDbVertex
100
AcDb2dVertex
 10
7566787.95000000019
 20
5729222.73000000045
  0
VERTEX
  5
110
100
AcDbEntity
  8
dzialka
100
AcDbVertex
100
AcDb2dVertex
 10
7566792.04999999981
 20
5729223.79000000004
  0
VERTEX
  5
111
100
AcDbEntity
  8
dzialka
100
AcDbVertex
100
AcDb2dVertex
 10
7566796.75999999978
 20
5729225.0
  0
VERTEX
  5
112
100
AcDbEntity
  8
dzialka
100
AcDbVertex
100
AcDb2dVertex
 10
7566800.9299999997
 20
5729226.08000000007
  0
VERTEX
  5
113
100
AcDbEntity
  8
dzialka
100
AcDbVertex
100
AcDb2dVertex
 10
7566809.44000000041
 20
5729228.28000000026
  0
VERTEX
  5
114
100
AcDbEntity
  8
dzialka
100
AcDbVertex
100
AcDb2dVertex
 10
7566811.90000000037
 20
5729228.91999999993
  0
VERTEX
  5
115
100
AcDbEntity
  8
dzialka
100
AcDbVertex
100
AcDb2dVertex
 10
7566821.63999999966
 20
5729231.4299999997
  0
VERTEX
  5
116
100
AcDbEntity
  8
dzialka
100
AcDbVertex
100
AcDb2dVertex
 10
7566830.16999999993
 20
5729233.63999999966
  0
VERTEX
  5
117
100
AcDbEntity
  8
dzialka
100
AcDbVertex
100
AcDb2dVertex
 10
7566839.70000000019
 20
5729236.09999999963
  0
VERTEX
  5
118
100
AcDbEntity
  8
dzialka
100
AcDbVertex
100
AcDb2dVertex
 10
7566857.90000000037
 20
5729240.79999999981
  0
VERTEX
  5
119
100
AcDbEntity
  8
dzialka
100
AcDbVertex
100
AcDb2dVertex
 10
7566867.33000000007
 20
5729243.23000000045
  0
VERTEX
  5
11A
100
AcDbEntity
  8
dzialka
100
AcDbVertex
100
AcDb2dVertex
 10
7566877.5
 20
5729245.86000000034
  0
VERTEX
  5
11B
100
AcDbEntity
  8
dzialka
100
AcDbVertex
100
AcDb2dVertex
 10
7566888.66000000015
 20
5729248.74000000022
  0
VERTEX
  5
11C
100
AcDbEntity
  8
dzialka
100
AcDbVertex
100
AcDb2dVertex
 10
7566897.63999999966
 20
5729251.05999999959
  0
VERTEX
  5
11D
100
AcDbEntity
  8
dzialka
100
AcDbVertex
100
AcDb2dVertex
 10
7566901.40000000037
 20
5729252.03000000026
  0
VERTEX
  5
11E
100
AcDbEntity
  8
dzialka
100
AcDbVertex
100
AcDb2dVertex
 10
7566911.04000000004
 20
5729254.51999999955
  0
VERTEX
  5
11F
100
AcDbEntity
  8
dzialka
100
AcDbVertex
100
AcDb2dVertex
 10
7566914.00999999978
 20
5729255.29000000004
  0
VERTEX
  5
120
100
AcDbEntity
  8
dzialka
100
AcDbVertex
100
AcDb2dVertex
 10
7567003.41000000015
 20
5729278.61000000034
  0
VERTEX
  5
121
100
AcDbEntity
  8
dzialka
100
AcDbVertex
100
AcDb2dVertex
 10
7567009.08999999985
 20
5729280.05999999959
  0
VERTEX
  5
122
100
AcDbEntity
  8
dzialka
100
AcDbVertex
100
AcDb2dVertex
 10
7567129.46999999974
 20
5729312.25
  0
VERTEX
  5
123
100
AcDbEntity
  8
dzialka
100
AcDbVertex
100
AcDb2dVertex
 10
7567182.36000000034
 20
5729325.99000000022
  0
VERTEX
  5
124
100
AcDbEntity
  8
dzialka
100
AcDbVertex
100
AcDb2dVertex
 10
7567185.34999999963
 20
5729326.71999999974
  0
VERTEX
  5
125
100
AcDbEntity
  8
dzialka
100
AcDbVertex
100
AcDb2dVertex
 10
7567190.23000000045
 20
5729327.90000000037
  0
VERTEX
  5
126
100
AcDbEntity
  8
dzialka
100
AcDbVertex
100
AcDb2dVertex
 10
7567259.28000000026
 20
5729342.04000000004
  0
VERTEX
  5
127
100
AcDbEntity
  8
dzialka
100
AcDbVertex
100
AcDb2dVertex
 10
7567318.84999999963
 20
5729358.90000000037
  0
VERTEX
  5
128
100
AcDbEntity
  8
dzialka
100
AcDbVertex
100
AcDb2dVertex
 10
7567322.12000000011
 20
5729359.83000000007
  0
VERTEX
  5
129
100
AcDbEntity
  8
dzialka
100
AcDbVertex
100
AcDb2dVertex
 10
7567528.15000000037
 20
5729419.11000000034
  0
VERTEX
  5
12A
100
AcDbEntity
  8
dzialka
100
AcDbVertex
100
AcDb2dVertex
 10
7567531.99000000022
 20
5729420.23000000045
  0
VERTEX
  5
12B
100
AcDbEntity
  8
dzialka
100
AcDbVertex
100
AcDb2dVertex
 10
7567546.33999999985
 20
5729431.8200000003
  0
VERTEX
  5
12C
100
AcDbEntity
  8
dzialka
100
AcDbVertex
100
AcDb2dVertex
 10
7567601.50999999978
 20
5729476.65000000037
  0
VERTEX
  5
12D
100
AcDbEntity
  8
dzialka
100
AcDbVertex
100
AcDb2dVertex
 10
7567616.25999999978
 20
5729491.5700000003
  0
VERTEX
  5
12E
100
AcDbEntity
  8
dzialka
100
AcDbVertex
100
AcDb2dVertex
 10
7567641.65000000037
 20
5729517.16000000015
  0
VERTEX
  5
12F
100
AcDbEntity
  8
dzialka
100
AcDbVertex
100
AcDb2dVertex
 10
7567645.58999999985
 20
5729521.12999999989
  0
VERTEX
  5
130
100
AcDbEntity
  8
dzialka
100
AcDbVertex
100
AcDb2dVertex
 10
7567664.20000000019
 20
5729539.88999999966
  0
VERTEX
  5
131
100
AcDbEntity
  8
dzialka
100
AcDbVertex
100
AcDb2dVertex
 10
7567677.29000000004
 20
5729551.66000000015
  0
VERTEX
  5
132
100
AcDbEntity
  8
dzialka
100
AcDbVertex
100
AcDb2dVertex
 10
7567693.80999999959
 20
5729564.95999999996
  0
VERTEX
  5
133
100
AcDbEntity
  8
dzialka
100
AcDbVertex
100
AcDb2dVertex
 10
7567705.0700000003
 20
5729572.54999999981
  0
VERTEX
  5
134
100
AcDbEntity
  8
dzialka
100
AcDbVertex
100
AcDb2dVertex
 10
7567744.21999999974
 20
5729598.91999999993
  0
VERTEX
  5
135
100
AcDbEntity
  8
dzialka
100
AcDbVertex
100
AcDb2dVertex
 10
7567761.59999999963
 20
5729611.62000000011
  0
VERTEX
  5
136
100
AcDbEntity
  8
dzialka
100
AcDbVertex
100
AcDb2dVertex
 10
7567777.20999999996
 20
5729623.03000000026
  0
VERTEX
  5
137
100
AcDbEntity
  8
dzialka
100
AcDbVertex
100
AcDb2dVertex
 10
7567791.04999999981
 20
5729633.13999999966
  0
VERTEX
  5
138
100
AcDbEntity
  8
dzialka
100
AcDbVertex
100
AcDb2dVertex
 10
7567819.21999999974
 20
5729653.71999999974
  0
VERTEX
  5
139
100
AcDbEntity
  8
dzialka
100
AcDbVertex
100
AcDb2dVertex
 10
7567833.50999999978
 20
5729664.21999999974
  0
VERTEX
  5
13A
100
AcDbEntity
  8
dzialka
100
AcDbVertex
100
AcDb2dVertex
 10
7567836.58000000007
 20
5729666.48000000045
  0
VERTEX
  5
13B
100
AcDbEntity
  8
dzialka
100
AcDbVertex
100
AcDb2dVertex
 10
7567844.48000000045
 20
5729672.26999999955
  0
VERTEX
  5
13C
100
AcDbEntity
  8
dzialka
100
AcDbVertex
100
AcDb2dVertex
 10
7567845.80999999959
 20
5729673.24000000022
  0
VERTEX
  5
13D
100
AcDbEntity
  8
dzialka
100
AcDbVertex
100
AcDb2dVertex
 10
7567851.95000000019
 20
5729677.75999999978
  0
VERTEX
  5
13E
100
AcDbEntity
  8
dzialka
100
AcDbVertex
100
AcDb2dVertex
 10
7567859.54000000004
 20
5729683.25999999978
  0
VERTEX
  5
13F
100
AcDbEntity
  8
dzialka
100
AcDbVertex
100
AcDb2dVertex
 10
7567870.5
 20
5729691.20000000019
  0
VERTEX
  5
140
100
AcDbEntity
  8
dzialka
100
AcDbVertex
100
AcDb2dVertex
 10
7567880.71999999974
 20
5729698.8200000003
  0
VERTEX
  5
141
100
AcDbEntity
  8
dzialka
100
AcDbVertex
100
AcDb2dVertex
 10
7567886.01999999955
 20
5729702.76999999955
  0
VERTEX
  5
142
100
AcDbEntity
  8
dzialka
100
AcDbVertex
100
AcDb2dVertex
 10
7567891.33000000007
 20
5729706.71999999974
  0
VERTEX
  5
143
100
AcDbEntity
  8
dzialka
100
AcDbVertex
100
AcDb2dVertex
 10
7567911.01999999955
 20
5729721.38999999966
  0
VERTEX
  5
144
100
AcDbEntity
  8
dzialka
100
AcDbVertex
100
AcDb2dVertex
 10
7567920.6799999997
 20
5729717.76999999955
  0
VERTEX
  5
145
100
AcDbEntity
  8
dzialka
100
AcDbVertex
100
AcDb2dVertex
 10
7567871.83999999985
 20
5729680.44000000041
  0
VERTEX
  5
146
100
AcDbEntity
  8
dzialka
100
AcDbVertex
100
AcDb2dVertex
 10
7567823.73000000045
 20
5729644.79000000004
  0
VERTEX
  5
147
100
AcDbEntity
  8
dzialka
100
AcDbVertex
100
AcDb2dVertex
 10
7567811.19000000041
 20
5729635.66000000015
  0
VERTEX
  5
148
100
AcDbEntity
  8
dzialka
100
AcDbVertex
100
AcDb2dVertex
 10
7567798.33999999985
 20
5729626.30999999959
  0
VERTEX
  5
149
100
AcDbEntity
  8
dzialka
100
AcDbVertex
100
AcDb2dVertex
 10
7567777.04000000004
 20
5729610.80999999959
  0
VERTEX
  5
14A
100
AcDbEntity
  8
dzialka
100
AcDbVertex
100
AcDb2dVertex
 10
7567758.62000000011
 20
5729597.40000000037
  0
VERTEX
  5
14B
100
AcDbEntity
  8
dzialka
100
AcDbVertex
100
AcDb2dVertex
 10
7567749.30999999959
 20
5729590.62999999989
  0
VERTEX
  5
14C
100
AcDbEntity
  8
dzialka
100
AcDbVertex
100
AcDb2dVertex
 10
7567739.37999999989
 20
5729583.87999999989
  0
VERTEX
  5
14D
100
AcDbEntity
  8
dzialka
100
AcDbVertex
100
AcDb2dVertex
 10
7567722.75999999978
 20
5729572.59999999963
  0
VERTEX
  5
14E
100
AcDbEntity
  8
dzialka
100
AcDbVertex
100
AcDb2dVertex
 10
7567706.5
 20
5729561.40000000037
  0
VERTEX
  5
14F
100
AcDbEntity
  8
dzialka
100
AcDbVertex
100
AcDb2dVertex
 10
7567704.20999999996
 20
5729559.75
  0
VERTEX
  5
150
100
AcDbEntity
  8
dzialka
100
AcDbVertex
100
AcDb2dVertex
 10
7567698.90000000037
 20
5729555.91000000015
  0
VERTEX
  5
151
100
AcDbEntity
  8
dzialka
100
AcDbVertex
100
AcDb2dVertex
 10
7567694.87999999989
 20
5729552.66999999993
  0
VERTEX
  5
152
100
AcDbEntity
  8
dzialka
100
AcDbVertex
100
AcDb2dVertex
 10
7567693.25999999978
 20
5729551.37999999989
  0
VERTEX
  5
153
100
AcDbEntity
  8
dzialka
100
AcDbVertex
100
AcDb2dVertex
 10
7567690.44000000041
 20
5729549.11000000034
  0
VERTEX
  5
154
100
AcDbEntity
  8
dzialka
100
AcDbVertex
100
AcDb2dVertex
 10
7567684.37999999989
 20
5729544.21999999974
  0
VERTEX
  5
155
100
AcDbEntity
  8
dzialka
100
AcDbVertex
100
AcDb2dVertex
 10
7567680.62999999989
 20
5729540.87999999989
  0
VERTEX
  5
156
100
AcDbEntity
  8
dzialka
100
AcDbVertex
100
AcDb2dVertex
 10
7567663.59999999963
 20
5729524.03000000026
  0
VERTEX
  5
157
100
AcDbEntity
  8
dzialka
100
AcDbVertex
100
AcDb2dVertex
 10
7567654.45999999996
 20
5729514.99000000022
  0
VERTEX
  5
158
100
AcDbEntity
  8
dzialka
100
AcDbVertex
100
AcDb2dVertex
 10
7567652.9299999997
 20
5729513.46999999974
  0
VERTEX
  5
159
100
AcDbEntity
  8
dzialka
100
AcDbVertex
100
AcDb2dVertex
 10
7567648.45999999996
 20
5729509.04999999981
  0
VERTEX
  5
15A
100
AcDbEntity
  8
dzialka
100
AcDbVertex
100
AcDb2dVertex
 10
7567642.54000000004
 20
5729503.19000000041
  0
VERTEX
  5
15B
100
AcDbEntity
  8
dzialka
100
AcDbVertex
100
AcDb2dVertex
 10
7567636.33000000007
 20
5729497.04999999981
  0
VERTEX
  5
15C
100
AcDbEntity
  8
dzialka
100
AcDbVertex
100
AcDb2dVertex
 10
7567630.40000000037
 20
5729491.1799999997
  0
VERTEX
  5
15D
100
AcDbEntity
  8
dzialka
100
AcDbVertex
100
AcDb2dVertex
 10
7567625.08999999985
 20
5729485.9299999997
  0
VERTEX
  5
15E
100
AcDbEntity
  8
dzialka
100
AcDbVertex
100
AcDb2dVertex
 10
7567619.63999999966
 20
5729480.53000000026
  0
VERTEX
  5
15F
100
AcDbEntity
  8
dzialka
100
AcDbVertex
100
AcDb2dVertex
 10
7567616.91000000015
 20
5729477.83999999985
  0
VERTEX
  5
160
100
AcDbEntity
  8
dzialka
100
AcDbVertex
100
AcDb2dVertex
 10
7567614.19000000041
 20
5729475.13999999966
  0
VERTEX
  5
161
100
AcDbEntity
  8
dzialka
100
AcDbVertex
100
AcDb2dVertex
 10
7567607.70000000019
 20
5729468.74000000022
  0
VERTEX
  5
162
100
AcDbEntity
  8
dzialka
100
AcDbVertex
100
AcDb2dVertex
 10
7567591.79000000004
 20
5729455.91000000015
  0
VERTEX
  5
163
100
AcDbEntity
  8
dzialka
100
AcDbVertex
100
AcDb2dVertex
 10
7567575.95000000019
 20
5729443.13999999966
  0
VERTEX
  5
164
100
AcDbEntity
  8
dzialka
100
AcDbVertex
100
AcDb2dVertex
 10
7567566.91000000015
 20
5729435.84999999963
  0
VERTEX
  5
165
100
AcDbEntity
  8
dzialka
100
AcDbVertex
100
AcDb2dVertex
 10
7567562.20999999996
 20
5729432.05999999959
  0
VERTEX
  5
166
100
AcDbEntity
  8
dzialka
100
AcDbVertex
100
AcDb2dVertex
 10
7567557.59999999963
 20
5729428.33999999985
  0
VERTEX
  5
167
100
AcDbEntity
  8
dzialka
100
AcDbVertex
100
AcDb2dVertex
 10
7567551.95000000019
 20
5729423.79000000004
  0
VERTEX
  5
168
100
AcDbEntity
  8
dzialka
100
AcDbVertex
100
AcDb2dVertex
 10
7567536.62999999989
 20
5729411.4299999997
  0
VERTEX
  5
169
100
AcDbEntity
  8
dzialka
100
AcDbVertex
100
AcDb2dVertex
 10
7567532.79000000004
 20
5729410.3200000003
  0
VERTEX
  5
16A
100
AcDbEntity
  8
dzialka
100
AcDbVertex
100
AcDb2dVertex
 10
7567261.98000000045
 20
5729332.29000000004
  0
VERTEX
  5
16B
100
AcDbEntity
  8
dzialka
100
AcDbVertex
100
AcDb2dVertex
 10
7567192.9299999997
 20
5729318.15000000037
  0
VERTEX
  5
16C
100
AcDbEntity
  8
dzialka
100
AcDbVertex
100
AcDb2dVertex
 10
7567133.23000000045
 20
5729302.3200000003
  0
VERTEX
  5
16D
100
AcDbEntity
  8
dzialka
100
AcDbVertex
100
AcDb2dVertex
 10
7566981.01999999955
 20
5729262.0
  0
VERTEX
  5
16E
100
AcDbEntity
  8
dzialka
100
AcDbVertex
100
AcDb2dVertex
 10
7566915.74000000022
 20
5729245.25999999978
  0
VERTEX
  5
16F
100
AcDbEntity
  8
dzialka
100
AcDbVertex
100
AcDb2dVertex
 10
7566909.98000000045
 20
5729243.78000000026
  0
VERTEX
  5
170
100
AcDbEntity
  8
dzialka
100
AcDbVertex
100
AcDb2dVertex
 10
7566899.87000000011
 20
5729241.19000000041
  0
VERTEX
  5
171
100
AcDbEntity
  8
dzialka
100
AcDbVertex
100
AcDb2dVertex
 10
7566894.9299999997
 20
5729239.91999999993
  0
VERTEX
  5
172
100
AcDbEntity
  8
dzialka
100
AcDbVertex
100
AcDb2dVertex
 10
7566890.83999999985
 20
5729238.87999999989
  0
VERTEX
  5
173
100
AcDbEntity
  8
dzialka
100
AcDbVertex
100
AcDb2dVertex
 10
7566886.51999999955
 20
5729237.76999999955
  0
VERTEX
  5
174
100
AcDbEntity
  8
dzialka
100
AcDbVertex
100
AcDb2dVertex
 10
7566875.37999999989
 20
5729234.91999999993
  0
VERTEX
  5
175
100
AcDbEntity
  8
dzialka
100
AcDbVertex
100
AcDb2dVertex
 10
7566866.0700000003
 20
5729232.53000000026
  0
VERTEX
  5
176
100
AcDbEntity
  8
dzialka
100
AcDbVertex
100
AcDb2dVertex
 10
7566856.20999999996
 20
5729230.00999999978
  0
VERTEX
  5
177
100
AcDbEntity
  8
dzialka
100
AcDbVertex
100
AcDb2dVertex
 10
7566837.04000000004
 20
5729225.08999999985
  0
VERTEX
  5
178
100
AcDbEntity
  8
dzialka
100
AcDbVertex
100
AcDb2dVertex
 10
7566826.75999999978
 20
5729222.45000000019
  0
VERTEX
  5
179
100
AcDbEntity
  8
dzialka
100
AcDbVertex
100
AcDb2dVertex
 10
7566817.41000000015
 20
5729220.05999999959
  0
VERTEX
  5
17A
100
AcDbEntity
  8
dzialka
100
AcDbVertex
100
AcDb2dVertex
 10
7566807.73000000045
 20
5729217.5700000003
  0
VERTEX
  5
17B
100
AcDbEntity
  8
dzialka
100
AcDbVertex
100
AcDb2dVertex
 10
7566804.49000000022
 20
5729216.74000000022
  0
VERTEX
  5
17C
100
AcDbEntity
  8
dzialka
100
AcDbVertex
100
AcDb2dVertex
 10
7566797.66000000015
 20
5729214.99000000022
  0
VERTEX
  5
17D
100
AcDbEntity
  8
dzialka
100
AcDbVertex
100
AcDb2dVertex
 10
7566789.05999999959
 20
5729212.79000000004
  0
VERTEX
  5
17E
100
AcDbEntity
  8
dzialka
100
AcDbVertex
100
AcDb2dVertex
 10
7566783.46999999974
 20
5729211.36000000034
  0
VERTEX
  5
17F
100
AcDbEntity
  8
dzialka
100
AcDbVertex
100
AcDb2dVertex
 10
7566777.62000000011
 20
5729209.86000000034
  0
VERTEX
  5
180
100
AcDbEntity
  8
dzialka
100
AcDbVertex
100
AcDb2dVertex
 10
7566767.99000000022
 20
5729207.38999999966
  0
VERTEX
  5
181
100
AcDbEntity
  8
dzialka
100
AcDbVertex
100
AcDb2dVertex
 10
7566764.16999999993
 20
5729206.41000000015
  0
VERTEX
  5
182
100
AcDbEntity
  8
dzialka
100
AcDbVertex
100
AcDb2dVertex
 10
7566759.37000000011
 20
5729205.1799999997
  0
VERTEX
  5
183
100
AcDbEntity
  8
dzialka
100
AcDbVertex
100
AcDb2dVertex
 10
7566746.76999999955
 20
5729201.95000000019
  0
VERTEX
  5
184
100
AcDbEntity
  8
dzialka
100
AcDbVertex
100
AcDb2dVertex
 10
7566733.3200000003
 20
5729198.5
  0
VERTEX
  5
185
100
AcDbEntity
  8
dzialka
100
AcDbVertex
100
AcDb2dVertex
 10
7566727.73000000045
 20
5729197.0700000003
  0
VERTEX
  5
186
100
AcDbEntity
  8
dzialka
100
AcDbVertex
100
AcDb2dVertex
 10
7566720.87999999989
 20
5729195.30999999959
  0
VERTEX
  5
187
100
AcDbEntity
  8
dzialka
100
AcDbVertex
100
AcDb2dVertex
 10
7566715.46999999974
 20
5729193.9299999997
  0
VERTEX
  5
188
100
AcDbEntity
  8
dzialka
100
AcDbVertex
100
AcDb2dVertex
 10
7566708.45999999996
 20
5729192.12999999989
  0
VERTEX
  5
189
100
AcDbEntity
  8
dzialka
100
AcDbVertex
100
AcDb2dVertex
 10
7566705.65000000037
 20
5729191.41000000015
  0
VERTEX
  5
18A
100
AcDbEntity
  8
dzialka
100
AcDbVertex
100
AcDb2dVertex
 10
7566702.71999999974
 20
5729190.66000000015
  0
VERTEX
  5
18B
100
AcDbEntity
  8
dzialka
100
AcDbVertex
100
AcDb2dVertex
 10
7566694.83000000007
 20
5729188.63999999966
  0
VERTEX
  5
18C
100
AcDbEntity
  8
dzialka
100
AcDbVertex
100
AcDb2dVertex
 10
7566684.70000000019
 20
5729186.11000000034
  0
VERTEX
  5
18D
100
AcDbEntity
  8
dzialka
100
AcDbVertex
100
AcDb2dVertex
 10
7566679.08999999985
 20
5729184.59999999963
  0
VERTEX
  5
18E
100
AcDbEntity
  8
dzialka
100
AcDbVertex
100
AcDb2dVertex
 10
7566662.54000000004
 20
5729180.36000000034
  0
VERTEX
  5
18F
100
AcDbEntity
  8
dzialka
100
AcDbVertex
100
AcDb2dVertex
 10
7566652.58999999985
 20
5729177.80999999959
  0
VERTEX
  5
190
100
AcDbEntity
  8
dzialka
100
AcDbVertex
100
AcDb2dVertex
 10
7566649.19000000041
 20
5729174.41000000015
  0
VERTEX
  5
191
100
AcDbEntity
  8
dzialka
100
AcDbVertex
100
AcDb2dVertex
 10
7566649.00999999978
 20
5729176.45000000019
  0
VERTEX
  5
192
100
AcDbEntity
  8
dzialka
100
AcDbVertex
100
AcDb2dVertex
 10
7566639.37999999989
 20
5729174.87999999989
  0
VERTEX
  5
193
100
AcDbEntity
  8
dzialka
100
AcDbVertex
100
AcDb2dVertex
 10
7566614.53000000026
 20
5729157.65000000037
  0
VERTEX
  5
194
100
AcDbEntity
  8
dzialka
100
AcDbVertex
100
AcDb2dVertex
 10
7566567.12999999989
 20
5729121.16999999993
  0
VERTEX
  5
195
100
AcDbEntity
  8
dzialka
100
AcDbVertex
100
AcDb2dVertex
 10
7566558.4299999997
 20
5729109.58999999985
  0
VERTEX
  5
196
100
AcDbEntity
  8
dzialka
100
AcDbVertex
100
AcDb2dVertex
 10
7566536.09999999963
 20
5729105.79999999981
  0
VERTEX
  5
197
100
AcDbEntity
  8
dzialka
100
AcDbVertex
100
AcDb2dVertex
 10
7566518.53000000026
 20
5729102.8200000003
  0
VERTEX
  5
198
100
AcDbEntity
  8
dzialka
100
AcDbVertex
100
AcDb2dVertex
 10
7566501.00999999978
 20
5729099.87000000011
  0
VERTEX
  5
199
100
AcDbEntity
  8
dzialka
100
AcDbVertex
100
AcDb2dVertex
 10
7566466.1799999997
 20
5729094.11000000034
  0
VERTEX
  5
19A
100
AcDbEntity
  8
dzialka
100
AcDbVertex
100
AcDb2dVertex
 10
7566448.46999999974
 20
5729091.58000000007
  0
VERTEX
  5
19B
100
AcDbEntity
  8
dzialka
100
AcDbVertex
100
AcDb2dVertex
 10
7566429.21999999974
 20
5729089.08999999985
  0
VERTEX
  5
19C
100
AcDbEntity
  8
dzialka
100
AcDbVertex
100
AcDb2dVertex
 10
7566411.33000000007
 20
5729086.61000000034
  0
VERTEX
  5
19D
100
AcDbEntity
  8
dzialka
100
AcDbVertex
100
AcDb2dVertex
 10
7566391.95000000019
 20
5729083.62000000011
  0
VERTEX
  5
19E
100
AcDbEntity
  8
dzialka
100
AcDbVertex
100
AcDb2dVertex
 10
7566368.75
 20
5729080.83000000007
  0
VERTEX
  5
19F
100
AcDbEntity
  8
dzialka
100
AcDbVertex
100
AcDb2dVertex
 10
7566338.69000000041
 20
5729077.20999999996
  0
VERTEX
  5
1A0
100
AcDbEntity
  8
dzialka
100
AcDbVertex
100
AcDb2dVertex
 10
7566318.20999999996
 20
5729074.78000000026
  0
VERTEX
  5
1A1
100
AcDbEntity
  8
dzialka
100
AcDbVertex
100
AcDb2dVertex
 10
7566275.83999999985
 20
5729068.61000000034
  0
VERTEX
  5
1A2
100
AcDbEntity
  8
dzialka
100
AcDbVertex
100
AcDb2dVertex
 10
7566254.11000000034
 20
5729065.61000000034
  0
VERTEX
  5
1A3
100
AcDbEntity
  8
dzialka
100
AcDbVertex
100
AcDb2dVertex
 10
7566247.40000000037
 20
5729064.69000000041
  0
VERTEX
  5
1A4
100
AcDbEntity
  8
dzialka
100
AcDbVertex
100
AcDb2dVertex
 10
7566241.62999999989
 20
5729064.11000000034
  0
VERTEX
  5
1A5
100
AcDbEntity
  8
dzialka
100
AcDbVertex
100
AcDb2dVertex
 10
7566244.00999999978
 20
5729074.53000000026
  0
VERTEX
  5
1A6
100
AcDbEntity
  8
dzialka
100
AcDbVertex
100
AcDb2dVertex
 10
7566320.45999999996
 20
5729086.40000000037
  0
VERTEX
  5
1A7
100
AcDbEntity
  8
dzialka
100
AcDbVertex
100
AcDb2dVertex
 10
7566357.41999999993
 20
5729091.28000000026
  0
VERTEX
  5
1A8
100
AcDbEntity
  8
dzialka
100
AcDbVertex
100
AcDb2dVertex
 10
7566386.36000000034
 20
5729094.66999999993
  0
VERTEX
  5
1A9
100
AcDbEntity
  8
dzialka
100
AcDbVertex
100
AcDb2dVertex
 10
7566407.54999999981
 20
5729097.53000000026
  0
VERTEX
  5
1AA
100
AcDbEntity
  8
dzialka
100
AcDbVertex
100
AcDb2dVertex
 10
7566443.84999999963
 20
5729101.87000000011
  0
VERTEX
  5
1AB
100
AcDbEntity
  8
dzialka
100
AcDbVertex
100
AcDb2dVertex
 10
7566464.58999999985
 20
5729104.75999999978
  0
VERTEX
  5
1AC
100
AcDbEntity
  8
dzialka
100
AcDbVertex
100
AcDb2dVertex
 10
7566485.71999999974
 20
5729108.0
  0
VERTEX
  5
1AD
100
AcDbEntity
  8
dzialka
100
AcDbVertex
100
AcDb2dVertex
 10
7566503.25999999978
 20
5729110.58000000007
  0
VERTEX
  5
1AE
100
AcDbEntity
  8
dzialka
100
AcDbVertex
100
AcDb2dVertex
 10
7566521.46999999974
 20
5729113.3200000003
  0
VERTEX
  5
1AF
100
AcDbEntity
  8
dzialka
100
AcDbVertex
100
AcDb2dVertex
 10
7566549.36000000034
 20
5729118.66999999993
  0
VERTEX
  5
1B0
100
AcDbEntity
  8
dzialka
100
AcDbVertex
100
AcDb2dVertex
 10
7566557.75
 20
5729123.41999999993
  0
VERTEX
  5
1B1
100
AcDbEntity
  8
dzialka
100
AcDbVertex
100
AcDb2dVertex
 10
7566610.41000000015
 20
5729163.30999999959
  0
VERTEX
  5
1B2
100
AcDbEntity
  8
dzialka
100
AcDbVertex
100
AcDb2dVertex
 10
7566631.21999999974
 20
5729178.95999999996
  0
SEQEND
  5
1B3
100
AcDbEntity
  8
dzialka
  0
POLYLINE
  5
1B4
100
AcDbEntity
  8
dzialka
  6
CONTINUOUS
370
18
100
AcDb2dPolyline
 66
1
 70
129
  0
VERTEX
  5
1B5
100
AcDbEntity
  8
dzialka
100
AcDbVertex
100
AcDb2dVertex
 10
7566428.36000000034
 20
5729208.24000000022
  0
VERTEX
  5
1B6
100
AcDbEntity
  8
dzialka
100
AcDbVertex
100
AcDb2dVertex
 10
7566431.20000000019
 20
5729207.13999999966
  0
VERTEX
  5
1B7
100
AcDbEntity
  8
dzialka
100
AcDbVertex
100
AcDb2dVertex
 10
7566414.53000000026
 20
5729129.84999999963
  0
VERTEX
  5
1B8
100
AcDbEntity
  8
dzialka
100
AcDbVertex
100
AcDb2dVertex
 10
7566407.54999999981
 20
5729097.53000000026
  0
VERTEX
  5
1B9
100
AcDbEntity
  8
dzialka
100
AcDbVertex
100
AcDb2dVertex
 10
7566386.36000000034
 20
5729094.66999999993
  0
VERTEX
  5
1BA
100
AcDbEntity
  8
dzialka
100
AcDbVertex
100
AcDb2dVertex
 10
7566411.44000000041
 20
5729211.21999999974
  0
SEQEND
  5
1BB
100
AcDbEntity
  8
dzialka
  0
POLYLINE
  5
1BC
100
AcDbEntity
  8
dzialka
  6
CONTINUOUS
370
18
100
AcDb2dPolyline
 66
1
 70
129
  0
VERTEX
  5
1BD
100
AcDbEntity
  8
dzialka
100
AcDbVertex
100
AcDb2dVertex
 10
7566465.71999999974
 20
5729201.03000000026
  0
VERTEX
  5
1BE
100
AcDbEntity
  8
dzialka
100
AcDbVertex
100
AcDb2dVertex
 10
7566443.84999999963
 20
5729101.87000000011
  0
VERTEX
  5
1BF
100
AcDbEntity
  8
dzialka
100
AcDbVertex
100
AcDb2dVertex
 10
7566407.54999999981
 20
5729097.53000000026
  0
VERTEX
  5
1C0
100
AcDbEntity
  8
dzialka
100
AcDbVertex
100
AcDb2dVertex
 10
7566414.53000000026
 20
5729129.84999999963
  0
VERTEX
  5
1C1
100
AcDbEntity
  8
dzialka
100
AcDbVertex
100
AcDb2dVertex
 10
7566431.20000000019
 20
5729207.13999999966
  0
SEQEND
  5
1C2
100
AcDbEntity
  8
dzialka
  0
POLYLINE
  5
1C3
100
AcDbEntity
  8
dzialka
  6
CONTINUOUS
370
18
100
AcDb2dPolyline
 66
1
 70
129
  0
VERTEX
  5
1C4
100
AcDbEntity
  8
dzialka
100
AcDbVertex
100
AcDb2dVertex
 10
7566567.12999999989
 20
5729121.16999999993
  0
VERTEX
  5
1C5
100
AcDbEntity
  8
dzialka
100
AcDbVertex
100
AcDb2dVertex
 10
7566600.54000000004
 20
5729096.5
  0
VERTEX
  5
1C6
100
AcDbEntity
  8
dzialka
100
AcDbVertex
100
AcDb2dVertex
 10
7566634.23000000045
 20
5729073.83999999985
  0
VERTEX
  5
1C7
100
AcDbEntity
  8
dzialka
100
AcDbVertex
100
AcDb2dVertex
 10
7566666.50999999978
 20
5729052.15000000037
  0
VERTEX
  5
1C8
100
AcDbEntity
  8
dzialka
100
AcDbVertex
100
AcDb2dVertex
 10
7566749.70999999996
 20
5729028.8200000003
  0
VERTEX
  5
1C9
100
AcDbEntity
  8
dzialka
100
AcDbVertex
100
AcDb2dVertex
 10
7566825.21999999974
 20
5729007.65000000037
  0
VERTEX
  5
1CA
100
AcDbEntity
  8
dzialka
100
AcDbVertex
100
AcDb2dVertex
 10
7566833.78000000026
 20
5729005.25
  0
VERTEX
  5
1CB
100
AcDbEntity
  8
dzialka
100
AcDbVertex
100
AcDb2dVertex
 10
7566932.54999999981
 20
5728977.54999999981
  0
VERTEX
  5
1CC
100
AcDbEntity
  8
dzialka
100
AcDbVertex
100
AcDb2dVertex
 10
7566964.04000000004
 20
5728968.71999999974
  0
VERTEX
  5
1CD
100
AcDbEntity
  8
dzialka
100
AcDbVertex
100
AcDb2dVertex
 10
7566999.08000000007
 20
5728959.09999999963
  0
VERTEX
  5
1CE
100
AcDbEntity
  8
dzialka
100
AcDbVertex
100
AcDb2dVertex
 10
7567019.86000000034
 20
5728953.70000000019
  0
VERTEX
  5
1CF
100
AcDbEntity
  8
dzialka
100
AcDbVertex
100
AcDb2dVertex
 10
7567055.37999999989
 20
5728946.20000000019
  0
VERTEX
  5
1D0
100
AcDbEntity
  8
dzialka
100
AcDbVertex
100
AcDb2dVertex
 10
7567240.70999999996
 20
5728907.05999999959
  0
VERTEX
  5
1D1
100
AcDbEntity
  8
dzialka
100
AcDbVertex
100
AcDb2dVertex
 10
7567288.15000000037
 20
5728896.91999999993
  0
VERTEX
  5
1D2
100
AcDbEntity
  8
dzialka
100
AcDbVertex
100
AcDb2dVertex
 10
7567347.58000000007
 20
5728884.0
  0
VERTEX
  5
1D3
100
AcDbEntity
  8
dzialka
100
AcDbVertex
100
AcDb2dVertex
 10
7567391.58999999985
 20
5728874.36000000034
  0
VERTEX
  5
1D4
100
AcDbEntity
  8
dzialka
100
AcDbVertex
100
AcDb2dVertex
 10
7567429.71999999974
 20
5728866.74000000022
  0
VERTEX
  5
1D5
100
AcDbEntity
  8
dzialka
100
AcDbVertex
100
AcDb2dVertex
 10
7567433.66999999993
 20
5728866.0700000003
  0
VERTEX
  5
1D6
100
AcDbEntity
  8
dzialka
100
AcDbVertex
100
AcDb2dVertex
 10
7567449.61000000034
 20
5728863.16999999993
  0
VERTEX
  5
1D7
100
AcDbEntity
  8
dzialka
100
AcDbVertex
100
AcDb2dVertex
 10
7567480.88999999966
 20
5728857.48000000045
  0
VERTEX
  5
1D8
100
AcDbEntity
  8
dzialka
100
AcDbVertex
100
AcDb2dVertex
 10
7567527.71999999974
 20
5728848.95000000019
  0
VERTEX
  5
1D9
100
AcDbEntity
  8
dzialka
100
AcDbVertex
100
AcDb2dVertex
 10
7567610.21999999974
 20
5728832.91999999993
  0
VERTEX
  5
1DA
100
AcDbEntity
  8
dzialka
100
AcDbVertex
100
AcDb2dVertex
 10
7567629.9299999997
 20
5728822.16999999993
  0
VERTEX
  5
1DB
100
AcDbEntity
  8
dzialka
100
AcDbVertex
100
AcDb2dVertex
 10
7567644.08000000007
 20
5728808.08999999985
  0
VERTEX
  5
1DC
100
AcDbEntity
  8
dzialka
100
AcDbVertex
100
AcDb2dVertex
 10
7567647.26999999955
 20
5728804.91000000015
  0
VERTEX
  5
1DD
100
AcDbEntity
  8
dzialka
100
AcDbVertex
100
AcDb2dVertex
 10
7567665.45999999996
 20
5728782.95999999996
  0
VERTEX
  5
1DE
100
AcDbEntity
  8
dzialka
100
AcDbVertex
100
AcDb2dVertex
 10
7567671.84999999963
 20
5728775.23000000045
  0
VERTEX
  5
1DF
100
AcDbEntity
  8
dzialka
100
AcDbVertex
100
AcDb2dVertex
 10
7567675.05999999959
 20
5728771.34999999963
  0
VERTEX
  5
1E0
100
AcDbEntity
  8
dzialka
100
AcDbVertex
100
AcDb2dVertex
 10
7567693.00999999978
 20
5728749.66999999993
  0
VERTEX
  5
1E1
100
AcDbEntity
  8
dzialka
100
AcDbVertex
100
AcDb2dVertex
 10
7567707.58000000007
 20
5728732.0700000003
  0
VERTEX
  5
1E2
100
AcDbEntity
  8
dzialka
100
AcDbVertex
100
AcDb2dVertex
 10
7567721.03000000026
 20
5728715.8200000003
  0
VERTEX
  5
1E3
100
AcDbEntity
  8
dzialka
100
AcDbVertex
100
AcDb2dVertex
 10
7567726.37999999989
 20
5728709.37000000011
  0
VERTEX
  5
1E4
100
AcDbEntity
  8
dzialka
100
AcDbVertex
100
AcDb2dVertex
 10
7567732.55999999959
 20
5728701.88999999966
  0
VERTEX
  5
1E5
100
AcDbEntity
  8
dzialka
100
AcDbVertex
100
AcDb2dVertex
 10
7567735.3200000003
 20
5728698.55999999959
  0
VERTEX
  5
1E6
100
AcDbEntity
  8
dzialka
100
AcDbVertex
100
AcDb2dVertex
 10
7567737.04999999981
 20
5728695.11000000034
  0
VERTEX
  5
1E7
100
AcDbEntity
  8
dzialka
100
AcDbVertex
100
AcDb2dVertex
 10
7567740.79000000004
 20
5728687.66000000015
  0
VERTEX
  5
1E8
100
AcDbEntity
  8
dzialka
100
AcDbVertex
100
AcDb2dVertex
 10
7567747.50999999978
 20
5728674.24000000022
  0
VERTEX
  5
1E9
100
AcDbEntity
  8
dzialka
100
AcDbVertex
100
AcDb2dVertex
 10
7567757.73000000045
 20
5728653.86000000034
  0
VERTEX
  5
1EA
100
AcDbEntity
  8
dzialka
100
AcDbVertex
100
AcDb2dVertex
 10
7567768.01999999955
 20
5728633.33999999985
  0
VERTEX
  5
1EB
100
AcDbEntity
  8
dzialka
100
AcDbVertex
100
AcDb2dVertex
 10
7567773.46999999974
 20
5728622.46999999974
  0
VERTEX
  5
1EC
100
AcDbEntity
  8
dzialka
100
AcDbVertex
100
AcDb2dVertex
 10
7567778.16000000015
 20
5728617.25999999978
  0
VERTEX
  5
1ED
100
AcDbEntity
  8
dzialka
100
AcDbVertex
100
AcDb2dVertex
 10
7567792.54999999981
 20
5728601.29000000004
  0
VERTEX
  5
1EE
100
AcDbEntity
  8
dzialka
100
AcDbVertex
100
AcDb2dVertex
 10
7567798.16000000015
 20
5728595.05999999959
  0
VERTEX
  5
1EF
100
AcDbEntity
  8
dzialka
100
AcDbVertex
100
AcDb2dVertex
 10
7567803.90000000037
 20
5728588.69000000041
  0
VERTEX
  5
1F0
100
AcDbEntity
  8
dzialka
100
AcDbVertex
100
AcDb2dVertex
 10
7567805.98000000045
 20
5728586.37999999989
  0
VERTEX
  5
1F1
100
AcDbEntity
  8
dzialka
100
AcDbVertex
100
AcDb2dVertex
 10
7567808.05999999959
 20
5728584.05999999959
  0
VERTEX
  5
1F2
100
AcDbEntity
  8
dzialka
100
AcDbVertex
100
AcDb2dVertex
 10
7567813.0700000003
 20
5728578.50999999978
  0
VERTEX
  5
1F3
100
AcDbEntity
  8
dzialka
100
AcDbVertex
100
AcDb2dVertex
 10
7567818.4299999997
 20
5728572.55999999959
  0
VERTEX
  5
1F4
100
AcDbEntity
  8
dzialka
100
AcDbVertex
100
AcDb2dVertex
 10
7567820.75
 20
5728569.98000000045
  0
VERTEX
  5
1F5
100
AcDbEntity
  8
dzialka
100
AcDbVertex
100
AcDb2dVertex
 10
7567823.45999999996
 20
5728565.5
  0
VERTEX
  5
1F6
100
AcDbEntity
  8
dzialka
100
AcDbVertex
100
AcDb2dVertex
 10
7567828.91000000015
 20
5728556.5
  0
VERTEX
  5
1F7
100
AcDbEntity
  8
dzialka
100
AcDbVertex
100
AcDb2dVertex
 10
7567833.28000000026
 20
5728549.28000000026
  0
VERTEX
  5
1F8
100
AcDbEntity
  8
dzialka
100
AcDbVertex
100
AcDb2dVertex
 10
7567837.62000000011
 20
5728542.11000000034
  0
VERTEX
  5
1F9
100
AcDbEntity
  8
dzialka
100
AcDbVertex
100
AcDb2dVertex
 10
7567846.09999999963
 20
5728528.09999999963
  0
VERTEX
  5
1FA
100
AcDbEntity
  8
dzialka
100
AcDbVertex
100
AcDb2dVertex
 10
7567844.51999999955
 20
5728515.23000000045
  0
VERTEX
  5
1FB
100
AcDbEntity
  8
dzialka
100
AcDbVertex
100
AcDb2dVertex
 10
7567842.33999999985
 20
5728522.73000000045
  0
VERTEX
  5
1FC
100
AcDbEntity
  8
dzialka
100
AcDbVertex
100
AcDb2dVertex
 10
7567835.88999999966
 20
5728533.4299999997
  0
VERTEX
  5
1FD
100
AcDbEntity
  8
dzialka
100
AcDbVertex
100
AcDb2dVertex
 10
7567831.58000000007
 20
5728540.59999999963
  0
VERTEX
  5
1FE
100
AcDbEntity
  8
dzialka
100
AcDbVertex
100
AcDb2dVertex
 10
7567827.20999999996
 20
5728547.84999999963
  0
VERTEX
  5
1FF
100
AcDbEntity
  8
dzialka
100
AcDbVertex
100
AcDb2dVertex
 10
7567825.30999999959
 20
5728551.0
  0
VERTEX
  5
200
100
AcDbEntity
  8
dzialka
100
AcDbVertex
100
AcDb2dVertex
 10
7567821.73000000045
 20
5728556.94000000041
  0
VERTEX
  5
201
100
AcDbEntity
  8
dzialka
100
AcDbVertex
100
AcDb2dVertex
 10
7567816.29000000004
 20
5728565.96999999974
  0
VERTEX
  5
202
100
AcDbEntity
  8
dzialka
100
AcDbVertex
100
AcDb2dVertex
 10
7567811.59999999963
 20
5728571.20000000019
  0
VERTEX
  5
203
100
AcDbEntity
  8
dzialka
100
AcDbVertex
100
AcDb2dVertex
 10
7567806.61000000034
 20
5728576.78000000026
  0
VERTEX
  5
204
100
AcDbEntity
  8
dzialka
100
AcDbVertex
100
AcDb2dVertex
 10
7567804.53000000026
 20
5728579.11000000034
  0
VERTEX
  5
205
100
AcDbEntity
  8
dzialka
100
AcDbVertex
100
AcDb2dVertex
 10
7567802.44000000041
 20
5728581.4299999997
  0
VERTEX
  5
206
100
AcDbEntity
  8
dzialka
100
AcDbVertex
100
AcDb2dVertex
 10
7567796.73000000045
 20
5728587.8200000003
  0
VERTEX
  5
207
100
AcDbEntity
  8
dzialka
100
AcDbVertex
100
AcDb2dVertex
 10
7567791.12000000011
 20
5728594.08000000007
  0
VERTEX
  5
208
100
AcDbEntity
  8
dzialka
100
AcDbVertex
100
AcDb2dVertex
 10
7567776.75999999978
 20
5728610.12000000011
  0
VERTEX
  5
209
100
AcDbEntity
  8
dzialka
100
AcDbVertex
100
AcDb2dVertex
 10
7567768.11000000034
 20
5728619.78000000026
  0
VERTEX
  5
20A
100
AcDbEntity
  8
dzialka
100
AcDbVertex
100
AcDb2dVertex
 10
7567766.11000000034
 20
5728623.79000000004
  0
VERTEX
  5
20B
100
AcDbEntity
  8
dzialka
100
AcDbVertex
100
AcDb2dVertex
 10
7567755.83000000007
 20
5728644.37999999989
  0
VERTEX
  5
20C
100
AcDbEntity
  8
dzialka
100
AcDbVertex
100
AcDb2dVertex
 10
7567745.61000000034
 20
5728664.83999999985
  0
VERTEX
  5
20D
100
AcDbEntity
  8
dzialka
100
AcDbVertex
100
AcDb2dVertex
 10
7567738.90000000037
 20
5728678.29999999981
  0
VERTEX
  5
20E
100
AcDbEntity
  8
dzialka
100
AcDbVertex
100
AcDb2dVertex
 10
7567735.16999999993
 20
5728685.75999999978
  0
VERTEX
  5
20F
100
AcDbEntity
  8
dzialka
100
AcDbVertex
100
AcDb2dVertex
 10
7567731.00999999978
 20
5728694.09999999963
  0
VERTEX
  5
210
100
AcDbEntity
  8
dzialka
100
AcDbVertex
100
AcDb2dVertex
 10
7567724.87999999989
 20
5728701.91000000015
  0
VERTEX
  5
211
100
AcDbEntity
  8
dzialka
100
AcDbVertex
100
AcDb2dVertex
 10
7567719.55999999959
 20
5728708.49000000022
  0
VERTEX
  5
212
100
AcDbEntity
  8
dzialka
100
AcDbVertex
100
AcDb2dVertex
 10
7567706.16999999993
 20
5728725.01999999955
  0
VERTEX
  5
213
100
AcDbEntity
  8
dzialka
100
AcDbVertex
100
AcDb2dVertex
 10
7567691.63999999966
 20
5728742.98000000045
  0
VERTEX
  5
214
100
AcDbEntity
  8
dzialka
100
AcDbVertex
100
AcDb2dVertex
 10
7567673.21999999974
 20
5728765.73000000045
  0
VERTEX
  5
215
100
AcDbEntity
  8
dzialka
100
AcDbVertex
100
AcDb2dVertex
 10
7567670.59999999963
 20
5728768.98000000045
  0
VERTEX
  5
216
100
AcDbEntity
  8
dzialka
100
AcDbVertex
100
AcDb2dVertex
 10
7567664.24000000022
 20
5728776.83000000007
  0
VERTEX
  5
217
100
AcDbEntity
  8
dzialka
100
AcDbVertex
100
AcDb2dVertex
 10
7567642.62000000011
 20
5728801.04999999981
  0
VERTEX
  5
218
100
AcDbEntity
  8
dzialka
100
AcDbVertex
100
AcDb2dVertex
 10
7567622.75999999978
 20
5728819.61000000034
  0
VERTEX
  5
219
100
AcDbEntity
  8
dzialka
100
AcDbVertex
100
AcDb2dVertex
 10
7567608.83999999985
 20
5728827.12000000011
  0
VERTEX
  5
21A
100
AcDbEntity
  8
dzialka
100
AcDbVertex
100
AcDb2dVertex
 10
7567606.94000000041
 20
5728827.46999999974
  0
VERTEX
  5
21B
100
AcDbEntity
  8
dzialka
100
AcDbVertex
100
AcDb2dVertex
 10
7567580.23000000045
 20
5728832.55999999959
  0
VERTEX
  5
21C
100
AcDbEntity
  8
dzialka
100
AcDbVertex
100
AcDb2dVertex
 10
7567572.6799999997
 20
5728834.01999999955
  0
VERTEX
  5
21D
100
AcDbEntity
  8
dzialka
100
AcDbVertex
100
AcDb2dVertex
 10
7567568.08000000007
 20
5728834.87000000011
  0
VERTEX
  5
21E
100
AcDbEntity
  8
dzialka
100
AcDbVertex
100
AcDb2dVertex
 10
7567555.59999999963
 20
5728837.25
  0
VERTEX
  5
21F
100
AcDbEntity
  8
dzialka
100
AcDbVertex
100
AcDb2dVertex
 10
7567547.04999999981
 20
5728838.87999999989
  0
VERTEX
  5
220
100
AcDbEntity
  8
dzialka
100
AcDbVertex
100
AcDb2dVertex
 10
7567530.65000000037
 20
5728842.00999999978
  0
VERTEX
  5
221
100
AcDbEntity
  8
dzialka
100
AcDbVertex
100
AcDb2dVertex
 10
7567526.71999999974
 20
5728842.76999999955
  0
VERTEX
  5
222
100
AcDbEntity
  8
dzialka
100
AcDbVertex
100
AcDb2dVertex
 10
7567428.26999999955
 20
5728860.91000000015
  0
VERTEX
  5
223
100
AcDbEntity
  8
dzialka
100
AcDbVertex
100
AcDb2dVertex
 10
7567332.94000000041
 20
5728881.00999999978
  0
VERTEX
  5
224
100
AcDbEntity
  8
dzialka
100
AcDbVertex
100
AcDb2dVertex
 10
7567217.15000000037
 20
5728905.90000000037
  0
VERTEX
  5
225
100
AcDbEntity
  8
dzialka
100
AcDbVertex
100
AcDb2dVertex
 10
7567179.70999999996
 20
5728913.79000000004
  0
VERTEX
  5
226
100
AcDbEntity
  8
dzialka
100
AcDbVertex
100
AcDb2dVertex
 10
7567036.84999999963
 20
5728943.9299999997
  0
VERTEX
  5
227
100
AcDbEntity
  8
dzialka
100
AcDbVertex
100
AcDb2dVertex
 10
7567032.9299999997
 20
5728944.75999999978
  0
VERTEX
  5
228
100
AcDbEntity
  8
dzialka
100
AcDbVertex
100
AcDb2dVertex
 10
7567018.46999999974
 20
5728947.86000000034
  0
VERTEX
  5
229
100
AcDbEntity
  8
dzialka
100
AcDbVertex
100
AcDb2dVertex
 10
7566988.1799999997
 20
5728955.71999999974
  0
VERTEX
  5
22A
100
AcDbEntity
  8
dzialka
100
AcDbVertex
100
AcDb2dVertex
 10
7566962.28000000026
 20
5728962.98000000045
  0
VERTEX
  5
22B
100
AcDbEntity
  8
dzialka
100
AcDbVertex
100
AcDb2dVertex
 10
7566930.8200000003
 20
5728971.80999999959
  0
VERTEX
  5
22C
100
AcDbEntity
  8
dzialka
100
AcDbVertex
100
AcDb2dVertex
 10
7566871.46999999974
 20
5728988.45000000019
  0
VERTEX
  5
22D
100
AcDbEntity
  8
dzialka
100
AcDbVertex
100
AcDb2dVertex
 10
7566823.20000000019
 20
5729002.0
  0
VERTEX
  5
22E
100
AcDbEntity
  8
dzialka
100
AcDbVertex
100
AcDb2dVertex
 10
7566772.41999999993
 20
5729016.24000000022
  0
VERTEX
  5
22F
100
AcDbEntity
  8
dzialka
100
AcDbVertex
100
AcDb2dVertex
 10
7566677.38999999966
 20
5729042.90000000037
  0
VERTEX
  5
230
100
AcDbEntity
  8
dzialka
100
AcDbVertex
100
AcDb2dVertex
 10
7566668.25
 20
5729045.45999999996
  0
VERTEX
  5
231
100
AcDbEntity
  8
dzialka
100
AcDbVertex
100
AcDb2dVertex
 10
7566665.25999999978
 20
5729045.78000000026
  0
VERTEX
  5
232
100
AcDbEntity
  8
dzialka
100
AcDbVertex
100
AcDb2dVertex
 10
7566599.11000000034
 20
5729090.20000000019
  0
VERTEX
  5
233
100
AcDbEntity
  8
dzialka
100
AcDbVertex
100
AcDb2dVertex
 10
7566567.86000000034
 20
5729111.20000000019
  0
VERTEX
  5
234
100
AcDbEntity
  8
dzialka
100
AcDbVertex
100
AcDb2dVertex
 10
7566559.95000000019
 20
5729109.84999999963
  0
VERTEX
  5
235
100
AcDbEntity
  8
dzialka
100
AcDbVertex
100
AcDb2dVertex
 10
7566558.4299999997
 20
5729109.58999999985
  0
SEQEND
  5
236
100
AcDbEntity
  8
dzialka
  0
POLYLINE
  5
237
100
AcDbEntity
  8
dzialka
  6
CONTINUOUS
370
18
100
AcDb2dPolyline
 66
1
 70
129
  0
VERTEX
  5
238
100
AcDbEntity
  8
dzialka
100
AcDbVertex
100
AcDb2dVertex
 10
7566351.37000000011
 20
5729131.41999999993
  0
VERTEX
  5
239
100
AcDbEntity
  8
dzialka
100
AcDbVertex
100
AcDb2dVertex
 10
7566357.6799999997
 20
5729129.95000000019
  0
VERTEX
  5
23A
100
AcDbEntity
  8
dzialka
100
AcDbVertex
100
AcDb2dVertex
 10
7566353.70999999996
 20
5729112.5700000003
  0
VERTEX
  5
23B
100
AcDbEntity
  8
dzialka
100
AcDbVertex
100
AcDb2dVertex
 10
7566347.46999999974
 20
5729113.94000000041
  0
SEQEND
  5
23C
100
AcDbEntity
  8
dzialka
  0
POLYLINE
  5
23D
100
AcDbEntity
  8
dzialka
  6
CONTINUOUS
370
18
100
AcDb2dPolyline
 66
1
 70
129
  0
VERTEX
  5
23E
100
AcDbEntity
  8
dzialka
100
AcDbVertex
100
AcDb2dVertex
 10
7566375.16999999993
 20
5729113.66999999993
  0
VERTEX
  5
23F
100
AcDbEntity
  8
dzialka
100
AcDbVertex
100
AcDb2dVertex
 10
7566376.25
 20
5729113.45000000019
  0
VERTEX
  5
240
100
AcDbEntity
  8
dzialka
100
AcDbVertex
100
AcDb2dVertex
 10
7566374.19000000041
 20
5729103.25999999978
  0
VERTEX
  5
241
100
AcDbEntity
  8
dzialka
100
AcDbVertex
100
AcDb2dVertex
 10
7566364.36000000034
 20
5729105.23000000045
  0
VERTEX
  5
242
100
AcDbEntity
  8
dzialka
100
AcDbVertex
100
AcDb2dVertex
 10
7566366.41000000015
 20
5729115.4299999997
  0
VERTEX
  5
243
100
AcDbEntity
  8
dzialka
100
AcDbVertex
100
AcDb2dVertex
 10
7566370.79000000004
 20
5729114.54999999981
  0
VERTEX
  5
244
100
AcDbEntity
  8
dzialka
100
AcDbVertex
100
AcDb2dVertex
 10
7566371.37999999989
 20
5729117.51999999955
  0
VERTEX
  5
245
100
AcDbEntity
  8
dzialka
100
AcDbVertex
100
AcDb2dVertex
 10
7566375.76999999955
 20
5729116.63999999966
  0
SEQEND
  5
246
100
AcDbEntity
  8
dzialka
  0
POLYLINE
  5
247
100
AcDbEntity
  8
dzialka
  6
CONTINUOUS
370
18
100
AcDb2dPolyline
 66
1
 70
129
  0
VERTEX
  5
248
100
AcDbEntity
  8
dzialka
100
AcDbVertex
100
AcDb2dVertex
 10
7566398.16000000015
 20
5729120.50999999978
  0
VERTEX
  5
249
100
AcDbEntity
  8
dzialka
100
AcDbVertex
100
AcDb2dVertex
 10
7566407.79999999981
 20
5729118.37999999989
  0
VERTEX
  5
24A
100
AcDbEntity
  8
dzialka
100
AcDbVertex
100
AcDb2dVertex
 10
7566405.83999999985
 20
5729109.6799999997
  0
VERTEX
  5
24B
100
AcDbEntity
  8
dzialka
100
AcDbVertex
100
AcDb2dVertex
 10
7566401.32299999986
 20
5729110.67200000025
  0
VERTEX
  5
24C
100
AcDbEntity
  8
dzialka
100
AcDbVertex
100
AcDb2dVertex
 10
7566401.0700000003
 20
5729109.51999999955
  0
VERTEX
  5
24D
100
AcDbEntity
  8
dzialka
100
AcDbVertex
100
AcDb2dVertex
 10
7566397.04000000004
 20
5729110.46999999974
  0
VERTEX
  5
24E
100
AcDbEntity
  8
dzialka
100
AcDbVertex
100
AcDb2dVertex
 10
7566397.28000000026
 20
5729111.56099999975
  0
VERTEX
  5
24F
100
AcDbEntity
  8
dzialka
100
AcDbVertex
100
AcDb2dVertex
 10
7566396.19000000041
 20
5729111.79999999981
  0
SEQEND
  5
250
100
AcDbEntity
  8
dzialka
  0
POLYLINE
  5
251
100
AcDbEntity
  8
dzialka
  6
CONTINUOUS
370
18
100
AcDb2dPolyline
 66
1
 70
129
  0
VERTEX
  5
252
100
AcDbEntity
  8
dzialka
100
AcDbVertex
100
AcDb2dVertex
 10
7566439.28000000026
 20
5729122.62999999989
  0
VERTEX
  5
253
100
AcDbEntity
  8
dzialka
100
AcDbVertex
100
AcDb2dVertex
 10
7566443.84999999963
 20
5729121.37000000011
  0
VERTEX
  5
254
100
AcDbEntity
  8
dzialka
100
AcDbVertex
100
AcDb2dVertex
 10
7566441.04999999981
 20
5729111.54000000004
  0
VERTEX
  5
255
100
AcDbEntity
  8
dzialka
100
AcDbVertex
100
AcDb2dVertex
 10
7566429.33999999985
 20
5729114.78000000026
  0
VERTEX
  5
256
100
AcDbEntity
  8
dzialka
100
AcDbVertex
100
AcDb2dVertex
 10
7566432.19000000041
 20
5729124.61000000034
  0
VERTEX
  5
257
100
AcDbEntity
  8
dzialka
100
AcDbVertex
100
AcDb2dVertex
 10
7566436.21999999974
 20
5729123.49000000022
  0
VERTEX
  5
258
100
AcDbEntity
  8
dzialka
100
AcDbVertex
100
AcDb2dVertex
 10
7566436.75
 20
5729125.41999999993
  0
VERTEX
  5
259
100
AcDbEntity
  8
dzialka
100
AcDbVertex
100
AcDb2dVertex
 10
7566439.8200000003
 20
5729124.5700000003
  0
SEQEND
  5
25A
100
AcDbEntity
  8
dzialka
  0
POLYLINE
  5
25B
100
AcDbEntity
  8
dzialka
  6
CONTINUOUS
370
18
100
AcDb2dPolyline
 66
1
 70
129
  0
VERTEX
  5
25C
100
AcDbEntity
  8
dzialka
100
AcDbVertex
100
AcDb2dVertex
 10
7566457.44000000041
 20
5729119.83000000007
  0
VERTEX
  5
25D
100
AcDbEntity
  8
dzialka
100
AcDbVertex
100
AcDb2dVertex
 10
7566461.21999999974
 20
5729119.20999999996
  0
VERTEX
  5
25E
100
AcDbEntity
  8
dzialka
100
AcDbVertex
100
AcDb2dVertex
 10
7566459.4299999997
 20
5729109.08999999985
  0
VERTEX
  5
25F
100
AcDbEntity
  8
dzialka
100
AcDbVertex
100
AcDb2dVertex
 10
7566458.80999999959
 20
5729109.19000000041
  0
VERTEX
  5
260
100
AcDbEntity
  8
dzialka
100
AcDbVertex
100
AcDb2dVertex
 10
7566458.75999999978
 20
5729108.87999999989
  0
VERTEX
  5
261
100
AcDbEntity
  8
dzialka
100
AcDbVertex
100
AcDb2dVertex
 10
7566454.66000000015
 20
5729109.58000000007
  0
VERTEX
  5
262
100
AcDbEntity
  8
dzialka
100
AcDbVertex
100
AcDb2dVertex
 10
7566454.70999999996
 20
5729109.90000000037
  0
VERTEX
  5
263
100
AcDbEntity
  8
dzialka
100
AcDbVertex
100
AcDb2dVertex
 10
7566448.98000000045
 20
5729110.87999999989
  0
VERTEX
  5
264
100
AcDbEntity
  8
dzialka
100
AcDbVertex
100
AcDb2dVertex
 10
7566450.75999999978
 20
5729120.9299999997
  0
VERTEX
  5
265
100
AcDbEntity
  8
dzialka
100
AcDbVertex
100
AcDb2dVertex
 10
7566452.70000000019
 20
5729120.61000000034
  0
VERTEX
  5
266
100
AcDbEntity
  8
dzialka
100
AcDbVertex
100
AcDb2dVertex
 10
7566453.08000000007
 20
5729122.90000000037
  0
VERTEX
  5
267
100
AcDbEntity
  8
dzialka
100
AcDbVertex
100
AcDb2dVertex
 10
7566457.80999999959
 20
5729122.12000000011
  0
SEQEND
  5
268
100
AcDbEntity
  8
dzialka
  0
POLYLINE
  5
269
100
AcDbEntity
  8
dzialka
  6
CONTINUOUS
370
18
100
AcDb2dPolyline
 66
1
 70
129
  0
VERTEX
  5
26A
100
AcDbEntity
  8
dzialka
100
AcDbVertex
100
AcDb2dVertex
 10
7566477.83999999985
 20
5729122.87999999989
  0
VERTEX
  5
26B
100
AcDbEntity
  8
dzialka
100
AcDbVertex
100
AcDb2dVertex
 10
7566481.54000000004
 20
5729122.45999999996
  0
VERTEX
  5
26C
100
AcDbEntity
  8
dzialka
100
AcDbVertex
100
AcDb2dVertex
 10
7566480.37000000011
 20
5729112.45999999996
  0
VERTEX
  5
26D
100
AcDbEntity
  8
dzialka
100
AcDbVertex
100
AcDb2dVertex
 10
7566469.41999999993
 20
5729113.61000000034
  0
VERTEX
  5
26E
100
AcDbEntity
  8
dzialka
100
AcDbVertex
100
AcDb2dVertex
 10
7566470.83999999985
 20
5729126.03000000026
  0
VERTEX
  5
26F
100
AcDbEntity
  8
dzialka
100
AcDbVertex
100
AcDb2dVertex
 10
7566478.11000000034
 20
5729125.19000000041
  0
SEQEND
  5
270
100
AcDbEntity
  8
dzialka
  0
POLYLINE
  5
271
100
AcDbEntity
  8
dzialka
  6
CONTINUOUS
370
18
100
AcDb2dPolyline
 66
1
 70
129
  0
VERTEX
  5
272
100
AcDbEntity
  8
dzialka
100
AcDbVertex
100
AcDb2dVertex
 10
7566369.4299999997
 20
5729077.33999999985
  0
VERTEX
  5
273
100
AcDbEntity
  8
dzialka
100
AcDbVertex
100
AcDb2dVertex
 10
7566379.79999999981
 20
5729075.70999999996
  0
VERTEX
  5
274
100
AcDbEntity
  8
dzialka
100
AcDbVertex
100
AcDb2dVertex
 10
7566378.5
 20
5729067.3200000003
  0
VERTEX
  5
275
100
AcDbEntity
  8
dzialka
100
AcDbVertex
100
AcDb2dVertex
 10
7566368.19000000041
 20
5729068.99000000022
  0
SEQEND
  5
276
100
AcDbEntity
  8
dzialka
  0
POLYLINE
  5
277
100
AcDbEntity
  8
dzialka
  6
CONTINUOUS
370
18
100
AcDb2dPolyline
 66
1
 70
129
  0
VERTEX
  5
278
100
AcDbEntity
  8
dzialka
100
AcDbVertex
100
AcDb2dVertex
 10
7566374.91000000015
 20
5729022.48000000045
  0
VERTEX
  5
279
100
AcDbEntity
  8
dzialka
100
AcDbVertex
100
AcDb2dVertex
 10
7566379.71999999974
 20
5729021.55399999954
  0
VERTEX
  5
27A
100
AcDbEntity
  8
dzialka
100
AcDbVertex
100
AcDb2dVertex
 10
7566378.25299999956
 20
5729014.11099999957
  0
VERTEX
  5
27B
100
AcDbEntity
  8
dzialka
100
AcDbVertex
100
AcDb2dVertex
 10
7566360.95999999996
 20
5729017.4299999997
  0
VERTEX
  5
27C
100
AcDbEntity
  8
dzialka
100
AcDbVertex
100
AcDb2dVertex
 10
7566362.34999999963
 20
5729024.90000000037
  0
SEQEND
  5
27D
100
AcDbEntity
  8
dzialka
  0
POLYLINE
  5
27E
100
AcDbEntity
  8
dzialka
  6
CONTINUOUS
370
18
100
AcDb2dPolyline
 66
1
 70
129
  0
VERTEX
  5
27F
100
AcDbEntity
  8
dzialka
100
AcDbVertex
100
AcDb2dVertex
 10
7566375.46999999974
 20
5729025.38999999966
  0
VERTEX
  5
280
100
AcDbEntity
  8
dzialka
100
AcDbVertex
100
AcDb2dVertex
 10
7566380.2910000002
 20
5729024.45500000007
  0
VERTEX
  5
281
100
AcDbEntity
  8
dzialka
100
AcDbVertex
100
AcDb2dVertex
 10
7566379.71999999974
 20
5729021.55399999954
  0
VERTEX
  5
282
100
AcDbEntity
  8
dzialka
100
AcDbVertex
100
AcDb2dVertex
 10
7566374.91000000015
 20
5729022.48000000045
  0
SEQEND
  5
283
100
AcDbEntity
  8
dzialka
  0
POLYLINE
  5
284
100
AcDbEntity
  8
dzialka
  6
CONTINUOUS
370
18
100
AcDb2dPolyline
 66
1
 70
129
  0
VERTEX
  5
285
100
AcDbEntity
  8
dzialka
100
AcDbVertex
100
AcDb2dVertex
 10
7566378.74000000022
 20
5729049.41000000015
  0
VERTEX
  5
286
100
AcDbEntity
  8
dzialka
100
AcDbVertex
100
AcDb2dVertex
 10
7566384.97800000012
 20
5729048.23900000006
  0
VERTEX
  5
287
100
AcDbEntity
  8
dzialka
100
AcDbVertex
100
AcDb2dVertex
 10
7566380.2910000002
 20
5729024.45500000007
  0
VERTEX
  5
288
100
AcDbEntity
  8
dzialka
100
AcDbVertex
100
AcDb2dVertex
 10
7566375.46999999974
 20
5729025.38999999966
  0
VERTEX
  5
289
100
AcDbEntity
  8
dzialka
100
AcDbVertex
100
AcDb2dVertex
 10
7566374.08999999985
 20
5729025.66000000015
  0
SEQEND
  5
28A
100
AcDbEntity
  8
dzialka
  0
POLYLINE
  5
28B
100
AcDbEntity
  8
dzialka
  6
CONTINUOUS
370
18
100
AcDb2dPolyline
 66
1
 70
129
  0
VERTEX
  5
28C
100
AcDbEntity
  8
dzialka
100
AcDbVertex
100
AcDb2dVertex
 10
7566400.04999999981
 20
5729070.33999999985
  0
VERTEX
  5
28D
100
AcDbEntity
  8
dzialka
100
AcDbVertex
100
AcDb2dVertex
 10
7566403.79999999981
 20
5729069.48000000045
  0
VERTEX
  5
28E
100
AcDbEntity
  8
dzialka
100
AcDbVertex
100
AcDb2dVertex
 10
7566402.0
 20
5729061.62999999989
  0
VERTEX
  5
28F
100
AcDbEntity
  8
dzialka
100
AcDbVertex
100
AcDb2dVertex
 10
7566390.03000000026
 20
5729064.37999999989
  0
VERTEX
  5
290
100
AcDbEntity
  8
dzialka
100
AcDbVertex
100
AcDb2dVertex
 10
7566392.62999999989
 20
5729075.41999999993
  0
VERTEX
  5
291
100
AcDbEntity
  8
dzialka
100
AcDbVertex
100
AcDb2dVertex
 10
7566400.91999999993
 20
5729073.45000000019
  0
SEQEND
  5
292
100
AcDbEntity
  8
dzialka
  0
POLYLINE
  5
293
100
AcDbEntity
  8
dzialka
  6
CONTINUOUS
370
18
100
AcDb2dPolyline
 66
1
 70
129
  0
VERTEX
  5
294
100
AcDbEntity
  8
dzialka
100
AcDbVertex
100
AcDb2dVertex
 10
7566384.97800000012
 20
5729048.23900000006
  0
VERTEX
  5
295
100
AcDbEntity
  8
dzialka
100
AcDbVertex
100
AcDb2dVertex
 10
7566391.53000000026
 20
5729047.0
  0
VERTEX
  5
296
100
AcDbEntity
  8
dzialka
100
AcDbVertex
100
AcDb2dVertex
 10
7566386.78000000026
 20
5729023.28000000026
  0
VERTEX
  5
297
100
AcDbEntity
  8
dzialka
100
AcDbVertex
100
AcDb2dVertex
 10
7566380.2910000002
 20
5729024.45500000007
  0
SEQEND
  5
298
100
AcDbEntity
  8
dzialka
  0
POLYLINE
  5
299
100
AcDbEntity
  8
dzialka
  6
CONTINUOUS
370
18
100
AcDb2dPolyline
 66
1
 70
129
  0
VERTEX
  5
29A
100
AcDbEntity
  8
dzialka
100
AcDbVertex
100
AcDb2dVertex
 10
7566386.20000000019
 20
5729020.37000000011
  0
VERTEX
  5
29B
100
AcDbEntity
  8
dzialka
100
AcDbVertex
100
AcDb2dVertex
 10
7566392.94000000041
 20
5729019.13999999966
  0
VERTEX
  5
29C
100
AcDbEntity
  8
dzialka
100
AcDbVertex
100
AcDb2dVertex
 10
7566397.33999999985
 20
5729018.33999999985
  0
VERTEX
  5
29D
100
AcDbEntity
  8
dzialka
100
AcDbVertex
100
AcDb2dVertex
 10
7566395.8200000003
 20
5729010.24000000022
  0
VERTEX
  5
29E
100
AcDbEntity
  8
dzialka
100
AcDbVertex
100
AcDb2dVertex
 10
7566378.1799999997
 20
5729013.45999999996
  0
VERTEX
  5
29F
100
AcDbEntity
  8
dzialka
100
AcDbVertex
100
AcDb2dVertex
 10
7566378.25299999956
 20
5729014.11099999957
  0
VERTEX
  5
2A0
100
AcDbEntity
  8
dzialka
100
AcDbVertex
100
AcDb2dVertex
 10
7566379.71999999974
 20
5729021.55399999954
  0
SEQEND
  5
2A1
100
AcDbEntity
  8
dzialka
  0
POLYLINE
  5
2A2
100
AcDbEntity
  8
dzialka
  6
CONTINUOUS
370
18
100
AcDb2dPolyline
 66
1
 70
129
  0
VERTEX
  5
2A3
100
AcDbEntity
  8
dzialka
100
AcDbVertex
100
AcDb2dVertex
 10
7566393.75
 20
5729023.45000000019
  0
VERTEX
  5
2A4
100
AcDbEntity
  8
dzialka
100
AcDbVertex
100
AcDb2dVertex
 10
7566398.13999999966
 20
5729022.59999999963
  0
VERTEX
  5
2A5
100
AcDbEntity
  8
dzialka
100
AcDbVertex
100
AcDb2dVertex
 10
7566397.33999999985
 20
5729018.33999999985
  0
VERTEX
  5
2A6
100
AcDbEntity
  8
dzialka
100
AcDbVertex
100
AcDb2dVertex
 10
7566392.94000000041
 20
5729019.13999999966
  0
SEQEND
  5
2A7
100
AcDbEntity
  8
dzialka
  0
POLYLINE
  5
2A8
100
AcDbEntity
  8
dzialka
  6
CONTINUOUS
370
18
100
AcDb2dPolyline
 66
1
 70
129
  0
VERTEX
  5
2A9
100
AcDbEntity
  8
dzialka
100
AcDbVertex
100
AcDb2dVertex
 10
7566380.2910000002
 20
5729024.45500000007
  0
VERTEX
  5
2AA
100
AcDbEntity
  8
dzialka
100
AcDbVertex
100
AcDb2dVertex
 10
7566386.78000000026
 20
5729023.28000000026
  0
VERTEX
  5
2AB
100
AcDbEntity
  8
dzialka
100
AcDbVertex
100
AcDb2dVertex
 10
7566386.20000000019
 20
5729020.37000000011
  0
VERTEX
  5
2AC
100
AcDbEntity
  8
dzialka
100
AcDbVertex
100
AcDb2dVertex
 10
7566379.71999999974
 20
5729021.55399999954
  0
SEQEND
  5
2AD
100
AcDbEntity
  8
dzialka
  0
POLYLINE
  5
2AE
100
AcDbEntity
  8
dzialka
  6
CONTINUOUS
370
18
100
AcDb2dPolyline
 66
1
 70
129
  0
VERTEX
  5
2AF
100
AcDbEntity
  8
dzialka
100
AcDbVertex
100
AcDb2dVertex
 10
7566412.33999999985
 20
5729066.25
  0
VERTEX
  5
2B0
100
AcDbEntity
  8
dzialka
100
AcDbVertex
100
AcDb2dVertex
 10
7566420.83999999985
 20
5729064.45000000019
  0
VERTEX
  5
2B1
100
AcDbEntity
  8
dzialka
100
AcDbVertex
100
AcDb2dVertex
 10
7566412.5700000003
 20
5729025.5700000003
  0
VERTEX
  5
2B2
100
AcDbEntity
  8
dzialka
100
AcDbVertex
100
AcDb2dVertex
 10
7566404.04999999981
 20
5729027.40000000037
  0
SEQEND
  5
2B3
100
AcDbEntity
  8
dzialka
  0
POLYLINE
  5
2B4
100
AcDbEntity
  8
dzialka
  6
CONTINUOUS
370
18
100
AcDb2dPolyline
 66
1
 70
129
  0
VERTEX
  5
2B5
100
AcDbEntity
  8
dzialka
100
AcDbVertex
100
AcDb2dVertex
 10
7566430.75
 20
5729074.61000000034
  0
VERTEX
  5
2B6
100
AcDbEntity
  8
dzialka
100
AcDbVertex
100
AcDb2dVertex
 10
7566432.75
 20
5729074.24000000022
  0
VERTEX
  5
2B7
100
AcDbEntity
  8
dzialka
100
AcDbVertex
100
AcDb2dVertex
 10
7566431.71999999974
 20
5729068.66000000015
  0
VERTEX
  5
2B8
100
AcDbEntity
  8
dzialka
100
AcDbVertex
100
AcDb2dVertex
 10
7566418.99000000022
 20
5729071.00999999978
  0
VERTEX
  5
2B9
100
AcDbEntity
  8
dzialka
100
AcDbVertex
100
AcDb2dVertex
 10
7566420.76999999955
 20
5729080.86000000034
  0
VERTEX
  5
2BA
100
AcDbEntity
  8
dzialka
100
AcDbVertex
100
AcDb2dVertex
 10
7566431.58999999985
 20
5729079.1799999997
  0
SEQEND
  5
2BB
100
AcDbEntity
  8
dzialka
  0
POLYLINE
  5
2BC
100
AcDbEntity
  8
dzialka
  6
CONTINUOUS
370
18
100
AcDb2dPolyline
 66
1
 70
129
  0
VERTEX
  5
2BD
100
AcDbEntity
  8
dzialka
100
AcDbVertex
100
AcDb2dVertex
 10
7566428.94000000041
 20
5729016.41999999993
  0
VERTEX
  5
2BE
100
AcDbEntity
  8
dzialka
100
AcDbVertex
100
AcDb2dVertex
 10
7566433.92300000042
 20
5729015.49100000039
  0
VERTEX
  5
2BF
100
AcDbEntity
  8
dzialka
100
AcDbVertex
100
AcDb2dVertex
 10
7566432.37299999967
 20
5729007.38399999961
  0
VERTEX
  5
2C0
100
AcDbEntity
  8
dzialka
100
AcDbVertex
100
AcDb2dVertex
 10
7566414.40000000037
 20
5729010.73000000045
  0
VERTEX
  5
2C1
100
AcDbEntity
  8
dzialka
100
AcDbVertex
100
AcDb2dVertex
 10
7566415.99000000022
 20
5729018.83000000007
  0
SEQEND
  5
2C2
100
AcDbEntity
  8
dzialka
  0
POLYLINE
  5
2C3
100
AcDbEntity
  8
dzialka
  6
CONTINUOUS
370
18
100
AcDb2dPolyline
 66
1
 70
129
  0
VERTEX
  5
2C4
100
AcDbEntity
  8
dzialka
100
AcDbVertex
100
AcDb2dVertex
 10
7566430.80999999959
 20
5729026.28000000026
  0
VERTEX
  5
2C5
100
AcDbEntity
  8
dzialka
100
AcDbVertex
100
AcDb2dVertex
 10
7566435.81199999992
 20
5729025.37000000011
  0
VERTEX
  5
2C6
100
AcDbEntity
  8
dzialka
100
AcDbVertex
100
AcDb2dVertex
 10
7566433.92300000042
 20
5729015.49100000039
  0
VERTEX
  5
2C7
100
AcDbEntity
  8
dzialka
100
AcDbVertex
100
AcDb2dVertex
 10
7566428.94000000041
 20
5729016.41999999993
  0
SEQEND
  5
2C8
100
AcDbEntity
  8
dzialka
  0
POLYLINE
  5
2C9
100
AcDbEntity
  8
dzialka
  6
CONTINUOUS
370
18
100
AcDb2dPolyline
 66
1
 70
129
  0
VERTEX
  5
2CA
100
AcDbEntity
  8
dzialka
100
AcDbVertex
100
AcDb2dVertex
 10
7566437.38999999966
 20
5729034.69000000041
  0
VERTEX
  5
2CB
100
AcDbEntity
  8
dzialka
100
AcDbVertex
100
AcDb2dVertex
 10
7566437.58600000013
 20
5729034.65199999977
  0
VERTEX
  5
2CC
100
AcDbEntity
  8
dzialka
100
AcDbVertex
100
AcDb2dVertex
 10
7566435.81199999992
 20
5729025.37000000011
  0
VERTEX
  5
2CD
100
AcDbEntity
  8
dzialka
100
AcDbVertex
100
AcDb2dVertex
 10
7566430.80999999959
 20
5729026.28000000026
  0
VERTEX
  5
2CE
100
AcDbEntity
  8
dzialka
100
AcDbVertex
100
AcDb2dVertex
 10
7566417.75
 20
5729028.65000000037
  0
VERTEX
  5
2CF
100
AcDbEntity
  8
dzialka
100
AcDbVertex
100
AcDb2dVertex
 10
7566419.48000000045
 20
5729037.9299999997
  0
VERTEX
  5
2D0
100
AcDbEntity
  8
dzialka
100
AcDbVertex
100
AcDb2dVertex
 10
7566432.71999999974
 20
5729035.53000000026
  0
SEQEND
  5
2D1
100
AcDbEntity
  8
dzialka
  0
POLYLINE
  5
2D2
100
AcDbEntity
  8
dzialka
  6
CONTINUOUS
370
18
100
AcDb2dPolyline
 66
1
 70
129
  0
VERTEX
  5
2D3
100
AcDbEntity
  8
dzialka
100
AcDbVertex
100
AcDb2dVertex
 10
7566433.44000000041
 20
5729039.40000000037
  0
VERTEX
  5
2D4
100
AcDbEntity
  8
dzialka
100
AcDbVertex
100
AcDb2dVertex
 10
7566438.12999999989
 20
5729038.44000000041
  0
VERTEX
  5
2D5
100
AcDbEntity
  8
dzialka
100
AcDbVertex
100
AcDb2dVertex
 10
7566437.38999999966
 20
5729034.69000000041
  0
VERTEX
  5
2D6
100
AcDbEntity
  8
dzialka
100
AcDbVertex
100
AcDb2dVertex
 10
7566432.71999999974
 20
5729035.53000000026
  0
SEQEND
  5
2D7
100
AcDbEntity
  8
dzialka
  0
POLYLINE
  5
2D8
100
AcDbEntity
  8
dzialka
  6
CONTINUOUS
370
18
100
AcDb2dPolyline
 66
1
 70
129
  0
VERTEX
  5
2D9
100
AcDbEntity
  8
dzialka
100
AcDbVertex
100
AcDb2dVertex
 10
7566437.33999999985
 20
5729065.3200000003
  0
VERTEX
  5
2DA
100
AcDbEntity
  8
dzialka
100
AcDbVertex
100
AcDb2dVertex
 10
7566443.23000000045
 20
5729064.20000000019
  0
VERTEX
  5
2DB
100
AcDbEntity
  8
dzialka
100
AcDbVertex
100
AcDb2dVertex
 10
7566438.12999999989
 20
5729038.44000000041
  0
VERTEX
  5
2DC
100
AcDbEntity
  8
dzialka
100
AcDbVertex
100
AcDb2dVertex
 10
7566433.44000000041
 20
5729039.40000000037
  0
VERTEX
  5
2DD
100
AcDbEntity
  8
dzialka
100
AcDbVertex
100
AcDb2dVertex
 10
7566431.75999999978
 20
5729039.75
  0
VERTEX
  5
2DE
100
AcDbEntity
  8
dzialka
100
AcDbVertex
100
AcDb2dVertex
 10
7566436.87999999989
 20
5729065.41000000015
  0
SEQEND
  5
2DF
100
AcDbEntity
  8
dzialka
  0
POLYLINE
  5
2E0
100
AcDbEntity
  8
dzialka
  6
CONTINUOUS
370
18
100
AcDb2dPolyline
 66
1
 70
129
  0
VERTEX
  5
2E1
100
AcDbEntity
  8
dzialka
100
AcDbVertex
100
AcDb2dVertex
 10
7566442.78000000026
 20
5729084.75
  0
VERTEX
  5
2E2
100
AcDbEntity
  8
dzialka
100
AcDbVertex
100
AcDb2dVertex
 10
7566442.40000000037
 20
5729082.76999999955
  0
VERTEX
  5
2E3
100
AcDbEntity
  8
dzialka
100
AcDbVertex
100
AcDb2dVertex
 10
7566446.62999999989
 20
5729081.95500000007
  0
VERTEX
  5
2E4
100
AcDbEntity
  8
dzialka
100
AcDbVertex
100
AcDb2dVertex
 10
7566444.83000000007
 20
5729072.53899999987
  0
VERTEX
  5
2E5
100
AcDbEntity
  8
dzialka
100
AcDbVertex
100
AcDb2dVertex
 10
7566440.73000000045
 20
5729073.29000000004
  0
VERTEX
  5
2E6
100
AcDbEntity
  8
dzialka
100
AcDbVertex
100
AcDb2dVertex
 10
7566440.36000000034
 20
5729071.29999999981
  0
VERTEX
  5
2E7
100
AcDbEntity
  8
dzialka
100
AcDbVertex
100
AcDb2dVertex
 10
7566437.33000000007
 20
5729071.84999999963
  0
VERTEX
  5
2E8
100
AcDbEntity
  8
dzialka
100
AcDbVertex
100
AcDb2dVertex
 10
7566437.70000000019
 20
5729073.84999999963
  0
VERTEX
  5
2E9
100
AcDbEntity
  8
dzialka
100
AcDbVertex
100
AcDb2dVertex
 10
7566433.1799999997
 20
5729074.6799999997
  0
VERTEX
  5
2EA
100
AcDbEntity
  8
dzialka
100
AcDbVertex
100
AcDb2dVertex
 10
7566434.91999999993
 20
5729084.20000000019
  0
VERTEX
  5
2EB
100
AcDbEntity
  8
dzialka
100
AcDbVertex
100
AcDb2dVertex
 10
7566439.33999999985
 20
5729083.34999999963
  0
VERTEX
  5
2EC
100
AcDbEntity
  8
dzialka
100
AcDbVertex
100
AcDb2dVertex
 10
7566439.71999999974
 20
5729085.33999999985
  0
SEQEND
  5
2ED
100
AcDbEntity
  8
dzialka
  0
POLYLINE
  5
2EE
100
AcDbEntity
  8
dzialka
  6
CONTINUOUS
370
18
100
AcDb2dPolyline
 66
1
 70
129
  0
VERTEX
  5
2EF
100
AcDbEntity
  8
dzialka
100
AcDbVertex
100
AcDb2dVertex
 10
7566437.99000000022
 20
5729068.75
  0
VERTEX
  5
2F0
100
AcDbEntity
  8
dzialka
100
AcDbVertex
100
AcDb2dVertex
 10
7566443.88999999966
 20
5729067.62399999984
  0
VERTEX
  5
2F1
100
AcDbEntity
  8
dzialka
100
AcDbVertex
100
AcDb2dVertex
 10
7566443.23000000045
 20
5729064.20000000019
  0
VERTEX
  5
2F2
100
AcDbEntity
  8
dzialka
100
AcDbVertex
100
AcDb2dVertex
 10
7566437.33999999985
 20
5729065.3200000003
  0
SEQEND
  5
2F3
100
AcDbEntity
  8
dzialka
  0
POLYLINE
  5
2F4
100
AcDbEntity
  8
dzialka
  6
CONTINUOUS
370
18
100
AcDb2dPolyline
 66
1
 70
129
  0
VERTEX
  5
2F5
100
AcDbEntity
  8
dzialka
100
AcDbVertex
100
AcDb2dVertex
 10
7566444.95999999996
 20
5729063.76999999955
  0
VERTEX
  5
2F6
100
AcDbEntity
  8
dzialka
100
AcDbVertex
100
AcDb2dVertex
 10
7566457.94000000041
 20
5729061.30999999959
  0
VERTEX
  5
2F7
100
AcDbEntity
  8
dzialka
100
AcDbVertex
100
AcDb2dVertex
 10
7566453.04999999981
 20
5729036.41000000015
  0
VERTEX
  5
2F8
100
AcDbEntity
  8
dzialka
100
AcDbVertex
100
AcDb2dVertex
 10
7566439.98000000045
 20
5729038.99000000022
  0
SEQEND
  5
2F9
100
AcDbEntity
  8
dzialka
  0
POLYLINE
  5
2FA
100
AcDbEntity
  8
dzialka
  6
CONTINUOUS
370
18
100
AcDb2dPolyline
 66
1
 70
129
  0
VERTEX
  5
2FB
100
AcDbEntity
  8
dzialka
100
AcDbVertex
100
AcDb2dVertex
 10
7566460.98000000045
 20
5729065.58999999985
  0
VERTEX
  5
2FC
100
AcDbEntity
  8
dzialka
100
AcDbVertex
100
AcDb2dVertex
 10
7566466.41000000015
 20
5729064.48000000045
  0
VERTEX
  5
2FD
100
AcDbEntity
  8
dzialka
100
AcDbVertex
100
AcDb2dVertex
 10
7566462.95000000019
 20
5729047.63999999966
  0
VERTEX
  5
2FE
100
AcDbEntity
  8
dzialka
100
AcDbVertex
100
AcDb2dVertex
 10
7566457.5700000003
 20
5729048.8049999997
  0
SEQEND
  5
2FF
100
AcDbEntity
  8
dzialka
  0
POLYLINE
  5
300
100
AcDbEntity
  8
dzialka
  6
CONTINUOUS
370
18
100
AcDb2dPolyline
 66
1
 70
129
  0
VERTEX
  5
301
100
AcDbEntity
  8
dzialka
100
AcDbVertex
100
AcDb2dVertex
 10
7566469.04999999981
 20
5729088.25
  0
VERTEX
  5
302
100
AcDbEntity
  8
dzialka
100
AcDbVertex
100
AcDb2dVertex
 10
7566480.33000000007
 20
5729086.26999999955
  0
VERTEX
  5
303
100
AcDbEntity
  8
dzialka
100
AcDbVertex
100
AcDb2dVertex
 10
7566478.48000000045
 20
5729075.94000000041
  0
VERTEX
  5
304
100
AcDbEntity
  8
dzialka
100
AcDbVertex
100
AcDb2dVertex
 10
7566475.00999999978
 20
5729076.54999999981
  0
VERTEX
  5
305
100
AcDbEntity
  8
dzialka
100
AcDbVertex
100
AcDb2dVertex
 10
7566474.5700000003
 20
5729074.0700000003
  0
VERTEX
  5
306
100
AcDbEntity
  8
dzialka
100
AcDbVertex
100
AcDb2dVertex
 10
7566471.48000000045
 20
5729074.62000000011
  0
VERTEX
  5
307
100
AcDbEntity
  8
dzialka
100
AcDbVertex
100
AcDb2dVertex
 10
7566471.91999999992
 20
5729077.09999999963
  0
VERTEX
  5
308
100
AcDbEntity
  8
dzialka
100
AcDbVertex
100
AcDb2dVertex
 10
7566467.23000000045
 20
5729077.9299999997
  0
SEQEND
  5
309
100
AcDbEntity
  8
dzialka
  0
POLYLINE
  5
30A
100
AcDbEntity
  8
dzialka
  6
CONTINUOUS
370
18
100
AcDb2dPolyline
 66
1
 70
129
  0
VERTEX
  5
30B
100
AcDbEntity
  8
dzialka
100
AcDbVertex
100
AcDb2dVertex
 10
7566475.62000000011
 20
5729023.80999999959
  0
VERTEX
  5
30C
100
AcDbEntity
  8
dzialka
100
AcDbVertex
100
AcDb2dVertex
 10
7566486.05999999959
 20
5729021.73000000045
  0
VERTEX
  5
30D
100
AcDbEntity
  8
dzialka
100
AcDbVertex
100
AcDb2dVertex
 10
7566484.09999999963
 20
5729011.91999999993
  0
VERTEX
  5
30E
100
AcDbEntity
  8
dzialka
100
AcDbVertex
100
AcDb2dVertex
 10
7566473.66999999992
 20
5729014.00999999978
  0
SEQEND
  5
30F
100
AcDbEntity
  8
dzialka
  0
POLYLINE
  5
310
100
AcDbEntity
  8
dzialka
  6
CONTINUOUS
370
18
100
AcDb2dPolyline
 66
1
 70
129
  0
VERTEX
  5
311
100
AcDbEntity
  8
dzialka
100
AcDbVertex
100
AcDb2dVertex
 10
7566487.3200000003
 20
5729063.15000000037
  0
VERTEX
  5
312
100
AcDbEntity
  8
dzialka
100
AcDbVertex
100
AcDb2dVertex
 10
7566491.0
 20
5729062.46999999974
  0
VERTEX
  5
313
100
AcDbEntity
  8
dzialka
100
AcDbVertex
100
AcDb2dVertex
 10
7566486.25999999978
 20
5729037.04999999981
  0
VERTEX
  5
314
100
AcDbEntity
  8
dzialka
100
AcDbVertex
100
AcDb2dVertex
 10
7566475.48000000045
 20
5729038.9299999997
  0
VERTEX
  5
315
100
AcDbEntity
  8
dzialka
100
AcDbVertex
100
AcDb2dVertex
 10
7566480.24000000022
 20
5729064.45999999996
  0
SEQEND
  5
316
100
AcDbEntity
  8
dzialka
  0
POLYLINE
  5
317
100
AcDbEntity
  8
dzialka
  6
CONTINUOUS
370
18
100
AcDb2dPolyline
 66
1
 70
129
  0
VERTEX
  5
318
100
AcDbEntity
  8
dzialka
100
AcDbVertex
100
AcDb2dVertex
 10
7566490.23000000045
 20
5729078.90000000037
  0
VERTEX
  5
319
100
AcDbEntity
  8
dzialka
100
AcDbVertex
100
AcDb2dVertex
 10
7566496.79000000004
 20
5729077.61000000034
  0
VERTEX
  5
31A
100
AcDbEntity
  8
dzialka
100
AcDbVertex
100
AcDb2dVertex
 10
7566493.8200000003
 20
5729061.95000000019
  0
VERTEX
  5
31B
100
AcDbEntity
  8
dzialka
100
AcDbVertex
100
AcDb2dVertex
 10
7566491.0
 20
5729062.46999999974
  0
VERTEX
  5
31C
100
AcDbEntity
  8
dzialka
100
AcDbVertex
100
AcDb2dVertex
 10
7566487.3200000003
 20
5729063.15000000037
  0
SEQEND
  5
31D
100
AcDbEntity
  8
dzialka
  0
POLYLINE
  5
31E
100
AcDbEntity
  8
dzialka
  6
CONTINUOUS
370
18
100
AcDb2dPolyline
 66
1
 70
129
  0
VERTEX
  5
31F
100
AcDbEntity
  8
dzialka
100
AcDbVertex
100
AcDb2dVertex
 10
7566457.53699999955
 20
5729048.62799999956
  0
VERTEX
  5
320
100
AcDbEntity
  8
dzialka
100
AcDbVertex
100
AcDb2dVertex
 10
7566464.58999999985
 20
5729047.05999999959
  0
VERTEX
  5
321
100
AcDbEntity
  8
dzialka
100
AcDbVertex
100
AcDb2dVertex
 10
7566461.6799999997
 20
5729032.40000000037
  0
VERTEX
  5
322
100
AcDbEntity
  8
dzialka
100
AcDbVertex
100
AcDb2dVertex
 10
7566454.72200000007
 20
5729033.81500000041
  0
SEQEND
  5
323
100
AcDbEntity
  8
dzialka
  0
POLYLINE
  5
324
100
AcDbEntity
  8
dzialka
  6
CONTINUOUS
370
18
100
AcDb2dPolyline
 66
1
 70
129
  0
VERTEX
  5
325
100
AcDbEntity
  8
dzialka
100
AcDbVertex
100
AcDb2dVertex
 10
7566497.78000000026
 20
5729080.46999999974
  0
VERTEX
  5
326
100
AcDbEntity
  8
dzialka
100
AcDbVertex
100
AcDb2dVertex
 10
7566499.87999999989
 20
5729091.46999999974
  0
VERTEX
  5
327
100
AcDbEntity
  8
dzialka
100
AcDbVertex
100
AcDb2dVertex
 10
7566509.41000000015
 20
5729089.65000000037
  0
VERTEX
  5
328
100
AcDbEntity
  8
dzialka
100
AcDbVertex
100
AcDb2dVertex
 10
7566507.33000000007
 20
5729078.65000000037
  0
SEQEND
  5
329
100
AcDbEntity
  8
dzialka
  0
POLYLINE
  5
32A
100
AcDbEntity
  8
dzialka
  6
CONTINUOUS
370
18
100
AcDb2dPolyline
 66
1
 70
129
  0
VERTEX
  5
32B
100
AcDbEntity
  8
dzialka
100
AcDbVertex
100
AcDb2dVertex
 10
7566523.51999999955
 20
5729094.75999999978
  0
VERTEX
  5
32C
100
AcDbEntity
  8
dzialka
100
AcDbVertex
100
AcDb2dVertex
 10
7566533.29999999981
 20
5729093.21999999974
  0
VERTEX
  5
32D
100
AcDbEntity
  8
dzialka
100
AcDbVertex
100
AcDb2dVertex
 10
7566532.15000000037
 20
5729086.37999999989
  0
VERTEX
  5
32E
100
AcDbEntity
  8
dzialka
100
AcDbVertex
100
AcDb2dVertex
 10
7566522.41999999993
 20
5729087.88999999966
  0
SEQEND
  5
32F
100
AcDbEntity
  8
dzialka
  0
POLYLINE
  5
330
100
AcDbEntity
  8
dzialka
  6
CONTINUOUS
370
18
100
AcDb2dPolyline
 66
1
 70
129
  0
VERTEX
  5
331
100
AcDbEntity
  8
dzialka
100
AcDbVertex
100
AcDb2dVertex
 10
7566525.26999999955
 20
5729071.95000000019
  0
VERTEX
  5
332
100
AcDbEntity
  8
dzialka
100
AcDbVertex
100
AcDb2dVertex
 10
7566529.60300000012
 20
5729071.04499999993
  0
VERTEX
  5
333
100
AcDbEntity
  8
dzialka
100
AcDbVertex
100
AcDb2dVertex
 10
7566525.77199999988
 20
5729050.54899999965
  0
VERTEX
  5
334
100
AcDbEntity
  8
dzialka
100
AcDbVertex
100
AcDb2dVertex
 10
7566521.4299999997
 20
5729051.45999999996
  0
SEQEND
  5
335
100
AcDbEntity
  8
dzialka
  0
POLYLINE
  5
336
100
AcDbEntity
  8
dzialka
  6
CONTINUOUS
370
18
100
AcDb2dPolyline
 66
1
 70
129
  0
VERTEX
  5
337
100
AcDbEntity
  8
dzialka
100
AcDbVertex
100
AcDb2dVertex
 10
7566521.11000000034
 20
5729047.1799999997
  0
VERTEX
  5
338
100
AcDbEntity
  8
dzialka
100
AcDbVertex
100
AcDb2dVertex
 10
7566525.00600000005
 20
5729046.45199999958
  0
VERTEX
  5
339
100
AcDbEntity
  8
dzialka
100
AcDbVertex
100
AcDb2dVertex
 10
7566522.75999999978
 20
5729034.43699999992
  0
VERTEX
  5
33A
100
AcDbEntity
  8
dzialka
100
AcDbVertex
100
AcDb2dVertex
 10
7566506.37999999989
 20
5729037.58999999985
  0
VERTEX
  5
33B
100
AcDbEntity
  8
dzialka
100
AcDbVertex
100
AcDb2dVertex
 10
7566508.13999999966
 20
5729046.58000000007
  0
VERTEX
  5
33C
100
AcDbEntity
  8
dzialka
100
AcDbVertex
100
AcDb2dVertex
 10
7566520.54999999981
 20
5729044.16000000015
  0
SEQEND
  5
33D
100
AcDbEntity
  8
dzialka
  0
POLYLINE
  5
33E
100
AcDbEntity
  8
dzialka
  6
CONTINUOUS
370
18
100
AcDb2dPolyline
 66
1
 70
129
  0
VERTEX
  5
33F
100
AcDbEntity
  8
dzialka
100
AcDbVertex
100
AcDb2dVertex
 10
7566553.79999999981
 20
5729076.69000000041
  0
VERTEX
  5
340
100
AcDbEntity
  8
dzialka
100
AcDbVertex
100
AcDb2dVertex
 10
7566563.1799999997
 20
5729074.70999999996
  0
VERTEX
  5
341
100
AcDbEntity
  8
dzialka
100
AcDbVertex
100
AcDb2dVertex
 10
7566556.15000000037
 20
5729037.65000000037
  0
VERTEX
  5
342
100
AcDbEntity
  8
dzialka
100
AcDbVertex
100
AcDb2dVertex
 10
7566546.71999999974
 20
5729039.37000000011
  0
SEQEND
  5
343
100
AcDbEntity
  8
dzialka
  0
POLYLINE
  5
344
100
AcDbEntity
  8
dzialka
  6
CONTINUOUS
370
18
100
AcDb2dPolyline
 66
1
 70
129
  0
VERTEX
  5
345
100
AcDbEntity
  8
dzialka
100
AcDbVertex
100
AcDb2dVertex
 10
7566554.45999999996
 20
5729099.73000000045
  0
VERTEX
  5
346
100
AcDbEntity
  8
dzialka
100
AcDbVertex
100
AcDb2dVertex
 10
7566566.1799999997
 20
5729097.36000000034
  0
VERTEX
  5
347
100
AcDbEntity
  8
dzialka
100
AcDbVertex
100
AcDb2dVertex
 10
7566563.48000000045
 20
5729083.95000000019
  0
VERTEX
  5
348
100
AcDbEntity
  8
dzialka
100
AcDbVertex
100
AcDb2dVertex
 10
7566558.16999999993
 20
5729084.96999999974
  0
VERTEX
  5
349
100
AcDbEntity
  8
dzialka
100
AcDbVertex
100
AcDb2dVertex
 10
7566558.69000000041
 20
5729087.6799999997
  0
VERTEX
  5
34A
100
AcDbEntity
  8
dzialka
100
AcDbVertex
100
AcDb2dVertex
 10
7566552.20999999996
 20
5729088.9299999997
  0
SEQEND
  5
34B
100
AcDbEntity
  8
dzialka
  0
POLYLINE
  5
34C
100
AcDbEntity
  8
dzialka
  6
CONTINUOUS
370
18
100
AcDb2dPolyline
 66
1
 70
129
  0
VERTEX
  5
34D
100
AcDbEntity
  8
dzialka
100
AcDbVertex
100
AcDb2dVertex
 10
7566546.71999999974
 20
5729039.37000000011
  0
VERTEX
  5
34E
100
AcDbEntity
  8
dzialka
100
AcDbVertex
100
AcDb2dVertex
 10
7566556.15000000037
 20
5729037.65000000037
  0
VERTEX
  5
34F
100
AcDbEntity
  8
dzialka
100
AcDbVertex
100
AcDb2dVertex
 10
7566554.38999999966
 20
5729028.33999999985
  0
VERTEX
  5
350
100
AcDbEntity
  8
dzialka
100
AcDbVertex
100
AcDb2dVertex
 10
7566522.75999999978
 20
5729034.43699999992
  0
VERTEX
  5
351
100
AcDbEntity
  8
dzialka
100
AcDbVertex
100
AcDb2dVertex
 10
7566525.00600000005
 20
5729046.45199999958
  0
VERTEX
  5
352
100
AcDbEntity
  8
dzialka
100
AcDbVertex
100
AcDb2dVertex
 10
7566525.77199999988
 20
5729050.54899999965
  0
VERTEX
  5
353
100
AcDbEntity
  8
dzialka
100
AcDbVertex
100
AcDb2dVertex
 10
7566529.60300000012
 20
5729071.04499999993
  0
VERTEX
  5
354
100
AcDbEntity
  8
dzialka
100
AcDbVertex
100
AcDb2dVertex
 10
7566532.23000000045
 20
5729084.32299999986
  0
VERTEX
  5
355
100
AcDbEntity
  8
dzialka
100
AcDbVertex
100
AcDb2dVertex
 10
7566537.36000000034
 20
5729083.48000000045
  0
VERTEX
  5
356
100
AcDbEntity
  8
dzialka
100
AcDbVertex
100
AcDb2dVertex
 10
7566535.16999999993
 20
5729069.87999999989
  0
VERTEX
  5
357
100
AcDbEntity
  8
dzialka
100
AcDbVertex
100
AcDb2dVertex
 10
7566536.11000000034
 20
5729069.70000000019
  0
VERTEX
  5
358
100
AcDbEntity
  8
dzialka
100
AcDbVertex
100
AcDb2dVertex
 10
7566532.75999999978
 20
5729052.08999999985
  0
VERTEX
  5
359
100
AcDbEntity
  8
dzialka
100
AcDbVertex
100
AcDb2dVertex
 10
7566532.3200000003
 20
5729052.16999999993
  0
VERTEX
  5
35A
100
AcDbEntity
  8
dzialka
100
AcDbVertex
100
AcDb2dVertex
 10
7566530.71999999974
 20
5729042.29999999981
  0
SEQEND
  5
35B
100
AcDbEntity
  8
dzialka
  0
POLYLINE
  5
35C
100
AcDbEntity
  8
gnojnik
  6
CONTINUOUS
370
35
100
AcDb2dPolyline
 66
1
 70
129
  0
VERTEX
  5
35D
100
AcDbEntity
  8
gnojnik
100
AcDbVertex
100
AcDb2dVertex
 10
7566460.12070542853
 20
5728983.1618425874
  0
VERTEX
  5
35E
100
AcDbEntity
  8
gnojnik
100
AcDbVertex
100
AcDb2dVertex
 10
7566458.71728347801
 20
5728993.3150750557
  0
VERTEX
  5
35F
100
AcDbEntity
  8
gnojnik
100
AcDbVertex
100
AcDb2dVertex
 10
7566477.01245935448
 20
5728995.84512619302
  0
VERTEX
  5
360
100
AcDbEntity
  8
gnojnik
100
AcDbVertex
100
AcDb2dVertex
 10
7566474.98913479876
 20
5728985.21683156211
  0
SEQEND
  5
361
100
AcDbEntity
  8
gnojnik
  0
POINT
  5
362
100
AcDbEntity
  8
dzialka
100
AcDbPoint
 62
256
 10
7566474.98913479876
 20
5728985.21683156211
  0
POINT
  5
363
100
AcDbEntity
  8
dzialka
100
AcDbPoint
 62
256
 10
7566460.12070542853
 20
5728983.1618425874
  0
POINT
  5
364
100
AcDbEntity
  8
dzialka
100
AcDbPoint
 62
256
 10
7566458.71728347801
 20
5728993.3150750557
  0
POINT
  5
365
100
AcDbEntity
  8
dzialka
100
AcDbPoint
 62
256
 10
7566477.01245935448
 20
5728995.84512619302
  0
MTEXT
  5
366
100
AcDbEntity
  8
dzialka
370
35
100
AcDbMText
 10
7566352.41999999993
 20
5729154.53500000015
 40
1.7500
 41
0.0
 71
5
 72
1
  1
\W0.6563x;253
  7
STANDARD
 11
1.00000000
 21
0.00000000
 44
0.90
 90
3
 63
0
 45
1.0
  0
MTEXT
  5
367
100
AcDbEntity
  8
dzialka
370
35
100
AcDbMText
 10
7566384.4299999997
 20
5729153.70500000007
 40
1.7500
 41
0.0
 71
5
 72
1
  1
\W0.6563x;254
  7
STANDARD
 11
1.00000000
 21
0.00000000
 44
0.90
 90
3
 63
0
 45
1.0
  0
MTEXT
  5
368
100
AcDbEntity
  8
dzialka
370
35
100
AcDbMText
 10
7566464.15499999933
 20
5729151.45000000019
 40
1.7500
 41
0.0
 71
5
 72
1
  1
\W0.6563x;257
  7
STANDARD
 11
1.00000000
 21
0.00000000
 44
0.90
 90
3
 63
0
 45
1.0
  0
MTEXT
  5
369
100
AcDbEntity
  8
dzialka
370
35
100
AcDbMText
 10
7566483.53500000015
 20
5729151.08000000007
 40
1.7500
 41
0.0
 71
5
 72
1
  1
\W0.6563x;258
  7
STANDARD
 11
1.00000000
 21
0.00000000
 44
0.90
 90
3
 63
0
 45
1.0
  0
MTEXT
  5
36A
100
AcDbEntity
  8
dzialka
370
35
100
AcDbMText
 10
7566504.29000000004
 20
5729163.66500000004
 40
1.7500
 41
0.0
 71
5
 72
1
  1
\W0.6563x;259
  7
STANDARD
 11
1.00000000
 21
0.00000000
 44
0.90
 90
3
 63
0
 45
1.0
  0
MTEXT
  5
36B
100
AcDbEntity
  8
dzialka
370
35
100
AcDbMText
 10
7566520.95999999996
 20
5729160.66999999993
 40
1.7500
 41
0.0
 71
5
 72
1
  1
\W0.6563x;260
  7
STANDARD
 11
1.00000000
 21
0.00000000
 44
0.90
 90
3
 63
0
 45
1.0
  0
MTEXT
  5
36C
100
AcDbEntity
  8
dzialka
370
35
100
AcDbMText
 10
7566576.34499999974
 20
5729156.99500000011
 40
1.7500
 41
0.0
 71
5
 72
1
  1
\W0.6563x;261
  7
STANDARD
 11
1.00000000
 21
0.00000000
 44
0.90
 90
3
 63
0
 45
1.0
  0
MTEXT
  5
36D
100
AcDbEntity
  8
dzialka
370
35
100
AcDbMText
 10
7566590.83000000007
 20
5729127.07500000019
 40
1.7500
 41
0.0
 71
5
 72
1
  1
\W0.6563x;418
  7
STANDARD
 11
1.00000000
 21
0.00000000
 44
0.90
 90
3
 63
0
 45
1.0
  0
MTEXT
  5
36E
100
AcDbEntity
  8
dzialka
370
35
100
AcDbMText
 10
7566662.08999999985
 20
5729114.54000000004
 40
1.7500
 41
0.0
 71
5
 72
1
  1
\W0.6563x;419/1
  7
STANDARD
 11
1.00000000
 21
0.00000000
 44
0.90
 90
3
 63
0
 45
1.0
  0
MTEXT
  5
36F
100
AcDbEntity
  8
dzialka
370
35
100
AcDbMText
 10
7566628.91500000004
 20
5729125.82499999926
 40
1.7500
 41
0.0
 71
5
 72
1
  1
\W0.6563x;419/2
  7
STANDARD
 11
1.00000000
 21
0.00000000
 44
0.90
 90
3
 63
0
 45
1.0
  0
MTEXT
  5
370
100
AcDbEntity
  8
dzialka
370
35
100
AcDbMText
 10
7566346.2349999994
 20
5729020.22000000067
 40
1.7500
 41
0.0
 71
5
 72
1
  1
\W0.6563x;547/1
  7
STANDARD
 11
1.00000000
 21
0.00000000
 44
0.90
 90
3
 63
0
 45
1.0
  0
MTEXT
  5
371
100
AcDbEntity
  8
dzialka
370
35
100
AcDbMText
 10
7566369.68500000052
 20
5729023.1799999997
 40
1.7500
 41
0.0
 71
5
 72
1
  1
\W0.6563x;547/2
  7
STANDARD
 11
1.00000000
 21
0.00000000
 44
0.90
 90
3
 63
0
 45
1.0
  0
MTEXT
  5
372
100
AcDbEntity
  8
dzialka
370
35
100
AcDbMText
 10
7566346.09999999963
 20
5728961.80000000074
 40
1.7500
 41
0.0
 71
5
 72
1
  1
\W0.6563x;547/3
  7
STANDARD
 11
1.00000000
 21
0.00000000
 44
0.90
 90
3
 63
0
 45
1.0
  0
MTEXT
  5
373
100
AcDbEntity
  8
dzialka
370
35
100
AcDbMText
 10
7566389.84999999963
 20
5729025.29499999993
 40
1.7500
 41
0.0
 71
5
 72
1
  1
\W0.6563x;548
  7
STANDARD
 11
1.00000000
 21
0.00000000
 44
0.90
 90
3
 63
0
 45
1.0
  0
MTEXT
  5
374
100
AcDbEntity
  8
dzialka
370
35
100
AcDbMText
 10
7566408.15000000037
 20
5729027.82499999926
 40
1.7500
 41
0.0
 71
5
 72
1
  1
\W0.6563x;549
  7
STANDARD
 11
1.00000000
 21
0.00000000
 44
0.90
 90
3
 63
0
 45
1.0
  0
MTEXT
  5
375
100
AcDbEntity
  8
dzialka
370
35
100
AcDbMText
 10
7566427.34999999963
 20
5729030.38499999978
 40
1.7500
 41
0.0
 71
5
 72
1
  1
\W0.6563x;550
  7
STANDARD
 11
1.00000000
 21
0.00000000
 44
0.90
 90
3
 63
0
 45
1.0
  0
MTEXT
  5
376
100
AcDbEntity
  8
dzialka
370
35
100
AcDbMText
 10
7566445.87999999989
 20
5729032.98000000045
 40
1.7500
 41
0.0
 71
5
 72
1
  1
\W0.6563x;551
  7
STANDARD
 11
1.00000000
 21
0.00000000
 44
0.90
 90
3
 63
0
 45
1.0
  0
MTEXT
  5
377
100
AcDbEntity
  8
dzialka
370
35
100
AcDbMText
 10
7566472.20999999996
 20
5729037.08000000007
 40
1.7500
 41
0.0
 71
5
 72
1
  1
\W0.6563x;552
  7
STANDARD
 11
1.00000000
 21
0.00000000
 44
0.90
 90
3
 63
0
 45
1.0
  0
MTEXT
  5
378
100
AcDbEntity
  8
dzialka
370
35
100
AcDbMText
 10
7566498.37000000011
 20
5729040.95999999996
 40
1.7500
 41
0.0
 71
5
 72
1
  1
\W0.6563x;553
  7
STANDARD
 11
1.00000000
 21
0.00000000
 44
0.90
 90
3
 63
0
 45
1.0
  0
MTEXT
  5
379
100
AcDbEntity
  8
dzialka
370
35
100
AcDbMText
 10
7566515.79999999981
 20
5729043.49500000011
 40
1.7500
 41
0.0
 71
5
 72
1
  1
\W0.6563x;554
  7
STANDARD
 11
1.00000000
 21
0.00000000
 44
0.90
 90
3
 63
0
 45
1.0
  0
MTEXT
  5
37A
100
AcDbEntity
  8
dzialka
370
35
100
AcDbMText
 10
7566556.20000000019
 20
5729047.49000000022
 40
1.7500
 41
0.0
 71
5
 72
1
  1
\W0.6563x;555
  7
STANDARD
 11
1.00000000
 21
0.00000000
 44
0.90
 90
3
 63
0
 45
1.0
  0
MTEXT
  5
37B
100
AcDbEntity
  8
dzialka
370
35
100
AcDbMText
 10
7566622.49000000022
 20
5729041.63499999978
 40
1.7500
 41
0.0
 71
5
 72
1
  1
\W0.6563x;556
  7
STANDARD
 11
1.00000000
 21
0.00000000
 44
0.90
 90
3
 63
0
 45
1.0
  0
MTEXT
  5
37C
100
AcDbEntity
  8
dzialka
370
35
100
AcDbMText
 10
7566372.48500000034
 20
5728788.15499999933
 40
1.7500
 41
0.0
 71
5
 72
1
  1
\W0.6563x;558
  7
STANDARD
 11
1.00000000
 21
0.00000000
 44
0.90
 90
3
 63
0
 45
1.0
  0
MTEXT
  5
37D
100
AcDbEntity
  8
dzialka
370
35
100
AcDbMText
 10
7566612.23421646003
 20
5728996.0150000006
 40
1.7500
 41
0.0
 71
5
 72
1
  1
\W0.6563x;557
  7
STANDARD
 11
1.00000000
 21
0.00000000
 44
0.90
 90
3
 63
0
 45
1.0
  0
MTEXT
  5
37E
100
AcDbEntity
  8
dzialka
370
35
100
AcDbMText
 10
7566464.90500000026
 20
5728789.41000000015
 40
1.7500
 41
0.0
 71
5
 72
1
  1
\W0.6563x;559
  7
STANDARD
 11
1.00000000
 21
0.00000000
 44
0.90
 90
3
 63
0
 45
1.0
  0
MTEXT
  5
37F
100
AcDbEntity
  8
dzialka
370
35
100
AcDbMText
 10
7566574.98000000045
 20
5728792.9299999997
 40
1.7500
 41
0.0
 71
5
 72
1
  1
\W0.6563x;561
  7
STANDARD
 11
1.00000000
 21
0.00000000
 44
0.90
 90
3
 63
0
 45
1.0
  0
MTEXT
  5
380
100
AcDbEntity
  8
dzialka
370
35
100
AcDbMText
 10
7566513.06000000052
 20
5728790.79999999981
 40
1.7500
 41
0.0
 71
5
 72
1
  1
\W0.6563x;560
  7
STANDARD
 11
1.00000000
 21
0.00000000
 44
0.90
 90
3
 63
0
 45
1.0
  0
MTEXT
  5
381
100
AcDbEntity
  8
dzialka
370
35
100
AcDbMText
 10
7567454.17326764204
 20
5729392.75
 40
1.7500
 41
0.0
 71
5
 72
1
  1
\W0.6563x;541
  7
STANDARD
 11
1.00000000
 21
0.00000000
 44
0.90
 90
3
 63
0
 45
1.0
  0
MTEXT
  5
382
100
AcDbEntity
  8
dzialka
370
35
100
AcDbMText
 10
7566408.78000000026
 20
5729152.9450000003
 40
1.7500
 41
0.0
 71
5
 72
1
  1
\W0.6563x;255
  7
STANDARD
 11
1.00000000
 21
0.00000000
 44
0.90
 90
3
 63
0
 45
1.0
  0
MTEXT
  5
383
100
AcDbEntity
  8
dzialka
370
35
100
AcDbMText
 10
7566436.63499999978
 20
5729152.33499999996
 40
1.7500
 41
0.0
 71
5
 72
1
  1
\W0.6563x;256
  7
STANDARD
 11
1.00000000
 21
0.00000000
 44
0.90
 90
3
 63
0
 45
1.0
  0
MTEXT
  5
384
100
AcDbEntity
  8
dzialka
370
35
100
AcDbMText
 10
7567629.09424899518
 20
5728818.20000000019
 40
1.7500
 41
0.0
 71
5
 72
1
  1
\W0.6563x;540
  7
STANDARD
 11
1.00000000
 21
0.00000000
 44
0.90
 90
3
 63
0
 45
1.0
  0
TEXT
  5
385
100
AcDbEntity
  8
gnojnik
370
18
100
AcDbText
 39
0.18
 10
7566459.34673112351
 20
5728990.04599250294
 40
0.90
  1
-10.250-
 50
-82.00
 41
0.66
  7
STANDARD
 72
1
 11
7566459.30016228464
 21
5728988.22175804898
100
AcDbText
 73
1
  0
TEXT
  5
386
100
AcDbEntity
  8
gnojnik
370
18
100
AcDbText
 39
0.18
 10
7566466.05733773485
 20
5728994.5078372946
 40
0.90
  1
-18.469-
 50
-352.00
 41
0.66
  7
STANDARD
 72
1
 11
7566467.88157218881
 21
5728994.46126845572
100
AcDbText
 73
1
  0
TEXT
  5
387
100
AcDbEntity
  8
gnojnik
370
18
100
AcDbText
 39
0.18
 10
7566475.48064799141
 20
5728988.79839556664
 40
0.90
  1
-10.819-
 50
-281.00
 41
0.66
  7
STANDARD
 72
1
 11
7566476.11859233864
 21
5728990.50808179751
100
AcDbText
 73
1
  0
TEXT
  5
388
100
AcDbEntity
  8
gnojnik
370
18
100
AcDbText
 39
0.18
 10
7566465.74738643225
 20
5728984.11707374547
 40
0.90
  1
-15.009-
 50
-352.00
 41
0.66
  7
STANDARD
 72
1
 11
7566467.57162088621
 21
5728984.07050490659
100
AcDbText
 73
1
  0
TEXT
  5
389
100
AcDbEntity
  8
gnojnik
370
18
100
AcDbText
 39
0.18
 10
7566460.47214826196
 20
5728981.51215959247
 40
0.90
  1
-6.504-
 50
-84.10
 41
0.66
  7
STANDARD
 72
1
 11
7566460.33563566208
 21
5728979.91466489434
100
AcDbText
 73
1
  0
TEXT
  5
38A
100
AcDbEntity
  8
gnojnik
370
18
100
AcDbText
 39
0.18
 10
7566475.58830221929
 20
5728985.2826258149
 40
0.90
  1
-4.300-
 50
-11.30
 41
0.66
  7
STANDARD
 72
1
 11
7566477.07398646325
 21
5728984.67982624006
100
AcDbText
 73
1
  0
TEXT
  5
38B
100
AcDbEntity
  8
gnojnik
370
18
100
AcDbText
 39
0.18
 10
7566477.60484163277
 20
5728995.90452748165
 40
0.90
  1
-4.285-
 50
-12.00
 41
0.66
  7
STANDARD
 72
1
 11
7566479.08305059746
 21
5728995.28362228814
100
AcDbText
 73
1
  0
ENDSEC
  0
SECTION
  2
OBJECTS
  0
DICTIONARY
  5
38C
330
0
100
AcDbDictionary
280
0
281
1
  3
ACAD_GROUP
350
38D
  3
ACAD_LAYOUT
350
38E
  3
ACAD_MLINESTYLE
350
38F
  3
ACAD_PLOTSETTINGS
350
390
  3
ACAD_PLOTSTYLENAME
350
391
  0
DICTIONARY
  5
38D
102
{ACAD_REACTORS
330
38C
102
}
330
38C
100
AcDbDictionary
280
0
281
1
  0
DICTIONARY
  5
38E
102
{ACAD_REACTORS
330
38C
102
}
330
38C
100
AcDbDictionary
280
0
281
1
  3
Layout
350
19
  3
Model
350
17
  0
DICTIONARY
  5
38F
102
{ACAD_REACTORS
330
38C
102
}
330
38C
100
AcDbDictionary
280
0
281
1
  3
Standard
350
392
  0
DICTIONARY
  5
390
102
{ACAD_REACTORS
330
38C
102
}
330
38C
100
AcDbDictionary
280
0
281
1
  0
ACDBDICTIONARYWDFLT
  5
391
102
{ACAD_REACTORS
330
38C
102
}
330
38C
100
AcDbDictionary
281
1
  3
Normal
350
9
100
AcDbDictionaryWithDefault
340
9
  0
LAYOUT
  5
19
100
AcDbPlotSettings
  1

  2

  4

  6

 40
0.0
 41
0.0
 42
0.0
 43
0.0
 44
0.0
 45
0.0
 46
0.0
 47
0.0
 48
0.0
 49
0.0
140
0.0
141
0.0
142
1.0
143
1.0
 70
688
 72
1
 73
0
 74
5
  7

 75
0
147
1.0
148
0.0
149
0.0
100
AcDbLayout
  1
Layout
 70
1
 71
1
 10
0.0
 20
0.0
 11
420.0
 21
297.0
 12
0.0
 22
0.0
 32
0.0
 14
100000000000000000000.0
 24
100000000000000000000.0
 34
100000000000000000000.0
 15
-100000000000000000000.0
 25
-100000000000000000000.0
 35
-100000000000000000000.0
146
0.0
 13
0.0
 23
0.0
 33
0.0
 16
1.0
 26
0.0
 36
0.0
 17
0.0
 27
1.0
 37
0.0
 76
0
330
18
  0
LAYOUT
  5
17
100
AcDbPlotSettings
  1

  2

  4

  6

 40
0.0
 41
0.0
 42
0.0
 43
0.0
 44
0.0
 45
0.0
 46
0.0
 47
0.0
 48
0.0
 49
0.0
140
0.0
141
0.0
142
1.0
143
1.0
 70
1712
 72
1
 73
0
 74
0
  7

 75
0
147
1.0
148
0.0
149
0.0
100
AcDbLayout
  1
Model
 70
1
 71
0
 10
0.0
 20
0.0
 11
12.0
 21
9.0
 12
0.0
 22
0.0
 32
0.0
 14
0.0
 24
0.0
 34
0.0
 15
0.0
 25
0.0
 35
0.0
146
0.0
 13
0.0
 23
0.0
 33
0.0
 16
1.0
 26
0.0
 36
0.0
 17
0.0
 27
1.0
 37
0.0
 76
0
330
16
  0
MLINESTYLE
  5
392
102
{ACAD_REACTORS
330
38F
102
}
330
38F
100
AcDbMlineStyle
  2
Standard
 70
0
  3

 62
256
 51
90.0
 52
90.0
  2
Standard
 71
2
 49
0.5
 62
256
  6
ByLayer
 49
-0.5
 62
256
  6
ByLayer
  0
ACDBPLACEHOLDER
  5
9
  0
ENDSEC
  0
EOF
