  0
SECTION
  2
HEADER
  9
$ACADVER
  1
AC1018
  9
$HANDSEED
  5
FFFFFF
  9
$EXTMAX
 10
7458810.0
 20
5756061.3200000003
 30
1000000.00
  9
$EXTMIN
 10
7458773.37000000011
 20
5755990.0
 30
0.00
  9
$LIMMIN
 10
7458773.37000000011
 20
5755990.0
  9
$LIMMAX
 10
7458810.0
 20
5756061.3200000003
  9
$DIMASZ
 40
2.5
  9
$DIMGAP
 40
0.625
  9
$INSUNITS
 70
6
  9
$DIMEXO
 40
0.625
  9
$DIMTXT
 40
2.5
  9
$DIMSTYLE
  2
Standard
  9
$PLIMMIN
 10
0.0
 20
0.0
  9
$PLIMMAX
 10
210.0
 20
297.0
  9
$DIMEXE
 40
1.25
  9
$TEXTSIZE
 40
2.5
  9
$TEXTSTYLE
  7
Standard
  9
$LWDISPLAY
290
1
  9
$TDCREATE
 40
45093.590694421
  9
$TDUCREATE
 40
45093.507361088
  9
$TDUPDATE
 40
45093.590694421
  9
$TDUUPDATE
 40
45093.507361088
  9
$TDINDWG
 40
0.0
  9
$TDUSRTIMER
 40
0.0
  9
$USRTIMER
 70
1
  0
ENDSEC
  0
SECTION
  2
TABLES
  0
TABLE
  2
VPORT
  5
1
100
AcDbSymbolTable
 70
1
  0
VPORT
  5
2
100
AcDbSymbolTableRecord
100
AcDbViewportTableRecord
  2
*ACTIVE
 70
0
 10
0.0
 20
0.0
 11
1.0
 21
1.0
 12
7458791.685
 22
5756025.660
 13
0.0
 23
0.0
 14
1.0
 24
1.0
 15
0.0
 25
0.0
 16
0.0
 26
0.0
 36
1.0
 17
0.0
 27
0.0
 37
0.0
 40
71.320
 41
0.514
 42
50.0
 43
0.0
 44
0.0
 50
0.0
 51
0.0
 71
0
 72
100
 73
1
 74
1
 75
0
 76
0
 77
0
 78
0
  0
ENDTAB
  0
TABLE
  2
LTYPE
  5
3
100
AcDbSymbolTable
 70
3
  0
LTYPE
  5
4
100
AcDbSymbolTableRecord
100
AcDbLinetypeTableRecord
  2
ByBlock
 70
0
  3

 72
65
 73
0
 40
0.0
  0
LTYPE
  5
5
100
AcDbSymbolTableRecord
100
AcDbLinetypeTableRecord
  2
ByLayer
 70
0
  3

 72
65
 73
0
 40
0.0
  0
LTYPE
  5
6
100
AcDbSymbolTableRecord
100
AcDbLinetypeTableRecord
  2
CONTINUOUS
 70
0
  3
Solid line
 72
65
 73
0
 40
0.0
  0
LTYPE
  5
7
100
AcDbSymbolTableRecord
100
AcDbLinetypeTableRecord
  2
L_0_03
 70
0
  3
Uzytek_gruntowy
 72
65
 73
2
 40
1.0
 49
0.5
 74
0
 49
-0.5
 74
0
  0
ENDTAB
  0
TABLE
  2
LAYER
  5
8
100
AcDbSymbolTable
 70
5
  0
LAYER
  5
9
100
AcDbSymbolTableRecord
100
AcDbLayerTableRecord
  2
0
 70
0
420
0
  6
CONTINUOUS
370
18
390
A
  0
LAYER
  5
B
100
AcDbSymbolTableRecord
100
AcDbLayerTableRecord
  2
budynek_obrys
 70
0
420
13762770
  6
CONTINUOUS
370
25
390
A
  0
LAYER
  5
C
100
AcDbSymbolTableRecord
100
AcDbLayerTableRecord
  2
Osie
 70
0
420
16711680
  6
L_0_03
370
18
390
A
  0
LAYER
  5
D
100
AcDbSymbolTableRecord
100
AcDbLayerTableRecord
  2
puszcza
 70
0
420
0
  6
CONTINUOUS
370
18
390
A
  0
LAYER
  5
E
100
AcDbSymbolTableRecord
100
AcDbLayerTableRecord
  2
Siatka
 70
0
420
0
  6
CONTINUOUS
370
18
390
A
  0
ENDTAB
  0
TABLE
  2
STYLE
  5
F
100
AcDbSymbolTable
 70
2
  0
STYLE
  5
10
100
AcDbSymbolTableRecord
100
AcDbTextStyleTableRecord
  2
STANDARD
 70
0
 40
0.0
 41
1.0
 50
0.0
 71
0
  3
simplex.shx
  4

  0
STYLE
  5
11
100
AcDbSymbolTableRecord
100
AcDbTextStyleTableRecord
  2
STANDARD_ITALIC
 70
0
 40
0.0
 41
1.0
 50
15.0
 71
0
  3
simplex.shx
  4

  0
ENDTAB
  0
TABLE
  2
VIEW
  5
12
100
AcDbSymbolTable
 70
0
  0
ENDTAB
  0
TABLE
  2
UCS
  5
13
100
AcDbSymbolTable
 70
0
  0
ENDTAB
  0
TABLE
  2
APPID
  5
14
100
AcDbSymbolTable
 70
1
  0
APPID
  5
15
100
AcDbSymbolTableRecord
100
AcDbRegAppTableRecord
  2
ACAD
 70
0
  0
ENDTAB
  0
TABLE
  2
DIMSTYLE
  5
16
100
AcDbSymbolTable
 70
1
100
AcDbDimStyleTable
  0
DIMSTYLE
105
17
100
AcDbSymbolTableRecord
100
AcDbDimStyleTableRecord
  2
Standard
 70
0
340
10
  0
ENDTAB
  0
TABLE
  2
BLOCK_RECORD
  5
18
100
AcDbSymbolTable
 70
2
  0
BLOCK_RECORD
  5
19
100
AcDbSymbolTableRecord
100
AcDbBlockTableRecord
  2
*Model_Space
340
1A
  0
BLOCK_RECORD
  5
1B
100
AcDbSymbolTableRecord
100
AcDbBlockTableRecord
  2
*Paper_Space
340
1C
  0
ENDTAB
  0
ENDSEC
  0
SECTION
  2
BLOCKS
  0
BLOCK
  5
1D
100
AcDbEntity
  8
0
100
AcDbBlockBegin
  2
*Model_Space
 70
0
 10
0.0
 20
0.0
 30
0.0
  3
*Model_Space
  1

  0
ENDBLK
  5
1E
100
AcDbEntity
  8
0
100
AcDbBlockEnd
  0
BLOCK
  5
1F
100
AcDbEntity
 67
1
  8
0
100
AcDbBlockBegin
  2
*Paper_Space
 70
0
 10
0.0
 20
0.0
 30
0.0
  3
*Paper_Space
  1

  0
ENDBLK
  5
20
100
AcDbEntity
 67
1
  8
0
100
AcDbBlockEnd
  0
ENDSEC
  0
SECTION
  2
ENTITIES
  0
POLYLINE
  5
21
100
AcDbEntity
  8
budynek_obrys
  6
CONTINUOUS
370
25
100
AcDb2dPolyline
 66
1
 70
129
  0
VERTEX
  5
22
100
AcDbEntity
  8
budynek_obrys
100
AcDbVertex
100
AcDb2dVertex
 10
7458780.69248687569
 20
5756041.91858567111
  0
VERTEX
  5
23
100
AcDbEntity
  8
budynek_obrys
100
AcDbVertex
100
AcDb2dVertex
 10
7458778.82556591276
 20
5756048.66505480465
  0
VERTEX
  5
24
100
AcDbEntity
  8
budynek_obrys
100
AcDbVertex
100
AcDb2dVertex
 10
7458795.20980802737
 20
5756053.19899462722
  0
VERTEX
  5
25
100
AcDbEntity
  8
budynek_obrys
100
AcDbVertex
100
AcDb2dVertex
 10
7458797.07672442496
 20
5756046.45254199207
  0
SEQEND
  5
26
100
AcDbEntity
  8
budynek_obrys
  0
POLYLINE
  5
27
100
AcDbEntity
  8
Osie
  6
ByLayer
370
18
100
AcDb2dPolyline
 66
1
 70
128
  0
VERTEX
  5
28
100
AcDbEntity
  8
Osie
100
AcDbVertex
100
AcDb2dVertex
 10
7458780.91509883571
 20
5756042.31276069488
  0
VERTEX
  5
29
100
AcDbEntity
  8
Osie
100
AcDbVertex
100
AcDb2dVertex
 10
7458779.21971980296
 20
5756048.44192841277
  0
SEQEND
  5
2A
100
AcDbEntity
  8
Osie
  0
POLYLINE
  5
2B
100
AcDbEntity
  8
Osie
  6
ByLayer
370
18
100
AcDb2dPolyline
 66
1
 70
128
  0
VERTEX
  5
2C
100
AcDbEntity
  8
Osie
100
AcDbVertex
100
AcDb2dVertex
 10
7458779.21971980296
 20
5756048.44192841277
  0
VERTEX
  5
2D
100
AcDbEntity
  8
Osie
100
AcDbVertex
100
AcDb2dVertex
 10
7458794.98694497068
 20
5756052.80524621811
  0
SEQEND
  5
2E
100
AcDbEntity
  8
Osie
  0
POLYLINE
  5
2F
100
AcDbEntity
  8
Osie
  6
ByLayer
370
18
100
AcDb2dPolyline
 66
1
 70
128
  0
VERTEX
  5
30
100
AcDbEntity
  8
Osie
100
AcDbVertex
100
AcDb2dVertex
 10
7458794.98694497068
 20
5756052.80524621811
  0
VERTEX
  5
31
100
AcDbEntity
  8
Osie
100
AcDbVertex
100
AcDb2dVertex
 10
7458796.68323639408
 20
5756046.67606467288
  0
SEQEND
  5
32
100
AcDbEntity
  8
Osie
  0
POLYLINE
  5
33
100
AcDbEntity
  8
Osie
  6
ByLayer
370
18
100
AcDb2dPolyline
 66
1
 70
128
  0
VERTEX
  5
34
100
AcDbEntity
  8
Osie
100
AcDbVertex
100
AcDb2dVertex
 10
7458796.68323639408
 20
5756046.67606467288
  0
VERTEX
  5
35
100
AcDbEntity
  8
Osie
100
AcDbVertex
100
AcDb2dVertex
 10
7458780.91509883571
 20
5756042.31276069488
  0
SEQEND
  5
36
100
AcDbEntity
  8
Osie
  0
POLYLINE
  5
37
100
AcDbEntity
  8
puszcza
  6
CONTINUOUS
370
18
100
AcDb2dPolyline
 66
1
 70
128
  0
VERTEX
  5
38
100
AcDbEntity
  8
puszcza
100
AcDbVertex
100
AcDb2dVertex
 10
7458773.37038739864
 20
5756053.38190904725
  0
VERTEX
  5
39
100
AcDbEntity
  8
puszcza
100
AcDbVertex
100
AcDb2dVertex
 10
7458802.09449343663
 20
5756061.32015809882
  0
SEQEND
  5
3A
100
AcDbEntity
  8
puszcza
  0
POLYLINE
  5
3B
100
AcDbEntity
  8
puszcza
  6
CONTINUOUS
370
18
100
AcDb2dPolyline
 66
1
 70
128
  0
VERTEX
  5
3C
100
AcDbEntity
  8
puszcza
100
AcDbVertex
100
AcDb2dVertex
 10
7458802.09449343663
 20
5756061.32015809882
  0
VERTEX
  5
3D
100
AcDbEntity
  8
puszcza
100
AcDbVertex
100
AcDb2dVertex
 10
7458807.59907478839
 20
5756044.19342315663
  0
SEQEND
  5
3E
100
AcDbEntity
  8
puszcza
  0
POLYLINE
  5
3F
100
AcDbEntity
  8
puszcza
  6
CONTINUOUS
370
18
100
AcDb2dPolyline
 66
1
 70
128
  0
VERTEX
  5
40
100
AcDbEntity
  8
puszcza
100
AcDbVertex
100
AcDb2dVertex
 10
7458807.59907478839
 20
5756044.19342315663
  0
VERTEX
  5
41
100
AcDbEntity
  8
puszcza
100
AcDbVertex
100
AcDb2dVertex
 10
7458804.33675536979
 20
5756038.02743241657
  0
SEQEND
  5
42
100
AcDbEntity
  8
puszcza
  0
POLYLINE
  5
43
100
AcDbEntity
  8
puszcza
  6
CONTINUOUS
370
18
100
AcDb2dPolyline
 66
1
 70
128
  0
VERTEX
  5
44
100
AcDbEntity
  8
puszcza
100
AcDbVertex
100
AcDb2dVertex
 10
7458804.33675536979
 20
5756038.02743241657
  0
VERTEX
  5
45
100
AcDbEntity
  8
puszcza
100
AcDbVertex
100
AcDb2dVertex
 10
7458779.57964701112
 20
5756030.94099447597
  0
SEQEND
  5
46
100
AcDbEntity
  8
puszcza
  0
POLYLINE
  5
47
100
AcDbEntity
  8
puszcza
  6
CONTINUOUS
370
18
100
AcDb2dPolyline
 66
1
 70
128
  0
VERTEX
  5
48
100
AcDbEntity
  8
puszcza
100
AcDbVertex
100
AcDb2dVertex
 10
7458779.57964701112
 20
5756030.94099447597
  0
VERTEX
  5
49
100
AcDbEntity
  8
puszcza
100
AcDbVertex
100
AcDb2dVertex
 10
7458773.37038739864
 20
5756053.38190904725
  0
SEQEND
  5
4A
100
AcDbEntity
  8
puszcza
  0
POLYLINE
  5
4B
100
AcDbEntity
  8
Siatka
  6
CONTINUOUS
370
18
100
AcDb2dPolyline
 66
1
 70
128
  0
VERTEX
  5
4C
100
AcDbEntity
  8
Siatka
100
AcDbVertex
100
AcDb2dVertex
 10
7458790.0
 20
5756000.0
  0
VERTEX
  5
4D
100
AcDbEntity
  8
Siatka
100
AcDbVertex
100
AcDb2dVertex
 10
7458810.0
 20
5756000.0
  0
SEQEND
  5
4E
100
AcDbEntity
  8
Siatka
  0
POLYLINE
  5
4F
100
AcDbEntity
  8
Siatka
  6
CONTINUOUS
370
18
100
AcDb2dPolyline
 66
1
 70
128
  0
VERTEX
  5
50
100
AcDbEntity
  8
Siatka
100
AcDbVertex
100
AcDb2dVertex
 10
7458800.0
 20
5755990.0
  0
VERTEX
  5
51
100
AcDbEntity
  8
Siatka
100
AcDbVertex
100
AcDb2dVertex
 10
7458800.0
 20
5756009.99999999907
  0
SEQEND
  5
52
100
AcDbEntity
  8
Siatka
  0
POINT
  5
53
100
AcDbEntity
  8
puszcza
100
AcDbPoint
 62
256
 10
7458773.37038739864
 20
5756053.38190904725
  0
POINT
  5
54
100
AcDbEntity
  8
puszcza
100
AcDbPoint
 62
256
 10
7458802.09449343663
 20
5756061.32015809882
  0
POINT
  5
55
100
AcDbEntity
  8
puszcza
100
AcDbPoint
 62
256
 10
7458802.09449343663
 20
5756061.32015809882
  0
POINT
  5
56
100
AcDbEntity
  8
puszcza
100
AcDbPoint
 62
256
 10
7458807.59907478839
 20
5756044.19342315663
  0
POINT
  5
57
100
AcDbEntity
  8
puszcza
100
AcDbPoint
 62
256
 10
7458807.59907478839
 20
5756044.19342315663
  0
POINT
  5
58
100
AcDbEntity
  8
puszcza
100
AcDbPoint
 62
256
 10
7458804.33675536979
 20
5756038.02743241657
  0
POINT
  5
59
100
AcDbEntity
  8
puszcza
100
AcDbPoint
 62
256
 10
7458804.33675536979
 20
5756038.02743241657
  0
POINT
  5
5A
100
AcDbEntity
  8
puszcza
100
AcDbPoint
 62
256
 10
7458779.57964701112
 20
5756030.94099447597
  0
POINT
  5
5B
100
AcDbEntity
  8
puszcza
100
AcDbPoint
 62
256
 10
7458779.57964701112
 20
5756030.94099447597
  0
POINT
  5
5C
100
AcDbEntity
  8
puszcza
100
AcDbPoint
 62
256
 10
7458773.37038739864
 20
5756053.38190904725
  0
POINT
  5
5D
100
AcDbEntity
  8
puszcza
100
AcDbPoint
 62
256
 10
7458780.69248687569
 20
5756041.91858567111
  0
POINT
  5
5E
100
AcDbEntity
  8
puszcza
100
AcDbPoint
 62
256
 10
7458778.82556591276
 20
5756048.66505480465
  0
POINT
  5
5F
100
AcDbEntity
  8
puszcza
100
AcDbPoint
 62
256
 10
7458795.20980802737
 20
5756053.19899462722
  0
POINT
  5
60
100
AcDbEntity
  8
puszcza
100
AcDbPoint
 62
256
 10
7458797.07672442496
 20
5756046.45254199207
  0
POINT
  5
61
100
AcDbEntity
  8
Siatka
100
AcDbPoint
 62
256
 10
7458790.0
 20
5756000.0
  0
POINT
  5
62
100
AcDbEntity
  8
Siatka
100
AcDbPoint
 62
256
 10
7458810.0
 20
5756000.0
  0
POINT
  5
63
100
AcDbEntity
  8
Siatka
100
AcDbPoint
 62
256
 10
7458800.0
 20
5755990.0
  0
POINT
  5
64
100
AcDbEntity
  8
Siatka
100
AcDbPoint
 62
256
 10
7458800.0
 20
5756009.99999999907
  0
TEXT
  5
65
100
AcDbEntity
  8
Osie
370
18
100
AcDbText
 39
0.18
 10
7458785.31807847228
 20
5756050.33157968428
 40
0.90
  1
-16.360-
 50
-345.00
 41
0.66
  7
STANDARD
 72
1
 11
7458787.13439067267
 21
5756050.50767621677
100
AcDbText
 73
1
  0
TEXT
  5
66
100
AcDbEntity
  8
Osie
370
18
100
AcDbText
 39
0.18
 10
7458787.01391369943
 20
5756044.20240505226
 40
0.90
  1
-16.360-
 50
-345.00
 41
0.66
  7
STANDARD
 72
1
 11
7458788.83022589982
 21
5756044.37850158475
100
AcDbText
 73
1
  0
TEXT
  5
67
100
AcDbEntity
  8
Osie
370
18
100
AcDbText
 39
0.18
 10
7458795.60131733492
 20
5756051.30857605021
 40
0.90
  1
-6.359-
 50
-75.00
 41
0.66
  7
STANDARD
 72
1
 11
7458795.71917958278
 21
5756049.70959716011
100
AcDbText
 73
1
  0
TEXT
  5
68
100
AcDbEntity
  8
Osie
370
18
100
AcDbText
 39
0.18
 10
7458779.83363597281
 20
5756046.94526515901
 40
0.90
  1
-6.359-
 50
-75.00
 41
0.66
  7
STANDARD
 72
1
 11
7458779.95149822068
 21
5756045.3462862689
100
AcDbText
 73
1
  0
ENDSEC
  0
SECTION
  2
OBJECTS
  0
DICTIONARY
  5
69
330
0
100
AcDbDictionary
280
0
281
1
  3
ACAD_GROUP
350
6A
  3
ACAD_LAYOUT
350
6B
  3
ACAD_MLINESTYLE
350
6C
  3
ACAD_PLOTSETTINGS
350
6D
  3
ACAD_PLOTSTYLENAME
350
6E
  0
DICTIONARY
  5
6A
102
{ACAD_REACTORS
330
69
102
}
330
69
100
AcDbDictionary
280
0
281
1
  0
DICTIONARY
  5
6B
102
{ACAD_REACTORS
330
69
102
}
330
69
100
AcDbDictionary
280
0
281
1
  3
Layout
350
1C
  3
Model
350
1A
  0
DICTIONARY
  5
6C
102
{ACAD_REACTORS
330
69
102
}
330
69
100
AcDbDictionary
280
0
281
1
  3
Standard
350
6F
  0
DICTIONARY
  5
6D
102
{ACAD_REACTORS
330
69
102
}
330
69
100
AcDbDictionary
280
0
281
1
  0
ACDBDICTIONARYWDFLT
  5
6E
102
{ACAD_REACTORS
330
69
102
}
330
69
100
AcDbDictionary
281
1
  3
Normal
350
A
100
AcDbDictionaryWithDefault
340
A
  0
LAYOUT
  5
1C
100
AcDbPlotSettings
  1

  2

  4

  6

 40
0.0
 41
0.0
 42
0.0
 43
0.0
 44
0.0
 45
0.0
 46
0.0
 47
0.0
 48
0.0
 49
0.0
140
0.0
141
0.0
142
1.0
143
1.0
 70
688
 72
1
 73
0
 74
5
  7

 75
0
147
1.0
148
0.0
149
0.0
100
AcDbLayout
  1
Layout
 70
1
 71
1
 10
0.0
 20
0.0
 11
420.0
 21
297.0
 12
0.0
 22
0.0
 32
0.0
 14
100000000000000000000.0
 24
100000000000000000000.0
 34
100000000000000000000.0
 15
-100000000000000000000.0
 25
-100000000000000000000.0
 35
-100000000000000000000.0
146
0.0
 13
0.0
 23
0.0
 33
0.0
 16
1.0
 26
0.0
 36
0.0
 17
0.0
 27
1.0
 37
0.0
 76
0
330
1B
  0
LAYOUT
  5
1A
100
AcDbPlotSettings
  1

  2

  4

  6

 40
0.0
 41
0.0
 42
0.0
 43
0.0
 44
0.0
 45
0.0
 46
0.0
 47
0.0
 48
0.0
 49
0.0
140
0.0
141
0.0
142
1.0
143
1.0
 70
1712
 72
1
 73
0
 74
0
  7

 75
0
147
1.0
148
0.0
149
0.0
100
AcDbLayout
  1
Model
 70
1
 71
0
 10
0.0
 20
0.0
 11
12.0
 21
9.0
 12
0.0
 22
0.0
 32
0.0
 14
0.0
 24
0.0
 34
0.0
 15
0.0
 25
0.0
 35
0.0
146
0.0
 13
0.0
 23
0.0
 33
0.0
 16
1.0
 26
0.0
 36
0.0
 17
0.0
 27
1.0
 37
0.0
 76
0
330
19
  0
MLINESTYLE
  5
6F
102
{ACAD_REACTORS
330
6C
102
}
330
6C
100
AcDbMlineStyle
  2
Standard
 70
0
  3

 62
256
 51
90.0
 52
90.0
  2
Standard
 71
2
 49
0.5
 62
256
  6
ByLayer
 49
-0.5
 62
256
  6
ByLayer
  0
ACDBPLACEHOLDER
  5
A
  0
ENDSEC
  0
EOF
