  0
SECTION
  2
HEADER
  9
$ACADVER
  1
AC1027
  9
$ACADMAINTVER
 70
     8
  9
$DWGCODEPAGE
  3
ANSI_1250
  9
$REQUIREDVERSIONS
160
                 0
  9
$INSBASE
 10
0.0
 20
0.0
 30
0.0
  9
$EXTMIN
 10
7562104.13
 20
5719834.75
 30
0.0
  9
$EXTMAX
 10
7566062.759999998
 20
5724584.139999999
 30
0.0
  9
$LIMMIN
 10
7562104.13
 20
5719834.75
  9
$LIMMAX
 10
7566062.759999998
 20
5724584.139999999
  9
$ORTHOMODE
 70
     0
  9
$REGENMODE
 70
     1
  9
$FILLMODE
 70
     1
  9
$QTEXTMODE
 70
     0
  9
$MIRRTEXT
 70
     0
  9
$LTSCALE
 40
1.0
  9
$ATTMODE
 70
     1
  9
$TEXTSIZE
 40
0.2
  9
$TRACEWID
 40
0.05
  9
$TEXTSTYLE
  7
STANDARD
  9
$CLAYER
  8
0
  9
$CELTYPE
  6
CONTINUOUS
  9
$CECOLOR
 62
   256
  9
$CELTSCALE
 40
1.0
  9
$DISPSILH
 70
     0
  9
$DIMSCALE
 40
1.0
  9
$DIMASZ
 40
2.5
  9
$DIMEXO
 40
0.625
  9
$DIMDLI
 40
0.38
  9
$DIMRND
 40
0.0
  9
$DIMDLE
 40
0.0
  9
$DIMEXE
 40
1.25
  9
$DIMTP
 40
0.0
  9
$DIMTM
 40
0.0
  9
$DIMTXT
 40
2.5
  9
$DIMCEN
 40
0.09
  9
$DIMTSZ
 40
0.0
  9
$DIMTOL
 70
     0
  9
$DIMLIM
 70
     0
  9
$DIMTIH
 70
     1
  9
$DIMTOH
 70
     1
  9
$DIMSE1
 70
     0
  9
$DIMSE2
 70
     0
  9
$DIMTAD
 70
     0
  9
$DIMZIN
 70
     0
  9
$DIMBLK
  1

  9
$DIMASO
 70
     1
  9
$DIMSHO
 70
     1
  9
$DIMPOST
  1

  9
$DIMAPOST
  1

  9
$DIMALT
 70
     0
  9
$DIMALTD
 70
     2
  9
$DIMALTF
 40
25.4
  9
$DIMLFAC
 40
1.0
  9
$DIMTOFL
 70
     0
  9
$DIMTVP
 40
0.0
  9
$DIMTIX
 70
     0
  9
$DIMSOXD
 70
     0
  9
$DIMSAH
 70
     0
  9
$DIMBLK1
  1

  9
$DIMBLK2
  1

  9
$DIMSTYLE
  2
Standard
  9
$DIMCLRD
 70
     0
  9
$DIMCLRE
 70
     0
  9
$DIMCLRT
 70
     0
  9
$DIMTFAC
 40
1.0
  9
$DIMGAP
 40
0.625
  9
$DIMJUST
 70
     0
  9
$DIMSD1
 70
     0
  9
$DIMSD2
 70
     0
  9
$DIMTOLJ
 70
     1
  9
$DIMTZIN
 70
     0
  9
$DIMALTZ
 70
     0
  9
$DIMALTTZ
 70
     0
  9
$DIMUPT
 70
     0
  9
$DIMDEC
 70
     4
  9
$DIMTDEC
 70
     4
  9
$DIMALTU
 70
     2
  9
$DIMALTTD
 70
     2
  9
$DIMTXSTY
  7
STANDARD
  9
$DIMAUNIT
 70
     0
  9
$DIMADEC
 70
     0
  9
$DIMALTRND
 40
0.0
  9
$DIMAZIN
 70
     0
  9
$DIMDSEP
 70
    46
  9
$DIMATFIT
 70
     3
  9
$DIMFRAC
 70
     0
  9
$DIMLDRBLK
  1

  9
$DIMLUNIT
 70
     2
  9
$DIMLWD
 70
    -2
  9
$DIMLWE
 70
    -2
  9
$DIMTMOVE
 70
     0
  9
$DIMFXL
 40
1.0
  9
$DIMFXLON
 70
     0
  9
$DIMJOGANG
 40
0.7853981633974483
  9
$DIMTFILL
 70
     0
  9
$DIMTFILLCLR
 70
     0
  9
$DIMARCSYM
 70
     0
  9
$DIMLTYPE
  6

  9
$DIMLTEX1
  6

  9
$DIMLTEX2
  6

  9
$DIMTXTDIRECTION
 70
     0
  9
$LUNITS
 70
     2
  9
$LUPREC
 70
     4
  9
$SKETCHINC
 40
0.1
  9
$FILLETRAD
 40
0.0
  9
$AUNITS
 70
     0
  9
$AUPREC
 70
     0
  9
$MENU
  1

  9
$ELEVATION
 40
0.0
  9
$PELEVATION
 40
0.0
  9
$THICKNESS
 40
0.0
  9
$LIMCHECK
 70
     0
  9
$CHAMFERA
 40
0.0
  9
$CHAMFERB
 40
0.0
  9
$CHAMFERC
 40
0.0
  9
$CHAMFERD
 40
0.0
  9
$SKPOLY
 70
     0
  9
$TDCREATE
 40
2305814.459601771
  9
$TDUCREATE
 40
45439.376268438
  9
$TDUPDATE
 40
2460458.461104236
  9
$TDUUPDATE
 40
2460458.377770903
  9
$TDINDWG
 40
0.001088935
  9
$TDUSRTIMER
 40
0.001088796
  9
$USRTIMER
 70
     1
  9
$ANGBASE
 50
0.0
  9
$ANGDIR
 70
     0
  9
$PDMODE
 70
     0
  9
$PDSIZE
 40
0.0
  9
$PLINEWID
 40
0.0
  9
$SPLFRAME
 70
     0
  9
$SPLINETYPE
 70
     6
  9
$SPLINESEGS
 70
     8
  9
$HANDSEED
  5
1000283
  9
$SURFTAB1
 70
     6
  9
$SURFTAB2
 70
     6
  9
$SURFTYPE
 70
     6
  9
$SURFU
 70
     6
  9
$SURFV
 70
     6
  9
$UCSBASE
  2

  9
$UCSNAME
  2

  9
$UCSORG
 10
0.0
 20
0.0
 30
0.0
  9
$UCSXDIR
 10
1.0
 20
0.0
 30
0.0
  9
$UCSYDIR
 10
0.0
 20
1.0
 30
0.0
  9
$UCSORTHOREF
  2

  9
$UCSORTHOVIEW
 70
     0
  9
$UCSORGTOP
 10
0.0
 20
0.0
 30
0.0
  9
$UCSORGBOTTOM
 10
0.0
 20
0.0
 30
0.0
  9
$UCSORGLEFT
 10
0.0
 20
0.0
 30
0.0
  9
$UCSORGRIGHT
 10
0.0
 20
0.0
 30
0.0
  9
$UCSORGFRONT
 10
0.0
 20
0.0
 30
0.0
  9
$UCSORGBACK
 10
0.0
 20
0.0
 30
0.0
  9
$PUCSBASE
  2

  9
$PUCSNAME
  2

  9
$PUCSORG
 10
0.0
 20
0.0
 30
0.0
  9
$PUCSXDIR
 10
1.0
 20
0.0
 30
0.0
  9
$PUCSYDIR
 10
0.0
 20
1.0
 30
0.0
  9
$PUCSORTHOREF
  2

  9
$PUCSORTHOVIEW
 70
     0
  9
$PUCSORGTOP
 10
0.0
 20
0.0
 30
0.0
  9
$PUCSORGBOTTOM
 10
0.0
 20
0.0
 30
0.0
  9
$PUCSORGLEFT
 10
0.0
 20
0.0
 30
0.0
  9
$PUCSORGRIGHT
 10
0.0
 20
0.0
 30
0.0
  9
$PUCSORGFRONT
 10
0.0
 20
0.0
 30
0.0
  9
$PUCSORGBACK
 10
0.0
 20
0.0
 30
0.0
  9
$USERI1
 70
     0
  9
$USERI2
 70
     0
  9
$USERI3
 70
     0
  9
$USERI4
 70
     0
  9
$USERI5
 70
     0
  9
$USERR1
 40
0.0
  9
$USERR2
 40
0.0
  9
$USERR3
 40
0.0
  9
$USERR4
 40
0.0
  9
$USERR5
 40
0.0
  9
$WORLDVIEW
 70
     1
  9
$SHADEDGE
 70
     3
  9
$SHADEDIF
 70
    70
  9
$TILEMODE
 70
     1
  9
$MAXACTVP
 70
    64
  9
$PINSBASE
 10
0.0
 20
0.0
 30
0.0
  9
$PLIMCHECK
 70
     0
  9
$PEXTMIN
 10
1.000000000000000E+20
 20
1.000000000000000E+20
 30
1.000000000000000E+20
  9
$PEXTMAX
 10
-1.000000000000000E+20
 20
-1.000000000000000E+20
 30
-1.000000000000000E+20
  9
$PLIMMIN
 10
0.0
 20
0.0
  9
$PLIMMAX
 10
210.0
 20
297.0
  9
$UNITMODE
 70
     0
  9
$VISRETAIN
 70
     1
  9
$PLINEGEN
 70
     0
  9
$PSLTSCALE
 70
     1
  9
$TREEDEPTH
 70
  3020
  9
$CMLSTYLE
  2
Standard
  9
$CMLJUST
 70
     0
  9
$CMLSCALE
 40
1.0
  9
$PROXYGRAPHICS
 70
     1
  9
$MEASUREMENT
 70
     1
  9
$CELWEIGHT
370
    -1
  9
$ENDCAPS
280
     0
  9
$JOINSTYLE
280
     0
  9
$LWDISPLAY
290
     1
  9
$INSUNITS
 70
     6
  9
$HYPERLINKBASE
  1

  9
$STYLESHEET
  1

  9
$XEDIT
290
     0
  9
$CEPSNTYPE
380
     0
  9
$PSTYLEMODE
290
     1
  9
$FINGERPRINTGUID
  2
{99A3F0CA-317A-4963-8602-416A0F6956C0}
  9
$VERSIONGUID
  2
{8C3D4B88-70D7-4201-A29F-C5682A86842B}
  9
$EXTNAMES
290
     1
  9
$PSVPSCALE
 40
0.0
  9
$OLESTARTUP
290
     0
  9
$SORTENTS
280
   127
  9
$INDEXCTL
280
     0
  9
$HIDETEXT
280
     1
  9
$XCLIPFRAME
280
     2
  9
$HALOGAP
280
     0
  9
$OBSCOLOR
 70
   257
  9
$OBSLTYPE
280
     0
  9
$INTERSECTIONDISPLAY
280
     0
  9
$INTERSECTIONCOLOR
 70
   257
  9
$DIMASSOC
280
     2
  9
$PROJECTNAME
  1

  9
$CAMERADISPLAY
290
     0
  9
$LENSLENGTH
 40
50.0
  9
$CAMERAHEIGHT
 40
0.0
  9
$STEPSPERSEC
 40
2.0
  9
$STEPSIZE
 40
6.0
  9
$3DDWFPREC
 40
2.0
  9
$PSOLWIDTH
 40
0.25
  9
$PSOLHEIGHT
 40
4.0
  9
$LOFTANG1
 40
1.570796326794896
  9
$LOFTANG2
 40
1.570796326794896
  9
$LOFTMAG1
 40
0.0
  9
$LOFTMAG2
 40
0.0
  9
$LOFTPARAM
 70
     7
  9
$LOFTNORMALS
280
     1
  9
$LATITUDE
 40
0.0
  9
$LONGITUDE
 40
0.0
  9
$NORTHDIRECTION
 40
0.0
  9
$TIMEZONE
 70
 -8000
  9
$LIGHTGLYPHDISPLAY
280
     1
  9
$TILEMODELIGHTSYNCH
280
     1
  9
$CMATERIAL
347
1000000
  9
$SOLIDHIST
280
     1
  9
$SHOWHIST
280
     1
  9
$DWFFRAME
280
     2
  9
$DGNFRAME
280
     0
  9
$REALWORLDSCALE
290
     1
  9
$INTERFERECOLOR
 62
     1
  9
$CSHADOW
280
     0
  9
$SHADOWPLANELOCATION
 40
0.0
  0
ENDSEC
  0
SECTION
  2
CLASSES
  0
CLASS
  1
WIPEOUT
  2
AcDbWipeout
  3
WipeOut
 90
      127
 91
        0
280
     0
281
     1
  0
CLASS
  1
WIPEOUTVARIABLES
  2
AcDbWipeoutVariables
  3
WipeOut
 90
        0
 91
        0
280
     0
281
     0
  0
CLASS
  1
ACDBDICTIONARYWDFLT
  2
AcDbDictionaryWithDefault
  3
ObjectDBX Classes
 90
    32768
 91
        1
280
     0
281
     0
  0
CLASS
  1
MATERIAL
  2
AcDbMaterial
  3
ObjectDBX Classes
 90
        0
 91
        3
280
     0
281
     0
  0
CLASS
  1
VISUALSTYLE
  2
AcDbVisualStyle
  3
ObjectDBX Classes
 90
     4095
 91
       24
280
     0
281
     0
  0
CLASS
  1
TABLESTYLE
  2
AcDbTableStyle
  3
ObjectDBX Classes
 90
     2047
 91
        1
280
     0
281
     0
  0
CLASS
  1
MLEADERSTYLE
  2
AcDbMLeaderStyle
  3
ACDB_MLEADERSTYLE_CLASS
 90
     4095
 91
        1
280
     0
281
     0
  0
CLASS
  1
SCALE
  2
AcDbScale
  3
ObjectDBX Classes
 90
     1153
 91
       17
280
     0
281
     0
  0
CLASS
  1
SORTENTSTABLE
  2
AcDbSortentsTable
  3
ObjectDBX Classes
 90
        0
 91
        1
280
     0
281
     0
  0
CLASS
  1
DICTIONARYVAR
  2
AcDbDictionaryVar
  3
ObjectDBX Classes
 90
        0
 91
        4
280
     0
281
     0
  0
ENDSEC
  0
SECTION
  2
TABLES
  0
TABLE
  2
VPORT
  5
1
330
0
100
AcDbSymbolTable
 70
     1
  0
VPORT
  5
2
330
1
100
AcDbSymbolTableRecord
100
AcDbViewportTableRecord
  2
*ACTIVE
 70
     0
 10
0.0
 20
0.0
 11
1.0
 21
1.0
 12
7563137.336796729
 22
5723783.508757819
 13
0.0
 23
0.0
 14
1.0
 24
1.0
 15
0.0
 25
0.0
 16
0.0
 26
0.0
 36
1.0
 17
0.0
 27
0.0
 37
0.0
 40
2810.289940828404
 41
1.496522948539638
 42
50.0
 43
0.0
 44
0.0
 50
0.0
 51
0.0
 71
     0
 72
   100
 73
     1
 74
     1
 75
     0
 76
     0
 77
     0
 78
     0
281
     0
 65
     1
110
0.0
120
0.0
130
0.0
111
1.0
121
0.0
131
0.0
112
0.0
122
1.0
132
0.0
 79
     0
146
0.0
348
1000008
 60
     3
 61
     5
292
     1
282
     1
141
0.0
142
0.0
 63
   256
  0
ENDTAB
  0
TABLE
  2
LTYPE
  5
3
330
0
100
AcDbSymbolTable
 70
     4
  0
LTYPE
  5
4
330
3
100
AcDbSymbolTableRecord
100
AcDbLinetypeTableRecord
  2
ByBlock
 70
     0
  3

 72
    65
 73
     0
 40
0.0
  0
LTYPE
  5
5
330
3
100
AcDbSymbolTableRecord
100
AcDbLinetypeTableRecord
  2
ByLayer
 70
     0
  3

 72
    65
 73
     0
 40
0.0
  0
LTYPE
  5
6
330
3
100
AcDbSymbolTableRecord
100
AcDbLinetypeTableRecord
  2
CONTINUOUS
 70
     0
  3
Solid line
 72
    65
 73
     0
 40
0.0
  0
LTYPE
  5
8
330
3
100
AcDbSymbolTableRecord
100
AcDbLinetypeTableRecord
  2
L_0_02
 70
     0
  3
Dzialka_ewidencyjna (MLineStyle)
 72
    65
 73
     0
 40
0.0
  0
LTYPE
  5
9
330
3
100
AcDbSymbolTableRecord
100
AcDbLinetypeTableRecord
  2
L_0_03
 70
     0
  3
Uzytek_gruntowy
 72
    65
 73
     2
 40
1.0
 49
0.5
 74
     0
 49
-0.5
 74
     0
  0
LTYPE
  5
A
330
3
100
AcDbSymbolTableRecord
100
AcDbLinetypeTableRecord
  2
L_0_06
 70
     0
  3
Granica_konturu_klasyfikacyjnego_Krawedz_chodnika
 72
    65
 73
     2
 40
2.0
 49
1.5
 74
     0
 49
-0.5
 74
     0
  0
ENDTAB
  0
TABLE
  2
LAYER
  5
B
330
0
100
AcDbSymbolTable
 70
     2
  0
LAYER
  5
C
330
B
100
AcDbSymbolTableRecord
100
AcDbLayerTableRecord
  2
0
 70
     0
 62
     7
  6
CONTINUOUS
370
    18
390
D
347
1000002
348
0
  0
LAYER
  5
E
330
B
100
AcDbSymbolTableRecord
100
AcDbLayerTableRecord
  2
ewns_dzialki
 70
     0
 62
     7
  6
CONTINUOUS
370
    18
390
D
347
1000002
348
0
  0
ENDTAB
  0
TABLE
  2
STYLE
  5
F
330
0
100
AcDbSymbolTable
 70
     2
  0
STYLE
  5
10
330
F
100
AcDbSymbolTableRecord
100
AcDbTextStyleTableRecord
  2
STANDARD
 70
     0
 40
0.0
 41
1.0
 50
0.0
 71
     0
 42
0.2
  3
simplex.shx
  4

  0
STYLE
  5
11
330
F
100
AcDbSymbolTableRecord
100
AcDbTextStyleTableRecord
  2
STANDARD_ITALIC
 70
     0
 40
0.0
 41
1.0
 50
15.0
 71
     0
 42
0.2
  3
simplex.shx
  4

  0
ENDTAB
  0
TABLE
  2
VIEW
  5
12
330
0
100
AcDbSymbolTable
 70
     0
  0
ENDTAB
  0
TABLE
  2
UCS
  5
13
330
0
100
AcDbSymbolTable
 70
     0
  0
ENDTAB
  0
TABLE
  2
APPID
  5
14
330
0
100
AcDbSymbolTable
 70
     1
  0
APPID
  5
15
330
14
100
AcDbSymbolTableRecord
100
AcDbRegAppTableRecord
  2
ACAD
 70
     0
  0
ENDTAB
  0
TABLE
  2
DIMSTYLE
  5
16
330
0
100
AcDbSymbolTable
 70
     1
100
AcDbDimStyleTable
 71
     0
  0
DIMSTYLE
105
17
330
16
100
AcDbSymbolTableRecord
100
AcDbDimStyleTableRecord
  2
Standard
 70
     0
340
10
  0
ENDTAB
  0
TABLE
  2
BLOCK_RECORD
  5
18
330
0
100
AcDbSymbolTable
 70
     2
  0
BLOCK_RECORD
  5
19
102
{ACAD_XDICTIONARY
360
1000034
102
}
330
18
100
AcDbSymbolTableRecord
100
AcDbBlockTableRecord
  2
*MODEL_SPACE
340
1A
 70
     0
280
     1
281
     0
  0
BLOCK_RECORD
  5
1B
330
18
100
AcDbSymbolTableRecord
100
AcDbBlockTableRecord
  2
*PAPER_SPACE
340
1C
 70
     0
280
     1
281
     0
  0
BLOCK_RECORD
  5
1D
330
18
100
AcDbSymbolTableRecord
100
AcDbBlockTableRecord
  2
L_0_02_1
340
0
 70
     0
280
     1
281
     0
  0
BLOCK_RECORD
  5
1F
330
18
100
AcDbSymbolTableRecord
100
AcDbBlockTableRecord
  2
L_0_02_2
340
0
 70
     0
280
     1
281
     0
  0
ENDTAB
  0
ENDSEC
  0
SECTION
  2
BLOCKS
  0
BLOCK
  5
21
330
19
100
AcDbEntity
  8
0
100
AcDbBlockBegin
  2
*MODEL_SPACE
 70
     0
 10
0.0
 20
0.0
 30
0.0
  3
*MODEL_SPACE
  1

  0
ENDBLK
  5
22
330
19
100
AcDbEntity
  8
0
100
AcDbBlockEnd
  0
BLOCK
  5
23
330
1B
100
AcDbEntity
 67
     1
  8
0
100
AcDbBlockBegin
  2
*PAPER_SPACE
 70
     0
 10
0.0
 20
0.0
 30
0.0
  3
*PAPER_SPACE
  1

  0
ENDBLK
  5
24
330
1B
100
AcDbEntity
 67
     1
  8
0
100
AcDbBlockEnd
  0
BLOCK
  5
1E
330
1D
100
AcDbEntity
  8
0
 62
     0
370
    13
100
AcDbBlockBegin
  2
L_0_02_1
 70
     0
 10
0.0
 20
0.0
 30
0.0
  3
L_0_02_1
  1

  0
POINT
  5
25
330
1D
100
AcDbEntity
  8
0
 62
     0
100
AcDbPoint
 10
0.0
 20
0.0
 30
0.0
  0
ENDBLK
  5
26
330
1D
100
AcDbEntity
  8
0
100
AcDbBlockEnd
  0
BLOCK
  5
20
330
1F
100
AcDbEntity
  8
0
 62
     0
370
    13
100
AcDbBlockBegin
  2
L_0_02_2
 70
     0
 10
0.0
 20
0.0
 30
0.0
  3
L_0_02_2
  1

  0
POINT
  5
27
330
1F
100
AcDbEntity
  8
0
 62
     0
100
AcDbPoint
 10
0.0
 20
0.0
 30
0.0
  0
ENDBLK
  5
28
330
1F
100
AcDbEntity
  8
0
100
AcDbBlockEnd
  0
ENDSEC
  0
SECTION
  2
ENTITIES
  0
TEXT
  5
6D8
330
19
100
AcDbEntity
  8
ewns_dzialki
370
    50
100
AcDbText
 39
0.5
 10
7563196.599999998
 20
5723608.699999998
 30
0.0
 40
2.5
  1
80/1
 41
0.6600000000000001
 11
7563196.599999998
 21
5723607.866666664
 31
0.0
100
AcDbText
 73
     1
  0
LINE
  5
1000036
330
19
100
AcDbEntity
  8
ewns_dzialki
  6
Continuous
370
    18
100
AcDbLine
 10
7563192.509999999
 20
5723425.8
 30
0.0
 11
7563460.110000001
 21
5723392.999999999
 31
0.0
  0
LINE
  5
1000037
330
19
100
AcDbEntity
  8
ewns_dzialki
  6
Continuous
370
    18
100
AcDbLine
 10
7563460.110000001
 20
5723392.999999999
 30
0.0
 11
7563459.33
 21
5723386.750000001
 31
0.0
  0
LINE
  5
1000038
330
19
100
AcDbEntity
  8
ewns_dzialki
  6
Continuous
370
    18
100
AcDbLine
 10
7563459.33
 20
5723386.750000001
 30
0.0
 11
7563458.820000001
 21
5723382.75
 31
0.0
  0
LINE
  5
1000039
330
19
100
AcDbEntity
  8
ewns_dzialki
  6
Continuous
370
    18
100
AcDbLine
 10
7563458.820000001
 20
5723382.75
 30
0.0
 11
7563191.340000001
 21
5723415.540000001
 31
0.0
  0
LINE
  5
100003A
330
19
100
AcDbEntity
  8
ewns_dzialki
  6
Continuous
370
    18
100
AcDbLine
 10
7563191.340000001
 20
5723415.540000001
 30
0.0
 11
7563113.719999998
 21
5723424.69
 31
0.0
  0
LINE
  5
100003B
330
19
100
AcDbEntity
  8
ewns_dzialki
  6
Continuous
370
    18
100
AcDbLine
 10
7563113.719999998
 20
5723424.69
 30
0.0
 11
7563103.960000001
 21
5723436.24
 31
0.0
  0
LINE
  5
100003C
330
19
100
AcDbEntity
  8
ewns_dzialki
  6
Continuous
370
    18
100
AcDbLine
 10
7563103.960000001
 20
5723436.24
 30
0.0
 11
7563192.509999999
 21
5723425.8
 31
0.0
  0
LINE
  5
100003D
330
19
100
AcDbEntity
  8
ewns_dzialki
  6
Continuous
370
    18
100
AcDbLine
 10
7563113.719999998
 20
5723424.69
 30
0.0
 11
7563191.340000001
 21
5723415.540000001
 31
0.0
  0
LINE
  5
100003E
330
19
100
AcDbEntity
  8
ewns_dzialki
  6
Continuous
370
    18
100
AcDbLine
 10
7563191.340000001
 20
5723415.540000001
 30
0.0
 11
7563458.820000001
 21
5723382.75
 31
0.0
  0
LINE
  5
100003F
330
19
100
AcDbEntity
  8
ewns_dzialki
  6
Continuous
370
    18
100
AcDbLine
 10
7563458.820000001
 20
5723382.75
 30
0.0
 11
7563457.490000001
 21
5723372.16
 31
0.0
  0
LINE
  5
1000040
330
19
100
AcDbEntity
  8
ewns_dzialki
  6
Continuous
370
    18
100
AcDbLine
 10
7563457.490000001
 20
5723372.16
 30
0.0
 11
7563190.139999999
 21
5723404.95
 31
0.0
  0
LINE
  5
1000041
330
19
100
AcDbEntity
  8
ewns_dzialki
  6
Continuous
370
    18
100
AcDbLine
 10
7563190.139999999
 20
5723404.95
 30
0.0
 11
7563123.820000001
 21
5723412.77
 31
0.0
  0
LINE
  5
1000042
330
19
100
AcDbEntity
  8
ewns_dzialki
  6
Continuous
370
    18
100
AcDbLine
 10
7563123.820000001
 20
5723412.77
 30
0.0
 11
7563113.719999998
 21
5723424.69
 31
0.0
  0
LINE
  5
1000043
330
19
100
AcDbEntity
  8
ewns_dzialki
  6
Continuous
370
    18
100
AcDbLine
 10
7563123.820000001
 20
5723412.77
 30
0.0
 11
7563190.139999999
 21
5723404.95
 31
0.0
  0
LINE
  5
1000044
330
19
100
AcDbEntity
  8
ewns_dzialki
  6
Continuous
370
    18
100
AcDbLine
 10
7563190.139999999
 20
5723404.95
 30
0.0
 11
7563457.490000001
 21
5723372.16
 31
0.0
  0
LINE
  5
1000045
330
19
100
AcDbEntity
  8
ewns_dzialki
  6
Continuous
370
    18
100
AcDbLine
 10
7563457.490000001
 20
5723372.16
 30
0.0
 11
7563456.24
 21
5723362.16
 31
0.0
  0
LINE
  5
1000046
330
19
100
AcDbEntity
  8
ewns_dzialki
  6
Continuous
370
    18
100
AcDbLine
 10
7563456.24
 20
5723362.16
 30
0.0
 11
7563188.83
 21
5723393.51
 31
0.0
  0
LINE
  5
1000047
330
19
100
AcDbEntity
  8
ewns_dzialki
  6
Continuous
370
    18
100
AcDbLine
 10
7563188.83
 20
5723393.51
 30
0.0
 11
7563136.169999999
 21
5723398.14
 31
0.0
  0
LINE
  5
1000048
330
19
100
AcDbEntity
  8
ewns_dzialki
  6
Continuous
370
    18
100
AcDbLine
 10
7563136.169999999
 20
5723398.14
 30
0.0
 11
7563123.820000001
 21
5723412.77
 31
0.0
  0
LINE
  5
1000049
330
19
100
AcDbEntity
  8
ewns_dzialki
  6
Continuous
370
    18
100
AcDbLine
 10
7563487.639999999
 20
5723611.98
 30
0.0
 11
7563485.009999999
 21
5723591.1
 31
0.0
  0
LINE
  5
100004A
330
19
100
AcDbEntity
  8
ewns_dzialki
  6
Continuous
370
    18
100
AcDbLine
 10
7563485.009999999
 20
5723591.1
 30
0.0
 11
7563215.129999999
 21
5723624.459999999
 31
0.0
  0
LINE
  5
100004B
330
19
100
AcDbEntity
  8
ewns_dzialki
  6
Continuous
370
    18
100
AcDbLine
 10
7563215.129999999
 20
5723624.459999999
 30
0.0
 11
7562914.519999999
 21
5723660.860000001
 31
0.0
  0
LINE
  5
100004C
330
19
100
AcDbEntity
  8
ewns_dzialki
  6
Continuous
370
    18
100
AcDbLine
 10
7562914.519999999
 20
5723660.860000001
 30
0.0
 11
7562894.530000001
 21
5723684.469999999
 31
0.0
  0
LINE
  5
100004D
330
19
100
AcDbEntity
  8
ewns_dzialki
  6
Continuous
370
    18
100
AcDbLine
 10
7562894.530000001
 20
5723684.469999999
 30
0.0
 11
7563217.5
 21
5723645.38
 31
0.0
  0
LINE
  5
100004E
330
19
100
AcDbEntity
  8
ewns_dzialki
  6
Continuous
370
    18
100
AcDbLine
 10
7563217.5
 20
5723645.38
 30
0.0
 11
7563487.639999999
 21
5723611.98
 31
0.0
  0
LINE
  5
100004F
330
19
100
AcDbEntity
  8
ewns_dzialki
  6
Continuous
370
    18
100
AcDbLine
 10
7563492.42
 20
5723649.99
 30
0.0
 11
7563492.130000001
 21
5723647.71
 31
0.0
  0
LINE
  5
1000050
330
19
100
AcDbEntity
  8
ewns_dzialki
  6
Continuous
370
    18
100
AcDbLine
 10
7563492.130000001
 20
5723647.71
 30
0.0
 11
7563490.179999998
 21
5723632.079999999
 31
0.0
  0
LINE
  5
1000051
330
19
100
AcDbEntity
  8
ewns_dzialki
  6
Continuous
370
    18
100
AcDbLine
 10
7563490.179999998
 20
5723632.079999999
 30
0.0
 11
7563219.809999999
 21
5723665.51
 31
0.0
  0
LINE
  5
1000052
330
19
100
AcDbEntity
  8
ewns_dzialki
  6
Continuous
370
    18
100
AcDbLine
 10
7563219.809999999
 20
5723665.51
 30
0.0
 11
7562875.28
 21
5723707.230000001
 31
0.0
  0
LINE
  5
1000053
330
19
100
AcDbEntity
  8
ewns_dzialki
  6
Continuous
370
    18
100
AcDbLine
 10
7562875.28
 20
5723707.230000001
 30
0.0
 11
7562853.620000001
 21
5723732.8
 31
0.0
  0
LINE
  5
1000054
330
19
100
AcDbEntity
  8
ewns_dzialki
  6
Continuous
370
    18
100
AcDbLine
 10
7562853.620000001
 20
5723732.8
 30
0.0
 11
7563046.809999998
 21
5723710.099999999
 31
0.0
  0
LINE
  5
1000055
330
19
100
AcDbEntity
  8
ewns_dzialki
  6
Continuous
370
    18
100
AcDbLine
 10
7563046.809999998
 20
5723710.099999999
 30
0.0
 11
7563075.42
 21
5723701.130000001
 31
0.0
  0
LINE
  5
1000056
330
19
100
AcDbEntity
  8
ewns_dzialki
  6
Continuous
370
    18
100
AcDbLine
 10
7563075.42
 20
5723701.130000001
 30
0.0
 11
7563221.809999999
 21
5723683.09
 31
0.0
  0
LINE
  5
1000057
330
19
100
AcDbEntity
  8
ewns_dzialki
  6
Continuous
370
    18
100
AcDbLine
 10
7563221.809999999
 20
5723683.09
 30
0.0
 11
7563492.42
 21
5723649.99
 31
0.0
  0
LINE
  5
1000058
330
19
100
AcDbEntity
  8
ewns_dzialki
  6
Continuous
370
    18
100
AcDbLine
 10
7563700.419999999
 20
5723551.74
 30
0.0
 11
7563820.83
 21
5723540.11
 31
0.0
  0
LINE
  5
1000059
330
19
100
AcDbEntity
  8
ewns_dzialki
  6
Continuous
370
    18
100
AcDbLine
 10
7563820.83
 20
5723540.11
 30
0.0
 11
7563833.38
 21
5723495.980000001
 31
0.0
  0
LINE
  5
100005A
330
19
100
AcDbEntity
  8
ewns_dzialki
  6
Continuous
370
    18
100
AcDbLine
 10
7563833.38
 20
5723495.980000001
 30
0.0
 11
7563478.110000001
 21
5723536.23
 31
0.0
  0
LINE
  5
100005B
330
19
100
AcDbEntity
  8
ewns_dzialki
  6
Continuous
370
    18
100
AcDbLine
 10
7563478.110000001
 20
5723536.23
 30
0.0
 11
7563481.5
 21
5723563.12
 31
0.0
  0
LINE
  5
100005C
330
19
100
AcDbEntity
  8
ewns_dzialki
  6
Continuous
370
    18
100
AcDbLine
 10
7563481.5
 20
5723563.12
 30
0.0
 11
7563483.139999999
 21
5723576.23
 31
0.0
  0
LINE
  5
100005D
330
19
100
AcDbEntity
  8
ewns_dzialki
  6
Continuous
370
    18
100
AcDbLine
 10
7563483.139999999
 20
5723576.23
 30
0.0
 11
7563700.419999999
 21
5723551.74
 31
0.0
  0
LINE
  5
100005E
330
19
100
AcDbEntity
  8
ewns_dzialki
  6
Continuous
370
    18
100
AcDbLine
 10
7563833.38
 20
5723495.980000001
 30
0.0
 11
7563833.91
 21
5723494.12
 31
0.0
  0
LINE
  5
100005F
330
19
100
AcDbEntity
  8
ewns_dzialki
  6
Continuous
370
    18
100
AcDbLine
 10
7563833.91
 20
5723494.12
 30
0.0
 11
7563835.650000001
 21
5723455.259999999
 31
0.0
  0
LINE
  5
1000060
330
19
100
AcDbEntity
  8
ewns_dzialki
  6
Continuous
370
    18
100
AcDbLine
 10
7563835.650000001
 20
5723455.259999999
 30
0.0
 11
7563473.309999999
 21
5723498.04
 31
0.0
  0
LINE
  5
1000061
330
19
100
AcDbEntity
  8
ewns_dzialki
  6
Continuous
370
    18
100
AcDbLine
 10
7563473.309999999
 20
5723498.04
 30
0.0
 11
7563473.83
 21
5723502.059999999
 31
0.0
  0
LINE
  5
1000062
330
19
100
AcDbEntity
  8
ewns_dzialki
  6
Continuous
370
    18
100
AcDbLine
 10
7563473.83
 20
5723502.059999999
 30
0.0
 11
7563477.78
 21
5723533.549999999
 31
0.0
  0
LINE
  5
1000063
330
19
100
AcDbEntity
  8
ewns_dzialki
  6
Continuous
370
    18
100
AcDbLine
 10
7563477.78
 20
5723533.549999999
 30
0.0
 11
7563478.110000001
 21
5723536.23
 31
0.0
  0
LINE
  5
1000064
330
19
100
AcDbEntity
  8
ewns_dzialki
  6
Continuous
370
    18
100
AcDbLine
 10
7563478.110000001
 20
5723536.23
 30
0.0
 11
7563833.38
 21
5723495.980000001
 31
0.0
  0
LINE
  5
1000065
330
19
100
AcDbEntity
  8
ewns_dzialki
  6
Continuous
370
    18
100
AcDbLine
 10
7563215.129999999
 20
5723624.459999999
 30
0.0
 11
7563485.009999999
 21
5723591.1
 31
0.0
  0
LINE
  5
1000066
330
19
100
AcDbEntity
  8
ewns_dzialki
  6
Continuous
370
    18
100
AcDbLine
 10
7563485.009999999
 20
5723591.1
 30
0.0
 11
7563483.139999999
 21
5723576.23
 31
0.0
  0
LINE
  5
1000067
330
19
100
AcDbEntity
  8
ewns_dzialki
  6
Continuous
370
    18
100
AcDbLine
 10
7563483.139999999
 20
5723576.23
 30
0.0
 11
7563481.5
 21
5723563.12
 31
0.0
  0
LINE
  5
1000068
330
19
100
AcDbEntity
  8
ewns_dzialki
  6
Continuous
370
    18
100
AcDbLine
 10
7563481.5
 20
5723563.12
 30
0.0
 11
7563211.929999998
 21
5723596.33
 31
0.0
  0
LINE
  5
1000069
330
19
100
AcDbEntity
  8
ewns_dzialki
  6
Continuous
370
    18
100
AcDbLine
 10
7563211.929999998
 20
5723596.33
 30
0.0
 11
7562940.83
 21
5723629.57
 31
0.0
  0
LINE
  5
100006A
330
19
100
AcDbEntity
  8
ewns_dzialki
  6
Continuous
370
    18
100
AcDbLine
 10
7562940.83
 20
5723629.57
 30
0.0
 11
7562914.519999999
 21
5723660.860000001
 31
0.0
  0
LINE
  5
100006B
330
19
100
AcDbEntity
  8
ewns_dzialki
  6
Continuous
370
    18
100
AcDbLine
 10
7562914.519999999
 20
5723660.860000001
 30
0.0
 11
7563215.129999999
 21
5723624.459999999
 31
0.0
  0
LINE
  5
100006C
330
19
100
AcDbEntity
  8
ewns_dzialki
  6
Continuous
370
    18
100
AcDbLine
 10
7563481.5
 20
5723563.12
 30
0.0
 11
7563478.110000001
 21
5723536.23
 31
0.0
  0
LINE
  5
100006D
330
19
100
AcDbEntity
  8
ewns_dzialki
  6
Continuous
370
    18
100
AcDbLine
 10
7563478.110000001
 20
5723536.23
 30
0.0
 11
7563477.78
 21
5723533.549999999
 31
0.0
  0
LINE
  5
100006E
330
19
100
AcDbEntity
  8
ewns_dzialki
  6
Continuous
370
    18
100
AcDbLine
 10
7563477.78
 20
5723533.549999999
 30
0.0
 11
7563208.55
 21
5723566.65
 31
0.0
  0
LINE
  5
100006F
330
19
100
AcDbEntity
  8
ewns_dzialki
  6
Continuous
370
    18
100
AcDbLine
 10
7563208.55
 20
5723566.65
 30
0.0
 11
7562968.929999999
 21
5723596.16
 31
0.0
  0
LINE
  5
1000070
330
19
100
AcDbEntity
  8
ewns_dzialki
  6
Continuous
370
    18
100
AcDbLine
 10
7562968.929999999
 20
5723596.16
 30
0.0
 11
7562940.83
 21
5723629.57
 31
0.0
  0
LINE
  5
1000071
330
19
100
AcDbEntity
  8
ewns_dzialki
  6
Continuous
370
    18
100
AcDbLine
 10
7562940.83
 20
5723629.57
 30
0.0
 11
7563211.929999998
 21
5723596.33
 31
0.0
  0
LINE
  5
1000072
330
19
100
AcDbEntity
  8
ewns_dzialki
  6
Continuous
370
    18
100
AcDbLine
 10
7563211.929999998
 20
5723596.33
 30
0.0
 11
7563481.5
 21
5723563.12
 31
0.0
  0
LINE
  5
1000073
330
19
100
AcDbEntity
  8
ewns_dzialki
  6
Continuous
370
    18
100
AcDbLine
 10
7563477.78
 20
5723533.549999999
 30
0.0
 11
7563473.83
 21
5723502.059999999
 31
0.0
  0
LINE
  5
1000074
330
19
100
AcDbEntity
  8
ewns_dzialki
  6
Continuous
370
    18
100
AcDbLine
 10
7563473.83
 20
5723502.059999999
 30
0.0
 11
7563204.96
 21
5723535.11
 31
0.0
  0
LINE
  5
1000075
330
19
100
AcDbEntity
  8
ewns_dzialki
  6
Continuous
370
    18
100
AcDbLine
 10
7563204.96
 20
5723535.11
 30
0.0
 11
7562999.25
 21
5723560.099999999
 31
0.0
  0
LINE
  5
1000076
330
19
100
AcDbEntity
  8
ewns_dzialki
  6
Continuous
370
    18
100
AcDbLine
 10
7562999.25
 20
5723560.099999999
 30
0.0
 11
7562968.929999999
 21
5723596.16
 31
0.0
  0
LINE
  5
1000077
330
19
100
AcDbEntity
  8
ewns_dzialki
  6
Continuous
370
    18
100
AcDbLine
 10
7562968.929999999
 20
5723596.16
 30
0.0
 11
7563208.55
 21
5723566.65
 31
0.0
  0
LINE
  5
1000078
330
19
100
AcDbEntity
  8
ewns_dzialki
  6
Continuous
370
    18
100
AcDbLine
 10
7563208.55
 20
5723566.65
 30
0.0
 11
7563477.78
 21
5723533.549999999
 31
0.0
  0
LINE
  5
1000079
330
19
100
AcDbEntity
  8
ewns_dzialki
  6
Continuous
370
    18
100
AcDbLine
 10
7563466.830000001
 20
5723446.39
 30
0.0
 11
7563465.25
 21
5723433.85
 31
0.0
  0
LINE
  5
100007A
330
19
100
AcDbEntity
  8
ewns_dzialki
  6
Continuous
370
    18
100
AcDbLine
 10
7563465.25
 20
5723433.85
 30
0.0
 11
7563196.82
 21
5723463.719999999
 31
0.0
  0
LINE
  5
100007B
330
19
100
AcDbEntity
  8
ewns_dzialki
  6
Continuous
370
    18
100
AcDbLine
 10
7563196.82
 20
5723463.719999999
 30
0.0
 11
7563067.799999999
 21
5723479.02
 31
0.0
  0
LINE
  5
100007C
330
19
100
AcDbEntity
  8
ewns_dzialki
  6
Continuous
370
    18
100
AcDbLine
 10
7563067.799999999
 20
5723479.02
 30
0.0
 11
7563058.599999999
 21
5723489.9
 31
0.0
  0
LINE
  5
100007D
330
19
100
AcDbEntity
  8
ewns_dzialki
  6
Continuous
370
    18
100
AcDbLine
 10
7563058.599999999
 20
5723489.9
 30
0.0
 11
7563198.12
 21
5723475.040000001
 31
0.0
  0
LINE
  5
100007E
330
19
100
AcDbEntity
  8
ewns_dzialki
  6
Continuous
370
    18
100
AcDbLine
 10
7563198.12
 20
5723475.040000001
 30
0.0
 11
7563466.830000001
 21
5723446.39
 31
0.0
  0
LINE
  5
100007F
330
19
100
AcDbEntity
  8
ewns_dzialki
  6
Continuous
370
    18
100
AcDbLine
 10
7563067.799999999
 20
5723479.02
 30
0.0
 11
7563196.82
 21
5723463.719999999
 31
0.0
  0
LINE
  5
1000080
330
19
100
AcDbEntity
  8
ewns_dzialki
  6
Continuous
370
    18
100
AcDbLine
 10
7563196.82
 20
5723463.719999999
 30
0.0
 11
7563465.25
 21
5723433.85
 31
0.0
  0
LINE
  5
1000081
330
19
100
AcDbEntity
  8
ewns_dzialki
  6
Continuous
370
    18
100
AcDbLine
 10
7563465.25
 20
5723433.85
 30
0.0
 11
7563463.92
 21
5723423.34
 31
0.0
  0
LINE
  5
1000082
330
19
100
AcDbEntity
  8
ewns_dzialki
  6
Continuous
370
    18
100
AcDbLine
 10
7563463.92
 20
5723423.34
 30
0.0
 11
7563463.639999999
 21
5723421.059999999
 31
0.0
  0
LINE
  5
1000083
330
19
100
AcDbEntity
  8
ewns_dzialki
  6
Continuous
370
    18
100
AcDbLine
 10
7563463.639999999
 20
5723421.059999999
 30
0.0
 11
7563195.5
 21
5723452.090000001
 31
0.0
  0
LINE
  5
1000084
330
19
100
AcDbEntity
  8
ewns_dzialki
  6
Continuous
370
    18
100
AcDbLine
 10
7563195.5
 20
5723452.090000001
 30
0.0
 11
7563079.36
 21
5723465.34
 31
0.0
  0
LINE
  5
1000085
330
19
100
AcDbEntity
  8
ewns_dzialki
  6
Continuous
370
    18
100
AcDbLine
 10
7563079.36
 20
5723465.34
 30
0.0
 11
7563067.799999999
 21
5723479.02
 31
0.0
  0
LINE
  5
1000086
330
19
100
AcDbEntity
  8
ewns_dzialki
  6
Continuous
370
    18
100
AcDbLine
 10
7563079.36
 20
5723465.34
 30
0.0
 11
7563195.5
 21
5723452.090000001
 31
0.0
  0
LINE
  5
1000087
330
19
100
AcDbEntity
  8
ewns_dzialki
  6
Continuous
370
    18
100
AcDbLine
 10
7563195.5
 20
5723452.090000001
 30
0.0
 11
7563463.639999999
 21
5723421.059999999
 31
0.0
  0
LINE
  5
1000088
330
19
100
AcDbEntity
  8
ewns_dzialki
  6
Continuous
370
    18
100
AcDbLine
 10
7563463.639999999
 20
5723421.059999999
 30
0.0
 11
7563462.08
 21
5723408.66
 31
0.0
  0
LINE
  5
1000089
330
19
100
AcDbEntity
  8
ewns_dzialki
  6
Continuous
370
    18
100
AcDbLine
 10
7563462.08
 20
5723408.66
 30
0.0
 11
7563194.150000001
 21
5723440.12
 31
0.0
  0
LINE
  5
100008A
330
19
100
AcDbEntity
  8
ewns_dzialki
  6
Continuous
370
    18
100
AcDbLine
 10
7563194.150000001
 20
5723440.12
 30
0.0
 11
7563090.469999999
 21
5723452.2
 31
0.0
  0
LINE
  5
100008B
330
19
100
AcDbEntity
  8
ewns_dzialki
  6
Continuous
370
    18
100
AcDbLine
 10
7563090.469999999
 20
5723452.2
 30
0.0
 11
7563079.36
 21
5723465.34
 31
0.0
  0
LINE
  5
100008C
330
19
100
AcDbEntity
  8
ewns_dzialki
  6
Continuous
370
    18
100
AcDbLine
 10
7563192.509999999
 20
5723425.8
 30
0.0
 11
7563103.960000001
 21
5723436.24
 31
0.0
  0
LINE
  5
100008D
330
19
100
AcDbEntity
  8
ewns_dzialki
  6
Continuous
370
    18
100
AcDbLine
 10
7563103.960000001
 20
5723436.24
 30
0.0
 11
7563090.469999999
 21
5723452.2
 31
0.0
  0
LINE
  5
100008E
330
19
100
AcDbEntity
  8
ewns_dzialki
  6
Continuous
370
    18
100
AcDbLine
 10
7563090.469999999
 20
5723452.2
 30
0.0
 11
7563194.150000001
 21
5723440.12
 31
0.0
  0
LINE
  5
100008F
330
19
100
AcDbEntity
  8
ewns_dzialki
  6
Continuous
370
    18
100
AcDbLine
 10
7563194.150000001
 20
5723440.12
 30
0.0
 11
7563462.08
 21
5723408.66
 31
0.0
  0
LINE
  5
1000090
330
19
100
AcDbEntity
  8
ewns_dzialki
  6
Continuous
370
    18
100
AcDbLine
 10
7563462.08
 20
5723408.66
 30
0.0
 11
7563460.110000001
 21
5723392.999999999
 31
0.0
  0
LINE
  5
1000091
330
19
100
AcDbEntity
  8
ewns_dzialki
  6
Continuous
370
    18
100
AcDbLine
 10
7563460.110000001
 20
5723392.999999999
 30
0.0
 11
7563192.509999999
 21
5723425.8
 31
0.0
  0
LINE
  5
1000092
330
19
100
AcDbEntity
  8
ewns_dzialki
  6
Continuous
370
    18
100
AcDbLine
 10
7563136.169999999
 20
5723398.14
 30
0.0
 11
7563188.83
 21
5723393.51
 31
0.0
  0
LINE
  5
1000093
330
19
100
AcDbEntity
  8
ewns_dzialki
  6
Continuous
370
    18
100
AcDbLine
 10
7563188.83
 20
5723393.51
 30
0.0
 11
7563456.24
 21
5723362.16
 31
0.0
  0
LINE
  5
1000094
330
19
100
AcDbEntity
  8
ewns_dzialki
  6
Continuous
370
    18
100
AcDbLine
 10
7563456.24
 20
5723362.16
 30
0.0
 11
7563454.75
 21
5723350.36
 31
0.0
  0
LINE
  5
1000095
330
19
100
AcDbEntity
  8
ewns_dzialki
  6
Continuous
370
    18
100
AcDbLine
 10
7563454.75
 20
5723350.36
 30
0.0
 11
7563453.24
 21
5723338.36
 31
0.0
  0
LINE
  5
1000096
330
19
100
AcDbEntity
  8
ewns_dzialki
  6
Continuous
370
    18
100
AcDbLine
 10
7563453.24
 20
5723338.36
 30
0.0
 11
7563185.879999999
 21
5723367.57
 31
0.0
  0
LINE
  5
1000097
330
19
100
AcDbEntity
  8
ewns_dzialki
  6
Continuous
370
    18
100
AcDbLine
 10
7563185.879999999
 20
5723367.57
 30
0.0
 11
7563159.809999998
 21
5723370.179999999
 31
0.0
  0
LINE
  5
1000098
330
19
100
AcDbEntity
  8
ewns_dzialki
  6
Continuous
370
    18
100
AcDbLine
 10
7563159.809999998
 20
5723370.179999999
 30
0.0
 11
7563136.169999999
 21
5723398.14
 31
0.0
  0
LINE
  5
1000099
330
19
100
AcDbEntity
  8
ewns_dzialki
  6
Continuous
370
    18
100
AcDbLine
 10
7563183.05
 20
5723342.69
 30
0.0
 11
7563159.809999998
 21
5723370.179999999
 31
0.0
  0
LINE
  5
100009A
330
19
100
AcDbEntity
  8
ewns_dzialki
  6
Continuous
370
    18
100
AcDbLine
 10
7563159.809999998
 20
5723370.179999999
 30
0.0
 11
7563185.879999999
 21
5723367.57
 31
0.0
  0
LINE
  5
100009B
330
19
100
AcDbEntity
  8
ewns_dzialki
  6
Continuous
370
    18
100
AcDbLine
 10
7563185.879999999
 20
5723367.57
 30
0.0
 11
7563453.24
 21
5723338.36
 31
0.0
  0
LINE
  5
100009C
330
19
100
AcDbEntity
  8
ewns_dzialki
  6
Continuous
370
    18
100
AcDbLine
 10
7563453.24
 20
5723338.36
 30
0.0
 11
7563450.129999999
 21
5723313.58
 31
0.0
  0
LINE
  5
100009D
330
19
100
AcDbEntity
  8
ewns_dzialki
  6
Continuous
370
    18
100
AcDbLine
 10
7563450.129999999
 20
5723313.58
 30
0.0
 11
7563436.179999999
 21
5723315.099999999
 31
0.0
  0
LINE
  5
100009E
330
19
100
AcDbEntity
  8
ewns_dzialki
  6
Continuous
370
    18
100
AcDbLine
 10
7563436.179999999
 20
5723315.099999999
 30
0.0
 11
7563412.3
 21
5723317.699999999
 31
0.0
  0
LINE
  5
100009F
330
19
100
AcDbEntity
  8
ewns_dzialki
  6
Continuous
370
    18
100
AcDbLine
 10
7563412.3
 20
5723317.699999999
 30
0.0
 11
7563343.3
 21
5723325.22
 31
0.0
  0
LINE
  5
10000A0
330
19
100
AcDbEntity
  8
ewns_dzialki
  6
Continuous
370
    18
100
AcDbLine
 10
7563343.3
 20
5723325.22
 30
0.0
 11
7563183.05
 21
5723342.69
 31
0.0
  0
LINE
  5
10000A1
330
19
100
AcDbEntity
  8
ewns_dzialki
  6
Continuous
370
    18
100
AcDbLine
 10
7563485.009999999
 20
5723591.1
 30
0.0
 11
7563487.639999999
 21
5723611.98
 31
0.0
  0
LINE
  5
10000A2
330
19
100
AcDbEntity
  8
ewns_dzialki
  6
Continuous
370
    18
100
AcDbLine
 10
7563487.639999999
 20
5723611.98
 30
0.0
 11
7563487.969999998
 21
5723614.599999999
 31
0.0
  0
LINE
  5
10000A3
330
19
100
AcDbEntity
  8
ewns_dzialki
  6
Continuous
370
    18
100
AcDbLine
 10
7563487.969999998
 20
5723614.599999999
 30
0.0
 11
7563677.580000001
 21
5723591.629999999
 31
0.0
  0
LINE
  5
10000A4
330
19
100
AcDbEntity
  8
ewns_dzialki
  6
Continuous
370
    18
100
AcDbLine
 10
7563677.580000001
 20
5723591.629999999
 30
0.0
 11
7563810.429999998
 21
5723576.51
 31
0.0
  0
LINE
  5
10000A5
330
19
100
AcDbEntity
  8
ewns_dzialki
  6
Continuous
370
    18
100
AcDbLine
 10
7563810.429999998
 20
5723576.51
 30
0.0
 11
7563820.83
 21
5723540.11
 31
0.0
  0
LINE
  5
10000A6
330
19
100
AcDbEntity
  8
ewns_dzialki
  6
Continuous
370
    18
100
AcDbLine
 10
7563820.83
 20
5723540.11
 30
0.0
 11
7563700.419999999
 21
5723551.74
 31
0.0
  0
LINE
  5
10000A7
330
19
100
AcDbEntity
  8
ewns_dzialki
  6
Continuous
370
    18
100
AcDbLine
 10
7563700.419999999
 20
5723551.74
 30
0.0
 11
7563483.139999999
 21
5723576.23
 31
0.0
  0
LINE
  5
10000A8
330
19
100
AcDbEntity
  8
ewns_dzialki
  6
Continuous
370
    18
100
AcDbLine
 10
7563483.139999999
 20
5723576.23
 30
0.0
 11
7563485.009999999
 21
5723591.1
 31
0.0
  0
LINE
  5
10000A9
330
19
100
AcDbEntity
  8
ewns_dzialki
  6
Continuous
370
    18
100
AcDbLine
 10
7563466.830000001
 20
5723446.39
 30
0.0
 11
7563198.12
 21
5723475.040000001
 31
0.0
  0
LINE
  5
10000AA
330
19
100
AcDbEntity
  8
ewns_dzialki
  6
Continuous
370
    18
100
AcDbLine
 10
7563198.12
 20
5723475.040000001
 30
0.0
 11
7563058.599999999
 21
5723489.9
 31
0.0
  0
LINE
  5
10000AB
330
19
100
AcDbEntity
  8
ewns_dzialki
  6
Continuous
370
    18
100
AcDbLine
 10
7563058.599999999
 20
5723489.9
 30
0.0
 11
7563036.58
 21
5723515.929999999
 31
0.0
  0
LINE
  5
10000AC
330
19
100
AcDbEntity
  8
ewns_dzialki
  6
Continuous
370
    18
100
AcDbLine
 10
7563036.58
 20
5723515.929999999
 30
0.0
 11
7563468.91
 21
5723463.05
 31
0.0
  0
LINE
  5
10000AD
330
19
100
AcDbEntity
  8
ewns_dzialki
  6
Continuous
370
    18
100
AcDbLine
 10
7563468.91
 20
5723463.05
 30
0.0
 11
7563468.610000001
 21
5723460.61
 31
0.0
  0
LINE
  5
10000AE
330
19
100
AcDbEntity
  8
ewns_dzialki
  6
Continuous
370
    18
100
AcDbLine
 10
7563468.610000001
 20
5723460.61
 30
0.0
 11
7563466.830000001
 21
5723446.39
 31
0.0
  0
LINE
  5
10000AF
330
19
100
AcDbEntity
  8
ewns_dzialki
  6
Continuous
370
    18
100
AcDbLine
 10
7563465.25
 20
5723433.85
 30
0.0
 11
7563466.830000001
 21
5723446.39
 31
0.0
  0
LINE
  5
10000B0
330
19
100
AcDbEntity
  8
ewns_dzialki
  6
Continuous
370
    18
100
AcDbLine
 10
7563466.830000001
 20
5723446.39
 30
0.0
 11
7563468.610000001
 21
5723460.61
 31
0.0
  0
LINE
  5
10000B1
330
19
100
AcDbEntity
  8
ewns_dzialki
  6
Continuous
370
    18
100
AcDbLine
 10
7563468.610000001
 20
5723460.61
 30
0.0
 11
7563837.460000001
 21
5723415.24
 31
0.0
  0
LINE
  5
10000B2
330
19
100
AcDbEntity
  8
ewns_dzialki
  6
Continuous
370
    18
100
AcDbLine
 10
7563837.460000001
 20
5723415.24
 30
0.0
 11
7563838.940000001
 21
5723376.839999999
 31
0.0
  0
LINE
  5
10000B3
330
19
100
AcDbEntity
  8
ewns_dzialki
  6
Continuous
370
    18
100
AcDbLine
 10
7563838.940000001
 20
5723376.839999999
 30
0.0
 11
7563463.92
 21
5723423.34
 31
0.0
  0
LINE
  5
10000B4
330
19
100
AcDbEntity
  8
ewns_dzialki
  6
Continuous
370
    18
100
AcDbLine
 10
7563463.92
 20
5723423.34
 30
0.0
 11
7563465.25
 21
5723433.85
 31
0.0
  0
LINE
  5
10000B5
330
19
100
AcDbEntity
  8
ewns_dzialki
  6
Continuous
370
    18
100
AcDbLine
 10
7563460.110000001
 20
5723392.999999999
 30
0.0
 11
7563462.08
 21
5723408.66
 31
0.0
  0
LINE
  5
10000B6
330
19
100
AcDbEntity
  8
ewns_dzialki
  6
Continuous
370
    18
100
AcDbLine
 10
7563462.08
 20
5723408.66
 30
0.0
 11
7563463.639999999
 21
5723421.059999999
 31
0.0
  0
LINE
  5
10000B7
330
19
100
AcDbEntity
  8
ewns_dzialki
  6
Continuous
370
    18
100
AcDbLine
 10
7563463.639999999
 20
5723421.059999999
 30
0.0
 11
7563463.92
 21
5723423.34
 31
0.0
  0
LINE
  5
10000B8
330
19
100
AcDbEntity
  8
ewns_dzialki
  6
Continuous
370
    18
100
AcDbLine
 10
7563463.92
 20
5723423.34
 30
0.0
 11
7563838.940000001
 21
5723376.839999999
 31
0.0
  0
LINE
  5
10000B9
330
19
100
AcDbEntity
  8
ewns_dzialki
  6
Continuous
370
    18
100
AcDbLine
 10
7563838.940000001
 20
5723376.839999999
 30
0.0
 11
7563840.42
 21
5723341.41
 31
0.0
  0
LINE
  5
10000BA
330
19
100
AcDbEntity
  8
ewns_dzialki
  6
Continuous
370
    18
100
AcDbLine
 10
7563840.42
 20
5723341.41
 30
0.0
 11
7563459.33
 21
5723386.750000001
 31
0.0
  0
LINE
  5
10000BB
330
19
100
AcDbEntity
  8
ewns_dzialki
  6
Continuous
370
    18
100
AcDbLine
 10
7563459.33
 20
5723386.750000001
 30
0.0
 11
7563460.110000001
 21
5723392.999999999
 31
0.0
  0
LINE
  5
10000BC
330
19
100
AcDbEntity
  8
ewns_dzialki
  6
Continuous
370
    18
100
AcDbLine
 10
7563459.33
 20
5723386.750000001
 30
0.0
 11
7563840.42
 21
5723341.41
 31
0.0
  0
LINE
  5
10000BD
330
19
100
AcDbEntity
  8
ewns_dzialki
  6
Continuous
370
    18
100
AcDbLine
 10
7563840.42
 20
5723341.41
 30
0.0
 11
7563842.000000001
 21
5723303.98
 31
0.0
  0
LINE
  5
10000BE
330
19
100
AcDbEntity
  8
ewns_dzialki
  6
Continuous
370
    18
100
AcDbLine
 10
7563842.000000001
 20
5723303.98
 30
0.0
 11
7563454.75
 21
5723350.36
 31
0.0
  0
LINE
  5
10000BF
330
19
100
AcDbEntity
  8
ewns_dzialki
  6
Continuous
370
    18
100
AcDbLine
 10
7563454.75
 20
5723350.36
 30
0.0
 11
7563456.24
 21
5723362.16
 31
0.0
  0
LINE
  5
10000C0
330
19
100
AcDbEntity
  8
ewns_dzialki
  6
Continuous
370
    18
100
AcDbLine
 10
7563456.24
 20
5723362.16
 30
0.0
 11
7563457.490000001
 21
5723372.16
 31
0.0
  0
LINE
  5
10000C1
330
19
100
AcDbEntity
  8
ewns_dzialki
  6
Continuous
370
    18
100
AcDbLine
 10
7563457.490000001
 20
5723372.16
 30
0.0
 11
7563458.820000001
 21
5723382.75
 31
0.0
  0
LINE
  5
10000C2
330
19
100
AcDbEntity
  8
ewns_dzialki
  6
Continuous
370
    18
100
AcDbLine
 10
7563458.820000001
 20
5723382.75
 30
0.0
 11
7563459.33
 21
5723386.750000001
 31
0.0
  0
LINE
  5
10000C3
330
19
100
AcDbEntity
  8
ewns_dzialki
  6
Continuous
370
    18
100
AcDbLine
 10
7563454.75
 20
5723350.36
 30
0.0
 11
7563842.000000001
 21
5723303.98
 31
0.0
  0
LINE
  5
10000C4
330
19
100
AcDbEntity
  8
ewns_dzialki
  6
Continuous
370
    18
100
AcDbLine
 10
7563842.000000001
 20
5723303.98
 30
0.0
 11
7563842.67
 21
5723287.91
 31
0.0
  0
LINE
  5
10000C5
330
19
100
AcDbEntity
  8
ewns_dzialki
  6
Continuous
370
    18
100
AcDbLine
 10
7563842.67
 20
5723287.91
 30
0.0
 11
7563843.5
 21
5723284.79
 31
0.0
  0
LINE
  5
10000C6
330
19
100
AcDbEntity
  8
ewns_dzialki
  6
Continuous
370
    18
100
AcDbLine
 10
7563843.5
 20
5723284.79
 30
0.0
 11
7563858.190000001
 21
5723264.610000001
 31
0.0
  0
LINE
  5
10000C7
330
19
100
AcDbEntity
  8
ewns_dzialki
  6
Continuous
370
    18
100
AcDbLine
 10
7563858.190000001
 20
5723264.610000001
 30
0.0
 11
7563809.929999998
 21
5723269.110000001
 31
0.0
  0
LINE
  5
10000C8
330
19
100
AcDbEntity
  8
ewns_dzialki
  6
Continuous
370
    18
100
AcDbLine
 10
7563809.929999998
 20
5723269.110000001
 30
0.0
 11
7563715.74
 21
5723280.68
 31
0.0
  0
LINE
  5
10000C9
330
19
100
AcDbEntity
  8
ewns_dzialki
  6
Continuous
370
    18
100
AcDbLine
 10
7563715.74
 20
5723280.68
 30
0.0
 11
7563631.599999999
 21
5723291.02
 31
0.0
  0
LINE
  5
10000CA
330
19
100
AcDbEntity
  8
ewns_dzialki
  6
Continuous
370
    18
100
AcDbLine
 10
7563631.599999999
 20
5723291.02
 30
0.0
 11
7563627.949999999
 21
5723291.47
 31
0.0
  0
LINE
  5
10000CB
330
19
100
AcDbEntity
  8
ewns_dzialki
  6
Continuous
370
    18
100
AcDbLine
 10
7563627.949999999
 20
5723291.47
 30
0.0
 11
7563584.75
 21
5723296.84
 31
0.0
  0
LINE
  5
10000CC
330
19
100
AcDbEntity
  8
ewns_dzialki
  6
Continuous
370
    18
100
AcDbLine
 10
7563584.75
 20
5723296.84
 30
0.0
 11
7563567.240000001
 21
5723299.019999999
 31
0.0
  0
LINE
  5
10000CD
330
19
100
AcDbEntity
  8
ewns_dzialki
  6
Continuous
370
    18
100
AcDbLine
 10
7563567.240000001
 20
5723299.019999999
 30
0.0
 11
7563519.66
 21
5723304.93
 31
0.0
  0
LINE
  5
10000CE
330
19
100
AcDbEntity
  8
ewns_dzialki
  6
Continuous
370
    18
100
AcDbLine
 10
7563519.66
 20
5723304.93
 30
0.0
 11
7563457.679999999
 21
5723312.64
 31
0.0
  0
LINE
  5
10000CF
330
19
100
AcDbEntity
  8
ewns_dzialki
  6
Continuous
370
    18
100
AcDbLine
 10
7563457.679999999
 20
5723312.64
 30
0.0
 11
7563450.129999999
 21
5723313.58
 31
0.0
  0
LINE
  5
10000D0
330
19
100
AcDbEntity
  8
ewns_dzialki
  6
Continuous
370
    18
100
AcDbLine
 10
7563450.129999999
 20
5723313.58
 30
0.0
 11
7563453.24
 21
5723338.36
 31
0.0
  0
LINE
  5
10000D1
330
19
100
AcDbEntity
  8
ewns_dzialki
  6
Continuous
370
    18
100
AcDbLine
 10
7563453.24
 20
5723338.36
 30
0.0
 11
7563454.75
 21
5723350.36
 31
0.0
  0
LINE
  5
10000D2
330
19
100
AcDbEntity
  8
ewns_dzialki
  6
Continuous
370
    18
100
AcDbLine
 10
7563798.690000001
 20
5723621.669999999
 30
0.0
 11
7563800.23
 21
5723611.58
 31
0.0
  0
LINE
  5
10000D3
330
19
100
AcDbEntity
  8
ewns_dzialki
  6
Continuous
370
    18
100
AcDbLine
 10
7563800.23
 20
5723611.58
 30
0.0
 11
7563796.309999998
 21
5723612.019999999
 31
0.0
  0
LINE
  5
10000D4
330
19
100
AcDbEntity
  8
ewns_dzialki
  6
Continuous
370
    18
100
AcDbLine
 10
7563796.309999998
 20
5723612.019999999
 30
0.0
 11
7563791.580000001
 21
5723616.87
 31
0.0
  0
LINE
  5
10000D5
330
19
100
AcDbEntity
  8
ewns_dzialki
  6
Continuous
370
    18
100
AcDbLine
 10
7563791.580000001
 20
5723616.87
 30
0.0
 11
7563729.5
 21
5723627.570000001
 31
0.0
  0
LINE
  5
10000D6
330
19
100
AcDbEntity
  8
ewns_dzialki
  6
Continuous
370
    18
100
AcDbLine
 10
7563729.5
 20
5723627.570000001
 30
0.0
 11
7563730.91
 21
5723638.829999999
 31
0.0
  0
LINE
  5
10000D7
330
19
100
AcDbEntity
  8
ewns_dzialki
  6
Continuous
370
    18
100
AcDbLine
 10
7563730.91
 20
5723638.829999999
 30
0.0
 11
7563797.21
 21
5723631.34
 31
0.0
  0
LINE
  5
10000D8
330
19
100
AcDbEntity
  8
ewns_dzialki
  6
Continuous
370
    18
100
AcDbLine
 10
7563797.21
 20
5723631.34
 30
0.0
 11
7563798.690000001
 21
5723621.669999999
 31
0.0
  0
LINE
  5
10000D9
330
19
100
AcDbEntity
  8
ewns_dzialki
  6
Continuous
370
    18
100
AcDbLine
 10
7563492.42
 20
5723649.99
 30
0.0
 11
7563494.54
 21
5723666.92
 31
0.0
  0
LINE
  5
10000DA
330
19
100
AcDbEntity
  8
ewns_dzialki
  6
Continuous
370
    18
100
AcDbLine
 10
7563494.54
 20
5723666.92
 30
0.0
 11
7563645.009999999
 21
5723648.53
 31
0.0
  0
LINE
  5
10000DB
330
19
100
AcDbEntity
  8
ewns_dzialki
  6
Continuous
370
    18
100
AcDbLine
 10
7563645.009999999
 20
5723648.53
 30
0.0
 11
7563730.91
 21
5723638.829999999
 31
0.0
  0
LINE
  5
10000DC
330
19
100
AcDbEntity
  8
ewns_dzialki
  6
Continuous
370
    18
100
AcDbLine
 10
7563730.91
 20
5723638.829999999
 30
0.0
 11
7563729.5
 21
5723627.570000001
 31
0.0
  0
LINE
  5
10000DD
330
19
100
AcDbEntity
  8
ewns_dzialki
  6
Continuous
370
    18
100
AcDbLine
 10
7563729.5
 20
5723627.570000001
 30
0.0
 11
7563791.580000001
 21
5723616.87
 31
0.0
  0
LINE
  5
10000DE
330
19
100
AcDbEntity
  8
ewns_dzialki
  6
Continuous
370
    18
100
AcDbLine
 10
7563791.580000001
 20
5723616.87
 30
0.0
 11
7563796.309999998
 21
5723612.019999999
 31
0.0
  0
LINE
  5
10000DF
330
19
100
AcDbEntity
  8
ewns_dzialki
  6
Continuous
370
    18
100
AcDbLine
 10
7563796.309999998
 20
5723612.019999999
 30
0.0
 11
7563656.92
 21
5723627.74
 31
0.0
  0
LINE
  5
10000E0
330
19
100
AcDbEntity
  8
ewns_dzialki
  6
Continuous
370
    18
100
AcDbLine
 10
7563656.92
 20
5723627.74
 30
0.0
 11
7563492.130000001
 21
5723647.71
 31
0.0
  0
LINE
  5
10000E1
330
19
100
AcDbEntity
  8
ewns_dzialki
  6
Continuous
370
    18
100
AcDbLine
 10
7563492.130000001
 20
5723647.71
 30
0.0
 11
7563492.42
 21
5723649.99
 31
0.0
  0
LINE
  5
10000E2
330
19
100
AcDbEntity
  8
ewns_dzialki
  6
Continuous
370
    18
100
AcDbLine
 10
7563798.690000001
 20
5723621.669999999
 30
0.0
 11
7563797.21
 21
5723631.34
 31
0.0
  0
LINE
  5
10000E3
330
19
100
AcDbEntity
  8
ewns_dzialki
  6
Continuous
370
    18
100
AcDbLine
 10
7563797.21
 20
5723631.34
 30
0.0
 11
7563802.16
 21
5723630.79
 31
0.0
  0
LINE
  5
10000E4
330
19
100
AcDbEntity
  8
ewns_dzialki
  6
Continuous
370
    18
100
AcDbLine
 10
7563802.16
 20
5723630.79
 30
0.0
 11
7563803.469999998
 21
5723622.0
 31
0.0
  0
LINE
  5
10000E5
330
19
100
AcDbEntity
  8
ewns_dzialki
  6
Continuous
370
    18
100
AcDbLine
 10
7563803.469999998
 20
5723622.0
 30
0.0
 11
7563798.690000001
 21
5723621.669999999
 31
0.0
  0
LINE
  5
10000E6
330
19
100
AcDbEntity
  8
ewns_dzialki
  6
Continuous
370
    18
100
AcDbLine
 10
7563473.83
 20
5723502.059999999
 30
0.0
 11
7563473.309999999
 21
5723498.04
 31
0.0
  0
LINE
  5
10000E7
330
19
100
AcDbEntity
  8
ewns_dzialki
  6
Continuous
370
    18
100
AcDbLine
 10
7563473.309999999
 20
5723498.04
 30
0.0
 11
7563470.950000001
 21
5723479.24
 31
0.0
  0
LINE
  5
10000E8
330
19
100
AcDbEntity
  8
ewns_dzialki
  6
Continuous
370
    18
100
AcDbLine
 10
7563470.950000001
 20
5723479.24
 30
0.0
 11
7563468.91
 21
5723463.05
 31
0.0
  0
LINE
  5
10000E9
330
19
100
AcDbEntity
  8
ewns_dzialki
  6
Continuous
370
    18
100
AcDbLine
 10
7563468.91
 20
5723463.05
 30
0.0
 11
7563036.58
 21
5723515.929999999
 31
0.0
  0
LINE
  5
10000EA
330
19
100
AcDbEntity
  8
ewns_dzialki
  6
Continuous
370
    18
100
AcDbLine
 10
7563036.58
 20
5723515.929999999
 30
0.0
 11
7562999.25
 21
5723560.099999999
 31
0.0
  0
LINE
  5
10000EB
330
19
100
AcDbEntity
  8
ewns_dzialki
  6
Continuous
370
    18
100
AcDbLine
 10
7562999.25
 20
5723560.099999999
 30
0.0
 11
7563204.96
 21
5723535.11
 31
0.0
  0
LINE
  5
10000EC
330
19
100
AcDbEntity
  8
ewns_dzialki
  6
Continuous
370
    18
100
AcDbLine
 10
7563204.96
 20
5723535.11
 30
0.0
 11
7563473.83
 21
5723502.059999999
 31
0.0
  0
LINE
  5
10000ED
330
19
100
AcDbEntity
  8
ewns_dzialki
  6
Continuous
370
    18
100
AcDbLine
 10
7563835.650000001
 20
5723455.259999999
 30
0.0
 11
7563836.559999998
 21
5723435.16
 31
0.0
  0
LINE
  5
10000EE
330
19
100
AcDbEntity
  8
ewns_dzialki
  6
Continuous
370
    18
100
AcDbLine
 10
7563836.559999998
 20
5723435.16
 30
0.0
 11
7563470.950000001
 21
5723479.24
 31
0.0
  0
LINE
  5
10000EF
330
19
100
AcDbEntity
  8
ewns_dzialki
  6
Continuous
370
    18
100
AcDbLine
 10
7563470.950000001
 20
5723479.24
 30
0.0
 11
7563473.309999999
 21
5723498.04
 31
0.0
  0
LINE
  5
10000F0
330
19
100
AcDbEntity
  8
ewns_dzialki
  6
Continuous
370
    18
100
AcDbLine
 10
7563473.309999999
 20
5723498.04
 30
0.0
 11
7563835.650000001
 21
5723455.259999999
 31
0.0
  0
LINE
  5
10000F1
330
19
100
AcDbEntity
  8
ewns_dzialki
  6
Continuous
370
    18
100
AcDbLine
 10
7563468.610000001
 20
5723460.61
 30
0.0
 11
7563468.91
 21
5723463.05
 31
0.0
  0
LINE
  5
10000F2
330
19
100
AcDbEntity
  8
ewns_dzialki
  6
Continuous
370
    18
100
AcDbLine
 10
7563468.91
 20
5723463.05
 30
0.0
 11
7563470.950000001
 21
5723479.24
 31
0.0
  0
LINE
  5
10000F3
330
19
100
AcDbEntity
  8
ewns_dzialki
  6
Continuous
370
    18
100
AcDbLine
 10
7563470.950000001
 20
5723479.24
 30
0.0
 11
7563836.559999998
 21
5723435.16
 31
0.0
  0
LINE
  5
10000F4
330
19
100
AcDbEntity
  8
ewns_dzialki
  6
Continuous
370
    18
100
AcDbLine
 10
7563836.559999998
 20
5723435.16
 30
0.0
 11
7563837.460000001
 21
5723415.24
 31
0.0
  0
LINE
  5
10000F5
330
19
100
AcDbEntity
  8
ewns_dzialki
  6
Continuous
370
    18
100
AcDbLine
 10
7563837.460000001
 20
5723415.24
 30
0.0
 11
7563468.610000001
 21
5723460.61
 31
0.0
  0
LINE
  5
10000F6
330
19
100
AcDbEntity
  8
ewns_dzialki
  6
Continuous
370
    18
100
AcDbLine
 10
7563492.130000001
 20
5723647.71
 30
0.0
 11
7563656.92
 21
5723627.74
 31
0.0
  0
LINE
  5
10000F7
330
19
100
AcDbEntity
  8
ewns_dzialki
  6
Continuous
370
    18
100
AcDbLine
 10
7563656.92
 20
5723627.74
 30
0.0
 11
7563796.309999998
 21
5723612.019999999
 31
0.0
  0
LINE
  5
10000F8
330
19
100
AcDbEntity
  8
ewns_dzialki
  6
Continuous
370
    18
100
AcDbLine
 10
7563796.309999998
 20
5723612.019999999
 30
0.0
 11
7563800.23
 21
5723611.58
 31
0.0
  0
LINE
  5
10000F9
330
19
100
AcDbEntity
  8
ewns_dzialki
  6
Continuous
370
    18
100
AcDbLine
 10
7563800.23
 20
5723611.58
 30
0.0
 11
7563810.429999998
 21
5723576.51
 31
0.0
  0
LINE
  5
10000FA
330
19
100
AcDbEntity
  8
ewns_dzialki
  6
Continuous
370
    18
100
AcDbLine
 10
7563810.429999998
 20
5723576.51
 30
0.0
 11
7563677.580000001
 21
5723591.629999999
 31
0.0
  0
LINE
  5
10000FB
330
19
100
AcDbEntity
  8
ewns_dzialki
  6
Continuous
370
    18
100
AcDbLine
 10
7563677.580000001
 20
5723591.629999999
 30
0.0
 11
7563487.969999998
 21
5723614.599999999
 31
0.0
  0
LINE
  5
10000FC
330
19
100
AcDbEntity
  8
ewns_dzialki
  6
Continuous
370
    18
100
AcDbLine
 10
7563487.969999998
 20
5723614.599999999
 30
0.0
 11
7563488.94
 21
5723622.309999999
 31
0.0
  0
LINE
  5
10000FD
330
19
100
AcDbEntity
  8
ewns_dzialki
  6
Continuous
370
    18
100
AcDbLine
 10
7563488.94
 20
5723622.309999999
 30
0.0
 11
7563490.08
 21
5723631.46
 31
0.0
  0
LINE
  5
10000FE
330
19
100
AcDbEntity
  8
ewns_dzialki
  6
Continuous
370
    18
100
AcDbLine
 10
7563490.08
 20
5723631.46
 30
0.0
 11
7563490.179999998
 21
5723632.079999999
 31
0.0
  0
LINE
  5
10000FF
330
19
100
AcDbEntity
  8
ewns_dzialki
  6
Continuous
370
    18
100
AcDbLine
 10
7563490.179999998
 20
5723632.079999999
 30
0.0
 11
7563492.130000001
 21
5723647.71
 31
0.0
  0
LINE
  5
1000100
330
19
100
AcDbEntity
  8
ewns_dzialki
  6
Continuous
370
    18
100
AcDbLine
 10
7562875.28
 20
5723707.230000001
 30
0.0
 11
7563219.809999999
 21
5723665.51
 31
0.0
  0
LINE
  5
1000101
330
19
100
AcDbEntity
  8
ewns_dzialki
  6
Continuous
370
    18
100
AcDbLine
 10
7563219.809999999
 20
5723665.51
 30
0.0
 11
7563490.179999998
 21
5723632.079999999
 31
0.0
  0
LINE
  5
1000102
330
19
100
AcDbEntity
  8
ewns_dzialki
  6
Continuous
370
    18
100
AcDbLine
 10
7563490.179999998
 20
5723632.079999999
 30
0.0
 11
7563490.08
 21
5723631.46
 31
0.0
  0
LINE
  5
1000103
330
19
100
AcDbEntity
  8
ewns_dzialki
  6
Continuous
370
    18
100
AcDbLine
 10
7563490.08
 20
5723631.46
 30
0.0
 11
7563488.94
 21
5723622.309999999
 31
0.0
  0
LINE
  5
1000104
330
19
100
AcDbEntity
  8
ewns_dzialki
  6
Continuous
370
    18
100
AcDbLine
 10
7563488.94
 20
5723622.309999999
 30
0.0
 11
7562884.639999999
 21
5723696.170000001
 31
0.0
  0
LINE
  5
1000105
330
19
100
AcDbEntity
  8
ewns_dzialki
  6
Continuous
370
    18
100
AcDbLine
 10
7562884.639999999
 20
5723696.170000001
 30
0.0
 11
7562875.28
 21
5723707.230000001
 31
0.0
  0
LINE
  5
1000106
330
19
100
AcDbEntity
  8
ewns_dzialki
  6
Continuous
370
    18
100
AcDbLine
 10
7563487.639999999
 20
5723611.98
 30
0.0
 11
7563217.5
 21
5723645.38
 31
0.0
  0
LINE
  5
1000107
330
19
100
AcDbEntity
  8
ewns_dzialki
  6
Continuous
370
    18
100
AcDbLine
 10
7563217.5
 20
5723645.38
 30
0.0
 11
7562894.530000001
 21
5723684.469999999
 31
0.0
  0
LINE
  5
1000108
330
19
100
AcDbEntity
  8
ewns_dzialki
  6
Continuous
370
    18
100
AcDbLine
 10
7562894.530000001
 20
5723684.469999999
 30
0.0
 11
7562884.639999999
 21
5723696.170000001
 31
0.0
  0
LINE
  5
1000109
330
19
100
AcDbEntity
  8
ewns_dzialki
  6
Continuous
370
    18
100
AcDbLine
 10
7562884.639999999
 20
5723696.170000001
 30
0.0
 11
7563488.94
 21
5723622.309999999
 31
0.0
  0
LINE
  5
100010A
330
19
100
AcDbEntity
  8
ewns_dzialki
  6
Continuous
370
    18
100
AcDbLine
 10
7563488.94
 20
5723622.309999999
 30
0.0
 11
7563487.969999998
 21
5723614.599999999
 31
0.0
  0
LINE
  5
100010B
330
19
100
AcDbEntity
  8
ewns_dzialki
  6
Continuous
370
    18
100
AcDbLine
 10
7563487.969999998
 20
5723614.599999999
 30
0.0
 11
7563487.639999999
 21
5723611.98
 31
0.0
  0
LINE
  5
100010C
330
19
100
AcDbEntity
  8
ewns_dzialki
  6
Continuous
370
    18
100
AcDbLine
 10
7563492.42
 20
5723649.99
 30
0.0
 11
7563221.809999999
 21
5723683.09
 31
0.0
  0
LINE
  5
100010D
330
19
100
AcDbEntity
  8
ewns_dzialki
  6
Continuous
370
    18
100
AcDbLine
 10
7563221.809999999
 20
5723683.09
 30
0.0
 11
7563075.42
 21
5723701.130000001
 31
0.0
  0
LINE
  5
100010E
330
19
100
AcDbEntity
  8
ewns_dzialki
  6
Continuous
370
    18
100
AcDbLine
 10
7563075.42
 20
5723701.130000001
 30
0.0
 11
7563046.809999998
 21
5723710.099999999
 31
0.0
  0
LINE
  5
100010F
330
19
100
AcDbEntity
  8
ewns_dzialki
  6
Continuous
370
    18
100
AcDbLine
 10
7563046.809999998
 20
5723710.099999999
 30
0.0
 11
7562853.620000001
 21
5723732.8
 31
0.0
  0
LINE
  5
1000110
330
19
100
AcDbEntity
  8
ewns_dzialki
  6
Continuous
370
    18
100
AcDbLine
 10
7562853.620000001
 20
5723732.8
 30
0.0
 11
7562841.249999999
 21
5723747.519999999
 31
0.0
  0
LINE
  5
1000111
330
19
100
AcDbEntity
  8
ewns_dzialki
  6
Continuous
370
    18
100
AcDbLine
 10
7562841.249999999
 20
5723747.519999999
 30
0.0
 11
7563035.120000001
 21
5723723.030000001
 31
0.0
  0
LINE
  5
1000112
330
19
100
AcDbEntity
  8
ewns_dzialki
  6
Continuous
370
    18
100
AcDbLine
 10
7563035.120000001
 20
5723723.030000001
 30
0.0
 11
7563066.13
 21
5723719.19
 31
0.0
  0
LINE
  5
1000113
330
19
100
AcDbEntity
  8
ewns_dzialki
  6
Continuous
370
    18
100
AcDbLine
 10
7563066.13
 20
5723719.19
 30
0.0
 11
7563223.69
 21
5723699.68
 31
0.0
  0
LINE
  5
1000114
330
19
100
AcDbEntity
  8
ewns_dzialki
  6
Continuous
370
    18
100
AcDbLine
 10
7563223.69
 20
5723699.68
 30
0.0
 11
7563305.469999999
 21
5723689.799999999
 31
0.0
  0
LINE
  5
1000115
330
19
100
AcDbEntity
  8
ewns_dzialki
  6
Continuous
370
    18
100
AcDbLine
 10
7563305.469999999
 20
5723689.799999999
 30
0.0
 11
7563458.360000001
 21
5723671.330000001
 31
0.0
  0
LINE
  5
1000116
330
19
100
AcDbEntity
  8
ewns_dzialki
  6
Continuous
370
    18
100
AcDbLine
 10
7563458.360000001
 20
5723671.330000001
 30
0.0
 11
7563494.54
 21
5723666.92
 31
0.0
  0
LINE
  5
1000117
330
19
100
AcDbEntity
  8
ewns_dzialki
  6
Continuous
370
    18
100
AcDbLine
 10
7563494.54
 20
5723666.92
 30
0.0
 11
7563492.42
 21
5723649.99
 31
0.0
  0
LINE
  5
100024C
330
19
100
AcDbEntity
  8
ewns_dzialki
  6
Continuous
370
    18
100
AcDbLine
 10
7563196.03
 20
5723276.870000001
 30
0.0
 11
7563166.36
 21
5723312.91
 31
0.0
  0
LINE
  5
100024D
330
19
100
AcDbEntity
  8
ewns_dzialki
  6
Continuous
370
    18
100
AcDbLine
 10
7563166.36
 20
5723312.91
 30
0.0
 11
7563136.860000001
 21
5723348.75
 31
0.0
  0
LINE
  5
100024E
330
19
100
AcDbEntity
  8
ewns_dzialki
  6
Continuous
370
    18
100
AcDbLine
 10
7563136.860000001
 20
5723348.75
 30
0.0
 11
7563069.45
 21
5723430.86
 31
0.0
  0
LINE
  5
100024F
330
19
100
AcDbEntity
  8
ewns_dzialki
  6
Continuous
370
    18
100
AcDbLine
 10
7563069.45
 20
5723430.86
 30
0.0
 11
7563065.91
 21
5723435.17
 31
0.0
  0
LINE
  5
1000250
330
19
100
AcDbEntity
  8
ewns_dzialki
  6
Continuous
370
    18
100
AcDbLine
 10
7563065.91
 20
5723435.17
 30
0.0
 11
7563014.66
 21
5723497.599999999
 31
0.0
  0
LINE
  5
1000251
330
19
100
AcDbEntity
  8
ewns_dzialki
  6
Continuous
370
    18
100
AcDbLine
 10
7563014.66
 20
5723497.599999999
 30
0.0
 11
7562938.67
 21
5723589.64
 31
0.0
  0
LINE
  5
1000252
330
19
100
AcDbEntity
  8
ewns_dzialki
  6
Continuous
370
    18
100
AcDbLine
 10
7562938.67
 20
5723589.64
 30
0.0
 11
7562901.0
 21
5723634.920000001
 31
0.0
  0
LINE
  5
1000253
330
19
100
AcDbEntity
  8
ewns_dzialki
  6
Continuous
370
    18
100
AcDbLine
 10
7562901.0
 20
5723634.920000001
 30
0.0
 11
7562833.280000001
 21
5723716.330000001
 31
0.0
  0
LINE
  5
1000254
330
19
100
AcDbEntity
  8
ewns_dzialki
  6
Continuous
370
    18
100
AcDbLine
 10
7562833.280000001
 20
5723716.330000001
 30
0.0
 11
7562804.500000001
 21
5723750.93
 31
0.0
  0
LINE
  5
1000255
330
19
100
AcDbEntity
  8
ewns_dzialki
  6
Continuous
370
    18
100
AcDbLine
 10
7562804.500000001
 20
5723750.93
 30
0.0
 11
7562841.249999999
 21
5723747.519999999
 31
0.0
  0
LINE
  5
1000256
330
19
100
AcDbEntity
  8
ewns_dzialki
  6
Continuous
370
    18
100
AcDbLine
 10
7562841.249999999
 20
5723747.519999999
 30
0.0
 11
7562853.620000001
 21
5723732.8
 31
0.0
  0
LINE
  5
1000257
330
19
100
AcDbEntity
  8
ewns_dzialki
  6
Continuous
370
    18
100
AcDbLine
 10
7562853.620000001
 20
5723732.8
 30
0.0
 11
7562875.28
 21
5723707.230000001
 31
0.0
  0
LINE
  5
1000258
330
19
100
AcDbEntity
  8
ewns_dzialki
  6
Continuous
370
    18
100
AcDbLine
 10
7562875.28
 20
5723707.230000001
 30
0.0
 11
7562884.639999999
 21
5723696.170000001
 31
0.0
  0
LINE
  5
1000259
330
19
100
AcDbEntity
  8
ewns_dzialki
  6
Continuous
370
    18
100
AcDbLine
 10
7562884.639999999
 20
5723696.170000001
 30
0.0
 11
7562894.530000001
 21
5723684.469999999
 31
0.0
  0
LINE
  5
100025A
330
19
100
AcDbEntity
  8
ewns_dzialki
  6
Continuous
370
    18
100
AcDbLine
 10
7562894.530000001
 20
5723684.469999999
 30
0.0
 11
7562914.519999999
 21
5723660.860000001
 31
0.0
  0
LINE
  5
100025B
330
19
100
AcDbEntity
  8
ewns_dzialki
  6
Continuous
370
    18
100
AcDbLine
 10
7562914.519999999
 20
5723660.860000001
 30
0.0
 11
7562940.83
 21
5723629.57
 31
0.0
  0
LINE
  5
100025C
330
19
100
AcDbEntity
  8
ewns_dzialki
  6
Continuous
370
    18
100
AcDbLine
 10
7562940.83
 20
5723629.57
 30
0.0
 11
7562968.929999999
 21
5723596.16
 31
0.0
  0
LINE
  5
100025D
330
19
100
AcDbEntity
  8
ewns_dzialki
  6
Continuous
370
    18
100
AcDbLine
 10
7562968.929999999
 20
5723596.16
 30
0.0
 11
7562999.25
 21
5723560.099999999
 31
0.0
  0
LINE
  5
100025E
330
19
100
AcDbEntity
  8
ewns_dzialki
  6
Continuous
370
    18
100
AcDbLine
 10
7562999.25
 20
5723560.099999999
 30
0.0
 11
7563036.58
 21
5723515.929999999
 31
0.0
  0
LINE
  5
100025F
330
19
100
AcDbEntity
  8
ewns_dzialki
  6
Continuous
370
    18
100
AcDbLine
 10
7563036.58
 20
5723515.929999999
 30
0.0
 11
7563058.599999999
 21
5723489.9
 31
0.0
  0
LINE
  5
1000260
330
19
100
AcDbEntity
  8
ewns_dzialki
  6
Continuous
370
    18
100
AcDbLine
 10
7563058.599999999
 20
5723489.9
 30
0.0
 11
7563067.799999999
 21
5723479.02
 31
0.0
  0
LINE
  5
1000261
330
19
100
AcDbEntity
  8
ewns_dzialki
  6
Continuous
370
    18
100
AcDbLine
 10
7563067.799999999
 20
5723479.02
 30
0.0
 11
7563079.36
 21
5723465.34
 31
0.0
  0
LINE
  5
1000262
330
19
100
AcDbEntity
  8
ewns_dzialki
  6
Continuous
370
    18
100
AcDbLine
 10
7563079.36
 20
5723465.34
 30
0.0
 11
7563090.469999999
 21
5723452.2
 31
0.0
  0
LINE
  5
1000263
330
19
100
AcDbEntity
  8
ewns_dzialki
  6
Continuous
370
    18
100
AcDbLine
 10
7563090.469999999
 20
5723452.2
 30
0.0
 11
7563103.960000001
 21
5723436.24
 31
0.0
  0
LINE
  5
1000264
330
19
100
AcDbEntity
  8
ewns_dzialki
  6
Continuous
370
    18
100
AcDbLine
 10
7563103.960000001
 20
5723436.24
 30
0.0
 11
7563113.719999998
 21
5723424.69
 31
0.0
  0
LINE
  5
1000265
330
19
100
AcDbEntity
  8
ewns_dzialki
  6
Continuous
370
    18
100
AcDbLine
 10
7563113.719999998
 20
5723424.69
 30
0.0
 11
7563123.820000001
 21
5723412.77
 31
0.0
  0
LINE
  5
1000266
330
19
100
AcDbEntity
  8
ewns_dzialki
  6
Continuous
370
    18
100
AcDbLine
 10
7563123.820000001
 20
5723412.77
 30
0.0
 11
7563136.169999999
 21
5723398.14
 31
0.0
  0
LINE
  5
1000267
330
19
100
AcDbEntity
  8
ewns_dzialki
  6
Continuous
370
    18
100
AcDbLine
 10
7563136.169999999
 20
5723398.14
 30
0.0
 11
7563159.809999998
 21
5723370.179999999
 31
0.0
  0
LINE
  5
1000268
330
19
100
AcDbEntity
  8
ewns_dzialki
  6
Continuous
370
    18
100
AcDbLine
 10
7563159.809999998
 20
5723370.179999999
 30
0.0
 11
7563183.05
 21
5723342.69
 31
0.0
  0
LINE
  5
1000269
330
19
100
AcDbEntity
  8
ewns_dzialki
  6
Continuous
370
    18
100
AcDbLine
 10
7563797.360000001
 20
5723633.33
 30
0.0
 11
7563797.21
 21
5723631.34
 31
0.0
  0
LINE
  5
100026A
330
19
100
AcDbEntity
  8
ewns_dzialki
  6
Continuous
370
    18
100
AcDbLine
 10
7563797.21
 20
5723631.34
 30
0.0
 11
7563730.91
 21
5723638.829999999
 31
0.0
  0
LINE
  5
100026B
330
19
100
AcDbEntity
  8
ewns_dzialki
  6
Continuous
370
    18
100
AcDbLine
 10
7563730.91
 20
5723638.829999999
 30
0.0
 11
7563731.169999999
 21
5723640.809999999
 31
0.0
  0
LINE
  5
100026C
330
19
100
AcDbEntity
  8
ewns_dzialki
  6
Continuous
370
    18
100
AcDbLine
 10
7563731.169999999
 20
5723640.809999999
 30
0.0
 11
7563797.360000001
 21
5723633.33
 31
0.0
  0
LINE
  5
100026D
330
19
100
AcDbEntity
  8
ewns_dzialki
  6
Continuous
370
    18
100
AcDbLine
 10
7563731.169999999
 20
5723640.809999999
 30
0.0
 11
7563730.91
 21
5723638.829999999
 31
0.0
  0
LINE
  5
100026E
330
19
100
AcDbEntity
  8
ewns_dzialki
  6
Continuous
370
    18
100
AcDbLine
 10
7563730.91
 20
5723638.829999999
 30
0.0
 11
7563645.009999999
 21
5723648.53
 31
0.0
  0
LINE
  5
100026F
330
19
100
AcDbEntity
  8
ewns_dzialki
  6
Continuous
370
    18
100
AcDbLine
 10
7563645.009999999
 20
5723648.53
 30
0.0
 11
7563494.54
 21
5723666.92
 31
0.0
  0
LINE
  5
1000270
330
19
100
AcDbEntity
  8
ewns_dzialki
  6
Continuous
370
    18
100
AcDbLine
 10
7563494.54
 20
5723666.92
 30
0.0
 11
7563458.360000001
 21
5723671.330000001
 31
0.0
  0
LINE
  5
1000271
330
19
100
AcDbEntity
  8
ewns_dzialki
  6
Continuous
370
    18
100
AcDbLine
 10
7563458.360000001
 20
5723671.330000001
 30
0.0
 11
7563305.469999999
 21
5723689.799999999
 31
0.0
  0
LINE
  5
1000272
330
19
100
AcDbEntity
  8
ewns_dzialki
  6
Continuous
370
    18
100
AcDbLine
 10
7563305.469999999
 20
5723689.799999999
 30
0.0
 11
7563305.7
 21
5723692.019999999
 31
0.0
  0
LINE
  5
1000273
330
19
100
AcDbEntity
  8
ewns_dzialki
  6
Continuous
370
    18
100
AcDbLine
 10
7563305.7
 20
5723692.019999999
 30
0.0
 11
7563448.19
 21
5723674.64
 31
0.0
  0
LINE
  5
1000274
330
19
100
AcDbEntity
  8
ewns_dzialki
  6
Continuous
370
    18
100
AcDbLine
 10
7563448.19
 20
5723674.64
 30
0.0
 11
7563645.24
 21
5723650.519999999
 31
0.0
  0
LINE
  5
1000275
330
19
100
AcDbEntity
  8
ewns_dzialki
  6
Continuous
370
    18
100
AcDbLine
 10
7563645.24
 20
5723650.519999999
 30
0.0
 11
7563647.75
 21
5723650.23
 31
0.0
  0
LINE
  5
1000276
330
19
100
AcDbEntity
  8
ewns_dzialki
  6
Continuous
370
    18
100
AcDbLine
 10
7563647.75
 20
5723650.23
 30
0.0
 11
7563699.34
 21
5723644.41
 31
0.0
  0
LINE
  5
1000277
330
19
100
AcDbEntity
  8
ewns_dzialki
  6
Continuous
370
    18
100
AcDbLine
 10
7563699.34
 20
5723644.41
 30
0.0
 11
7563731.169999999
 21
5723640.809999999
 31
0.0
  0
LINE
  5
1000278
330
19
100
AcDbEntity
  8
ewns_dzialki
  6
Continuous
370
    18
100
AcDbLine
 10
7563305.7
 20
5723692.019999999
 30
0.0
 11
7563305.469999999
 21
5723689.799999999
 31
0.0
  0
LINE
  5
1000279
330
19
100
AcDbEntity
  8
ewns_dzialki
  6
Continuous
370
    18
100
AcDbLine
 10
7563305.469999999
 20
5723689.799999999
 30
0.0
 11
7563223.69
 21
5723699.68
 31
0.0
  0
LINE
  5
100027A
330
19
100
AcDbEntity
  8
ewns_dzialki
  6
Continuous
370
    18
100
AcDbLine
 10
7563223.69
 20
5723699.68
 30
0.0
 11
7563066.13
 21
5723719.19
 31
0.0
  0
LINE
  5
100027B
330
19
100
AcDbEntity
  8
ewns_dzialki
  6
Continuous
370
    18
100
AcDbLine
 10
7563066.13
 20
5723719.19
 30
0.0
 11
7563066.42
 21
5723721.47
 31
0.0
  0
LINE
  5
100027C
330
19
100
AcDbEntity
  8
ewns_dzialki
  6
Continuous
370
    18
100
AcDbLine
 10
7563066.42
 20
5723721.47
 30
0.0
 11
7563186.370000001
 21
5723706.57
 31
0.0
  0
LINE
  5
100027D
330
19
100
AcDbEntity
  8
ewns_dzialki
  6
Continuous
370
    18
100
AcDbLine
 10
7563186.370000001
 20
5723706.57
 30
0.0
 11
7563305.7
 21
5723692.019999999
 31
0.0
  0
ENDSEC
  0
SECTION
  2
OBJECTS
  0
DICTIONARY
  5
6D9
330
0
100
AcDbDictionary
281
     1
  3
ACAD_COLOR
350
100001C
  3
ACAD_GROUP
350
6DA
  3
ACAD_LAYOUT
350
6DB
  3
ACAD_MATERIAL
350
FFFFFF
  3
ACAD_MLEADERSTYLE
350
100001F
  3
ACAD_MLINESTYLE
350
6DC
  3
ACAD_PLOTSETTINGS
350
6DD
  3
ACAD_PLOTSTYLENAME
350
6DE
  3
ACAD_SCALELIST
350
1000021
  3
ACAD_TABLESTYLE
350
100001D
  3
ACAD_VISUALSTYLE
350
1000003
  3
AcDbVariableDictionary
350
100027E
  0
DICTIONARY
  5
1000034
330
19
100
AcDbDictionary
280
     1
281
     1
  3
ACAD_SORTENTS
360
1000035
  0
DICTIONARY
  5
100001C
102
{ACAD_REACTORS
330
6D9
102
}
330
6D9
100
AcDbDictionary
281
     1
  0
DICTIONARY
  5
6DA
102
{ACAD_REACTORS
330
6D9
102
}
330
6D9
100
AcDbDictionary
281
     1
  0
DICTIONARY
  5
6DB
102
{ACAD_REACTORS
330
6D9
102
}
330
6D9
100
AcDbDictionary
281
     1
  3
Layout
350
1C
  3
Model
350
1A
  0
DICTIONARY
  5
FFFFFF
102
{ACAD_REACTORS
330
6D9
102
}
330
6D9
100
AcDbDictionary
281
     1
  3
ByBlock
350
1000001
  3
ByLayer
350
1000000
  3
Global
350
1000002
  0
DICTIONARY
  5
100001F
102
{ACAD_REACTORS
330
6D9
102
}
330
6D9
100
AcDbDictionary
281
     1
  3
Standard
350
1000020
  0
DICTIONARY
  5
6DC
102
{ACAD_REACTORS
330
6D9
102
}
330
6D9
100
AcDbDictionary
281
     1
  3
L_0_02
350
7
  3
Standard
350
6DF
  0
DICTIONARY
  5
6DD
102
{ACAD_REACTORS
330
6D9
102
}
330
6D9
100
AcDbDictionary
281
     1
  0
ACDBDICTIONARYWDFLT
  5
6DE
102
{ACAD_REACTORS
330
6D9
102
}
330
6D9
100
AcDbDictionary
281
     1
  3
Normal
350
D
100
AcDbDictionaryWithDefault
340
D
  0
DICTIONARY
  5
1000021
102
{ACAD_REACTORS
330
6D9
102
}
330
6D9
100
AcDbDictionary
281
     1
  3
A0
350
1000022
  3
A1
350
1000023
  3
A2
350
1000024
  3
A3
350
1000025
  3
A4
350
1000026
  3
A5
350
1000027
  3
A6
350
1000028
  3
A7
350
1000029
  3
A8
350
100002A
  3
A9
350
100002B
  3
B0
350
100002C
  3
B1
350
100002D
  3
B2
350
100002E
  3
B3
350
100002F
  3
B4
350
1000030
  3
B5
350
1000031
  3
B6
350
1000032
  0
DICTIONARY
  5
100001D
102
{ACAD_REACTORS
330
6D9
102
}
330
6D9
100
AcDbDictionary
281
     1
  3
Standard
350
100001E
  0
DICTIONARY
  5
1000003
102
{ACAD_REACTORS
330
6D9
102
}
330
6D9
100
AcDbDictionary
281
     1
  3
2dWireframe
350
1000008
  3
Basic
350
100000B
  3
Brighten
350
100000F
  3
ColorChange
350
1000013
  3
Conceptual
350
100000D
  3
Dim
350
100000E
  3
EdgeColorOff
350
1000016
  3
Facepattern
350
1000012
  3
Flat
350
1000004
  3
FlatWithEdges
350
1000005
  3
Gouraud
350
1000006
  3
GouraudWithEdges
350
1000007
  3
Hidden
350
100000A
  3
JitterOff
350
1000014
  3
Linepattern
350
1000011
  3
OverhangOff
350
1000015
  3
Realistic
350
100000C
  3
Shaded
350
100001B
  3
Shaded with edges
350
100001A
  3
Shades of Gray
350
1000017
  3
Sketchy
350
1000018
  3
Thicken
350
1000010
  3
Wireframe
350
1000009
  3
X-Ray
350
1000019
  0
DICTIONARY
  5
100027E
102
{ACAD_REACTORS
330
6D9
102
}
330
6D9
100
AcDbDictionary
281
     1
  3
CANNOSCALE
350
1000282
  3
CMLEADERSTYLE
350
1000280
  3
CTABLESTYLE
350
100027F
  3
MSLTSCALE
350
1000281
  0
SORTENTSTABLE
  5
1000035
102
{ACAD_REACTORS
330
1000034
102
}
330
1000034
100
AcDbSortentsTable
330
19
331
6D8
  5
100027D
331
1000036
  5
6D8
331
1000037
  5
1000036
331
1000038
  5
1000037
331
1000039
  5
1000038
331
100003A
  5
1000039
331
100003B
  5
100003A
331
100003C
  5
100003B
331
100003D
  5
100003C
331
100003E
  5
100003D
331
100003F
  5
100003E
331
1000040
  5
100003F
331
1000041
  5
1000040
331
1000042
  5
1000041
331
1000043
  5
1000042
331
1000044
  5
1000043
331
1000045
  5
1000044
331
1000046
  5
1000045
331
1000047
  5
1000046
331
1000048
  5
1000047
331
1000049
  5
1000048
331
100004A
  5
1000049
331
100004B
  5
100004A
331
100004C
  5
100004B
331
100004D
  5
100004C
331
100004E
  5
100004D
331
100004F
  5
100004E
331
1000050
  5
100004F
331
1000051
  5
1000050
331
1000052
  5
1000051
331
1000053
  5
1000052
331
1000054
  5
1000053
331
1000055
  5
1000054
331
1000056
  5
1000055
331
1000057
  5
1000056
331
1000058
  5
1000057
331
1000059
  5
1000058
331
100005A
  5
1000059
331
100005B
  5
100005A
331
100005C
  5
100005B
331
100005D
  5
100005C
331
100005E
  5
100005D
331
100005F
  5
100005E
331
1000060
  5
100005F
331
1000061
  5
1000060
331
1000062
  5
1000061
331
1000063
  5
1000062
331
1000064
  5
1000063
331
1000065
  5
1000064
331
1000066
  5
1000065
331
1000067
  5
1000066
331
1000068
  5
1000067
331
1000069
  5
1000068
331
100006A
  5
1000069
331
100006B
  5
100006A
331
100006C
  5
100006B
331
100006D
  5
100006C
331
100006E
  5
100006D
331
100006F
  5
100006E
331
1000070
  5
100006F
331
1000071
  5
1000070
331
1000072
  5
1000071
331
1000073
  5
1000072
331
1000074
  5
1000073
331
1000075
  5
1000074
331
1000076
  5
1000075
331
1000077
  5
1000076
331
1000078
  5
1000077
331
1000079
  5
1000078
331
100007A
  5
1000079
331
100007B
  5
100007A
331
100007C
  5
100007B
331
100007D
  5
100007C
331
100007E
  5
100007D
331
100007F
  5
100007E
331
1000080
  5
100007F
331
1000081
  5
1000080
331
1000082
  5
1000081
331
1000083
  5
1000082
331
1000084
  5
1000083
331
1000085
  5
1000084
331
1000086
  5
1000085
331
1000087
  5
1000086
331
1000088
  5
1000087
331
1000089
  5
1000088
331
100008A
  5
1000089
331
100008B
  5
100008A
331
100008C
  5
100008B
331
100008D
  5
100008C
331
100008E
  5
100008D
331
100008F
  5
100008E
331
1000090
  5
100008F
331
1000091
  5
1000090
331
1000092
  5
1000091
331
1000093
  5
1000092
331
1000094
  5
1000093
331
1000095
  5
1000094
331
1000096
  5
1000095
331
1000097
  5
1000096
331
1000098
  5
1000097
331
1000099
  5
1000098
331
100009A
  5
1000099
331
100009B
  5
100009A
331
100009C
  5
100009B
331
100009D
  5
100009C
331
100009E
  5
100009D
331
100009F
  5
100009E
331
10000A0
  5
100009F
331
10000A1
  5
10000A0
331
10000A2
  5
10000A1
331
10000A3
  5
10000A2
331
10000A4
  5
10000A3
331
10000A5
  5
10000A4
331
10000A6
  5
10000A5
331
10000A7
  5
10000A6
331
10000A8
  5
10000A7
331
10000A9
  5
10000A8
331
10000AA
  5
10000A9
331
10000AB
  5
10000AA
331
10000AC
  5
10000AB
331
10000AD
  5
10000AC
331
10000AE
  5
10000AD
331
10000AF
  5
10000AE
331
10000B0
  5
10000AF
331
10000B1
  5
10000B0
331
10000B2
  5
10000B1
331
10000B3
  5
10000B2
331
10000B4
  5
10000B3
331
10000B5
  5
10000B4
331
10000B6
  5
10000B5
331
10000B7
  5
10000B6
331
10000B8
  5
10000B7
331
10000B9
  5
10000B8
331
10000BA
  5
10000B9
331
10000BB
  5
10000BA
331
10000BC
  5
10000BB
331
10000BD
  5
10000BC
331
10000BE
  5
10000BD
331
10000BF
  5
10000BE
331
10000C0
  5
10000BF
331
10000C1
  5
10000C0
331
10000C2
  5
10000C1
331
10000C3
  5
10000C2
331
10000C4
  5
10000C3
331
10000C5
  5
10000C4
331
10000C6
  5
10000C5
331
10000C7
  5
10000C6
331
10000C8
  5
10000C7
331
10000C9
  5
10000C8
331
10000CA
  5
10000C9
331
10000CB
  5
10000CA
331
10000CC
  5
10000CB
331
10000CD
  5
10000CC
331
10000CE
  5
10000CD
331
10000CF
  5
10000CE
331
10000D0
  5
10000CF
331
10000D1
  5
10000D0
331
10000D2
  5
10000D1
331
10000D3
  5
10000D2
331
10000D4
  5
10000D3
331
10000D5
  5
10000D4
331
10000D6
  5
10000D5
331
10000D7
  5
10000D6
331
10000D8
  5
10000D7
331
10000D9
  5
10000D8
331
10000DA
  5
10000D9
331
10000DB
  5
10000DA
331
10000DC
  5
10000DB
331
10000DD
  5
10000DC
331
10000DE
  5
10000DD
331
10000DF
  5
10000DE
331
10000E0
  5
10000DF
331
10000E1
  5
10000E0
331
10000E2
  5
10000E1
331
10000E3
  5
10000E2
331
10000E4
  5
10000E3
331
10000E5
  5
10000E4
331
10000E6
  5
10000E5
331
10000E7
  5
10000E6
331
10000E8
  5
10000E7
331
10000E9
  5
10000E8
331
10000EA
  5
10000E9
331
10000EB
  5
10000EA
331
10000EC
  5
10000EB
331
10000ED
  5
10000EC
331
10000EE
  5
10000ED
331
10000EF
  5
10000EE
331
10000F0
  5
10000EF
331
10000F1
  5
10000F0
331
10000F2
  5
10000F1
331
10000F3
  5
10000F2
331
10000F4
  5
10000F3
331
10000F5
  5
10000F4
331
10000F6
  5
10000F5
331
10000F7
  5
10000F6
331
10000F8
  5
10000F7
331
10000F9
  5
10000F8
331
10000FA
  5
10000F9
331
10000FB
  5
10000FA
331
10000FC
  5
10000FB
331
10000FD
  5
10000FC
331
10000FE
  5
10000FD
331
10000FF
  5
10000FE
331
1000100
  5
10000FF
331
1000101
  5
1000100
331
1000102
  5
1000101
331
1000103
  5
1000102
331
1000104
  5
1000103
331
1000105
  5
1000104
331
1000106
  5
1000105
331
1000107
  5
1000106
331
1000108
  5
1000107
331
1000109
  5
1000108
331
100010A
  5
1000109
331
100010B
  5
100010A
331
100010C
  5
100010B
331
100010D
  5
100010C
331
100010E
  5
100010D
331
100010F
  5
100010E
331
1000110
  5
100010F
331
1000111
  5
1000110
331
1000112
  5
1000111
331
1000113
  5
1000112
331
1000114
  5
1000113
331
1000115
  5
1000114
331
1000116
  5
1000115
331
1000117
  5
1000116
331
1000118
  5
1000117
331
1000119
  5
1000118
331
100011A
  5
1000119
331
100011B
  5
100011A
331
100011C
  5
100011B
331
100011D
  5
100011C
331
100011E
  5
100011D
331
100011F
  5
100011E
331
1000120
  5
100011F
331
1000121
  5
1000120
331
1000122
  5
1000121
331
1000123
  5
1000122
331
1000124
  5
1000123
331
1000125
  5
1000124
331
1000126
  5
1000125
331
1000127
  5
1000126
331
1000128
  5
1000127
331
1000129
  5
1000128
331
100012A
  5
1000129
331
100012B
  5
100012A
331
100012C
  5
100012B
331
100012D
  5
100012C
331
100012E
  5
100012D
331
100012F
  5
100012E
331
1000130
  5
100012F
331
1000131
  5
1000130
331
1000132
  5
1000131
331
1000133
  5
1000132
331
1000134
  5
1000133
331
1000135
  5
1000134
331
1000136
  5
1000135
331
1000137
  5
1000136
331
1000138
  5
1000137
331
1000139
  5
1000138
331
100013A
  5
1000139
331
100013B
  5
100013A
331
100013C
  5
100013B
331
100013D
  5
100013C
331
100013E
  5
100013D
331
100013F
  5
100013E
331
1000140
  5
100013F
331
1000141
  5
1000140
331
1000142
  5
1000141
331
1000143
  5
1000142
331
1000144
  5
1000143
331
1000145
  5
1000144
331
1000146
  5
1000145
331
1000147
  5
1000146
331
1000148
  5
1000147
331
1000149
  5
1000148
331
100014A
  5
1000149
331
100014B
  5
100014A
331
100014C
  5
100014B
331
100014D
  5
100014C
331
100014E
  5
100014D
331
100014F
  5
100014E
331
1000150
  5
100014F
331
1000151
  5
1000150
331
1000152
  5
1000151
331
1000153
  5
1000152
331
1000154
  5
1000153
331
1000155
  5
1000154
331
1000156
  5
1000155
331
1000157
  5
1000156
331
1000158
  5
1000157
331
1000159
  5
1000158
331
100015A
  5
1000159
331
100015B
  5
100015A
331
100015C
  5
100015B
331
100015D
  5
100015C
331
100015E
  5
100015D
331
100015F
  5
100015E
331
1000160
  5
100015F
331
1000161
  5
1000160
331
1000162
  5
1000161
331
1000163
  5
1000162
331
1000164
  5
1000163
331
1000165
  5
1000164
331
1000166
  5
1000165
331
1000167
  5
1000166
331
1000168
  5
1000167
331
1000169
  5
1000168
331
100016A
  5
1000169
331
100016B
  5
100016A
331
100016C
  5
100016B
331
100016D
  5
100016C
331
100016E
  5
100016D
331
100016F
  5
100016E
331
1000170
  5
100016F
331
1000171
  5
1000170
331
1000172
  5
1000171
331
1000173
  5
1000172
331
1000174
  5
1000173
331
1000175
  5
1000174
331
1000176
  5
1000175
331
1000177
  5
1000176
331
1000178
  5
1000177
331
1000179
  5
1000178
331
100017A
  5
1000179
331
100017B
  5
100017A
331
100017C
  5
100017B
331
100017D
  5
100017C
331
100017E
  5
100017D
331
100017F
  5
100017E
331
1000180
  5
100017F
331
1000181
  5
1000180
331
1000182
  5
1000181
331
1000183
  5
1000182
331
1000184
  5
1000183
331
1000185
  5
1000184
331
1000186
  5
1000185
331
1000187
  5
1000186
331
1000188
  5
1000187
331
1000189
  5
1000188
331
100018A
  5
1000189
331
100018B
  5
100018A
331
100018C
  5
100018B
331
100018D
  5
100018C
331
100018E
  5
100018D
331
100018F
  5
100018E
331
1000190
  5
100018F
331
1000191
  5
1000190
331
1000192
  5
1000191
331
1000193
  5
1000192
331
1000194
  5
1000193
331
1000195
  5
1000194
331
1000196
  5
1000195
331
1000197
  5
1000196
331
1000198
  5
1000197
331
1000199
  5
1000198
331
100019A
  5
1000199
331
100019B
  5
100019A
331
100019C
  5
100019B
331
100019D
  5
100019C
331
100019E
  5
100019D
331
100019F
  5
100019E
331
10001A0
  5
100019F
331
10001A1
  5
10001A0
331
10001A2
  5
10001A1
331
10001A3
  5
10001A2
331
10001A4
  5
10001A3
331
10001A5
  5
10001A4
331
10001A6
  5
10001A5
331
10001A7
  5
10001A6
331
10001A8
  5
10001A7
331
10001A9
  5
10001A8
331
10001AA
  5
10001A9
331
10001AB
  5
10001AA
331
10001AC
  5
10001AB
331
10001AD
  5
10001AC
331
10001AE
  5
10001AD
331
10001AF
  5
10001AE
331
10001B0
  5
10001AF
331
10001B1
  5
10001B0
331
10001B2
  5
10001B1
331
10001B3
  5
10001B2
331
10001B4
  5
10001B3
331
10001B5
  5
10001B4
331
10001B6
  5
10001B5
331
10001B7
  5
10001B6
331
10001B8
  5
10001B7
331
10001B9
  5
10001B8
331
10001BA
  5
10001B9
331
10001BB
  5
10001BA
331
10001BC
  5
10001BB
331
10001BD
  5
10001BC
331
10001BE
  5
10001BD
331
10001BF
  5
10001BE
331
10001C0
  5
10001BF
331
10001C1
  5
10001C0
331
10001C2
  5
10001C1
331
10001C3
  5
10001C2
331
10001C4
  5
10001C3
331
10001C5
  5
10001C4
331
10001C6
  5
10001C5
331
10001C7
  5
10001C6
331
10001C8
  5
10001C7
331
10001C9
  5
10001C8
331
10001CA
  5
10001C9
331
10001CB
  5
10001CA
331
10001CC
  5
10001CB
331
10001CD
  5
10001CC
331
10001CE
  5
10001CD
331
10001CF
  5
10001CE
331
10001D0
  5
10001CF
331
10001D1
  5
10001D0
331
10001D2
  5
10001D1
331
10001D3
  5
10001D2
331
10001D4
  5
10001D3
331
10001D5
  5
10001D4
331
10001D6
  5
10001D5
331
10001D7
  5
10001D6
331
10001D8
  5
10001D7
331
10001D9
  5
10001D8
331
10001DA
  5
10001D9
331
10001DB
  5
10001DA
331
10001DC
  5
10001DB
331
10001DD
  5
10001DC
331
10001DE
  5
10001DD
331
10001DF
  5
10001DE
331
10001E0
  5
10001DF
331
10001E1
  5
10001E0
331
10001E2
  5
10001E1
331
10001E3
  5
10001E2
331
10001E4
  5
10001E3
331
10001E5
  5
10001E4
331
10001E6
  5
10001E5
331
10001E7
  5
10001E6
331
10001E8
  5
10001E7
331
10001E9
  5
10001E8
331
10001EA
  5
10001E9
331
10001EB
  5
10001EA
331
10001EC
  5
10001EB
331
10001ED
  5
10001EC
331
10001EE
  5
10001ED
331
10001EF
  5
10001EE
331
10001F0
  5
10001EF
331
10001F1
  5
10001F0
331
10001F2
  5
10001F1
331
10001F3
  5
10001F2
331
10001F4
  5
10001F3
331
10001F5
  5
10001F4
331
10001F6
  5
10001F5
331
10001F7
  5
10001F6
331
10001F8
  5
10001F7
331
10001F9
  5
10001F8
331
10001FA
  5
10001F9
331
10001FB
  5
10001FA
331
10001FC
  5
10001FB
331
10001FD
  5
10001FC
331
10001FE
  5
10001FD
331
10001FF
  5
10001FE
331
1000200
  5
10001FF
331
1000201
  5
1000200
331
1000202
  5
1000201
331
1000203
  5
1000202
331
1000204
  5
1000203
331
1000205
  5
1000204
331
1000206
  5
1000205
331
1000207
  5
1000206
331
1000208
  5
1000207
331
1000209
  5
1000208
331
100020A
  5
1000209
331
100020B
  5
100020A
331
100020C
  5
100020B
331
100020D
  5
100020C
331
100020E
  5
100020D
331
100020F
  5
100020E
331
1000210
  5
100020F
331
1000211
  5
1000210
331
1000212
  5
1000211
331
1000213
  5
1000212
331
1000214
  5
1000213
331
1000215
  5
1000214
331
1000216
  5
1000215
331
1000217
  5
1000216
331
1000218
  5
1000217
331
1000219
  5
1000218
331
100021A
  5
1000219
331
100021B
  5
100021A
331
100021C
  5
100021B
331
100021D
  5
100021C
331
100021E
  5
100021D
331
100021F
  5
100021E
331
1000220
  5
100021F
331
1000221
  5
1000220
331
1000222
  5
1000221
331
1000223
  5
1000222
331
1000224
  5
1000223
331
1000225
  5
1000224
331
1000226
  5
1000225
331
1000227
  5
1000226
331
1000228
  5
1000227
331
1000229
  5
1000228
331
100022A
  5
1000229
331
100022B
  5
100022A
331
100022C
  5
100022B
331
100022D
  5
100022C
331
100022E
  5
100022D
331
100022F
  5
100022E
331
1000230
  5
100022F
331
1000231
  5
1000230
331
1000232
  5
1000231
331
1000233
  5
1000232
331
1000234
  5
1000233
331
1000235
  5
1000234
331
1000236
  5
1000235
331
1000237
  5
1000236
331
1000238
  5
1000237
331
1000239
  5
1000238
331
100023A
  5
1000239
331
100023B
  5
100023A
331
100023C
  5
100023B
331
100023D
  5
100023C
331
100023E
  5
100023D
331
100023F
  5
100023E
331
1000240
  5
100023F
331
1000241
  5
1000240
331
1000242
  5
1000241
331
1000243
  5
1000242
331
1000244
  5
1000243
331
1000245
  5
1000244
331
1000246
  5
1000245
331
1000247
  5
1000246
331
1000248
  5
1000247
331
1000249
  5
1000248
331
100024A
  5
1000249
331
100024B
  5
100024A
331
100024C
  5
100024B
331
100024D
  5
100024C
331
100024E
  5
100024D
331
100024F
  5
100024E
331
1000250
  5
100024F
331
1000251
  5
1000250
331
1000252
  5
1000251
331
1000253
  5
1000252
331
1000254
  5
1000253
331
1000255
  5
1000254
331
1000256
  5
1000255
331
1000257
  5
1000256
331
1000258
  5
1000257
331
1000259
  5
1000258
331
100025A
  5
1000259
331
100025B
  5
100025A
331
100025C
  5
100025B
331
100025D
  5
100025C
331
100025E
  5
100025D
331
100025F
  5
100025E
331
1000260
  5
100025F
331
1000261
  5
1000260
331
1000262
  5
1000261
331
1000263
  5
1000262
331
1000264
  5
1000263
331
1000265
  5
1000264
331
1000266
  5
1000265
331
1000267
  5
1000266
331
1000268
  5
1000267
331
1000269
  5
1000268
331
100026A
  5
1000269
331
100026B
  5
100026A
331
100026C
  5
100026B
331
100026D
  5
100026C
331
100026E
  5
100026D
331
100026F
  5
100026E
331
1000270
  5
100026F
331
1000271
  5
1000270
331
1000272
  5
1000271
331
1000273
  5
1000272
331
1000274
  5
1000273
331
1000275
  5
1000274
331
1000276
  5
1000275
331
1000277
  5
1000276
331
1000278
  5
1000277
331
1000279
  5
1000278
331
100027A
  5
1000279
331
100027B
  5
100027A
331
100027C
  5
100027B
331
100027D
  5
100027C
  0
LAYOUT
  5
1C
330
6DB
100
AcDbPlotSettings
  1

  2

  4

  6

 40
0.0
 41
0.0
 42
0.0
 43
0.0
 44
0.0
 45
0.0
 46
0.0
 47
0.0
 48
0.0
 49
0.0
140
0.0
141
0.0
142
1.0
143
1.0
 70
   688
 72
     1
 73
     0
 74
     5
  7

 75
     0
 76
     0
 77
     2
 78
   300
147
1.0
148
0.0
149
0.0
100
AcDbLayout
  1
Layout
 70
     1
 71
     1
 10
0.0
 20
0.0
 11
420.0
 21
297.0
 12
0.0
 22
0.0
 32
0.0
 14
1.000000000000000E+20
 24
1.000000000000000E+20
 34
1.000000000000000E+20
 15
-1.000000000000000E+20
 25
-1.000000000000000E+20
 35
-1.000000000000000E+20
146
0.0
 13
0.0
 23
0.0
 33
0.0
 16
1.0
 26
0.0
 36
0.0
 17
0.0
 27
1.0
 37
0.0
 76
     0
330
1B
  0
LAYOUT
  5
1A
330
6DB
100
AcDbPlotSettings
  1

  2

  4

  6

 40
0.0
 41
0.0
 42
0.0
 43
0.0
 44
0.0
 45
0.0
 46
0.0
 47
0.0
 48
0.0
 49
0.0
140
0.0
141
0.0
142
1.0
143
1.0
 70
  1712
 72
     1
 73
     0
 74
     0
  7

 75
     0
 76
     0
 77
     2
 78
   300
147
1.0
148
0.0
149
0.0
100
AcDbLayout
  1
Model
 70
     1
 71
     0
 10
0.0
 20
0.0
 11
12.0
 21
9.0
 12
0.0
 22
0.0
 32
0.0
 14
0.0
 24
0.0
 34
0.0
 15
0.0
 25
0.0
 35
0.0
146
0.0
 13
0.0
 23
0.0
 33
0.0
 16
1.0
 26
0.0
 36
0.0
 17
0.0
 27
1.0
 37
0.0
 76
     0
330
19
331
2
  0
MATERIAL
  5
1000001
102
{ACAD_REACTORS
330
FFFFFF
102
}
330
FFFFFF
100
AcDbMaterial
  1
ByBlock
 72
     0
 73
     2
 77
     0
 78
     2
171
     0
172
     2
175
     0
176
     2
179
     0
270
     2
274
     2
 94
      127
  0
MATERIAL
  5
1000000
102
{ACAD_REACTORS
330
FFFFFF
102
}
330
FFFFFF
100
AcDbMaterial
  1
ByLayer
 72
     0
 73
     2
 77
     0
 78
     2
171
     0
172
     2
175
     0
176
     2
179
     0
270
     2
274
     2
 94
      127
  0
MATERIAL
  5
1000002
102
{ACAD_REACTORS
330
FFFFFF
102
}
330
FFFFFF
100
AcDbMaterial
  1
Global
 72
     0
 73
     2
 77
     0
 78
     2
171
     0
172
     2
175
     0
176
     2
179
     0
270
     2
274
     2
 94
      127
  0
MLEADERSTYLE
  5
1000020
102
{ACAD_REACTORS
330
100001F
102
}
330
100001F
100
AcDbMLeaderStyle
179
     2
170
     2
171
     1
172
     0
 90
        2
 40
0.0
 41
0.0
173
     1
 91
-1056964608
340
4
 92
       -2
290
     1
 42
0.4
291
     1
 43
2.0
  3
Standard
 44
0.18
300

342
10
174
     1
178
     1
175
     1
176
     0
 93
-1056964608
 45
0.2
292
     0
297
     0
 46
5.0
 94
-1056964608
 47
1.0
 49
1.0
140
1.0
293
     1
141
0.0
294
     1
177
     0
142
1.0
295
     0
296
     0
143
0.125
271
     0
272
     9
273
     9
298
     0
  0
MLINESTYLE
  5
7
330
6DC
100
AcDbMlineStyle
  2
L_0_02
 70
     0
  3

 62
   256
 51
90.0
 52
90.0
 71
     1
 49
0.0
 62
   256
  6
CONTINUOUS
  0
MLINESTYLE
  5
6DF
102
{ACAD_REACTORS
330
6DC
102
}
330
6DC
100
AcDbMlineStyle
  2
Standard
 70
     0
  3

 62
   256
 51
90.0
 52
90.0
 71
     2
 49
0.5
 62
   256
  6
BYLAYER
 49
-0.5
 62
   256
  6
BYLAYER
  0
ACDBPLACEHOLDER
  5
D
330
6DE
  0
SCALE
  5
1000022
102
{ACAD_REACTORS
330
1000021
102
}
330
1000021
100
AcDbScale
 70
     0
300
1:1
140
1.0
141
1.0
290
     1
  0
SCALE
  5
1000023
102
{ACAD_REACTORS
330
1000021
102
}
330
1000021
100
AcDbScale
 70
     0
300
1:2
140
1.0
141
2.0
290
     0
  0
SCALE
  5
1000024
102
{ACAD_REACTORS
330
1000021
102
}
330
1000021
100
AcDbScale
 70
     0
300
1:4
140
1.0
141
4.0
290
     0
  0
SCALE
  5
1000025
102
{ACAD_REACTORS
330
1000021
102
}
330
1000021
100
AcDbScale
 70
     0
300
1:5
140
1.0
141
5.0
290
     0
  0
SCALE
  5
1000026
102
{ACAD_REACTORS
330
1000021
102
}
330
1000021
100
AcDbScale
 70
     0
300
1:8
140
1.0
141
8.0
290
     0
  0
SCALE
  5
1000027
102
{ACAD_REACTORS
330
1000021
102
}
330
1000021
100
AcDbScale
 70
     0
300
1:10
140
1.0
141
10.0
290
     0
  0
SCALE
  5
1000028
102
{ACAD_REACTORS
330
1000021
102
}
330
1000021
100
AcDbScale
 70
     0
300
1:16
140
1.0
141
16.0
290
     0
  0
SCALE
  5
1000029
102
{ACAD_REACTORS
330
1000021
102
}
330
1000021
100
AcDbScale
 70
     0
300
1:20
140
1.0
141
20.0
290
     0
  0
SCALE
  5
100002A
102
{ACAD_REACTORS
330
1000021
102
}
330
1000021
100
AcDbScale
 70
     0
300
1:30
140
1.0
141
30.0
290
     0
  0
SCALE
  5
100002B
102
{ACAD_REACTORS
330
1000021
102
}
330
1000021
100
AcDbScale
 70
     0
300
1:40
140
1.0
141
40.0
290
     0
  0
SCALE
  5
100002C
102
{ACAD_REACTORS
330
1000021
102
}
330
1000021
100
AcDbScale
 70
     0
300
1:50
140
1.0
141
50.0
290
     0
  0
SCALE
  5
100002D
102
{ACAD_REACTORS
330
1000021
102
}
330
1000021
100
AcDbScale
 70
     0
300
1:100
140
1.0
141
100.0
290
     0
  0
SCALE
  5
100002E
102
{ACAD_REACTORS
330
1000021
102
}
330
1000021
100
AcDbScale
 70
     0
300
2:1
140
2.0
141
1.0
290
     0
  0
SCALE
  5
100002F
102
{ACAD_REACTORS
330
1000021
102
}
330
1000021
100
AcDbScale
 70
     0
300
4:1
140
4.0
141
1.0
290
     0
  0
SCALE
  5
1000030
102
{ACAD_REACTORS
330
1000021
102
}
330
1000021
100
AcDbScale
 70
     0
300
8:1
140
8.0
141
1.0
290
     0
  0
SCALE
  5
1000031
102
{ACAD_REACTORS
330
1000021
102
}
330
1000021
100
AcDbScale
 70
     0
300
10:1
140
10.0
141
1.0
290
     0
  0
SCALE
  5
1000032
102
{ACAD_REACTORS
330
1000021
102
}
330
1000021
100
AcDbScale
 70
     0
300
100:1
140
100.0
141
1.0
290
     0
  0
TABLESTYLE
  5
100001E
102
{ACAD_REACTORS
330
100001D
102
}
330
100001D
100
AcDbTableStyle
  3
Standard
 70
     0
 71
     0
 40
1.5
 41
1.5
280
     0
281
     0
  7
STANDARD
140
4.5
170
     2
 62
     7
 63
   257
283
     0
 90
        4
 91
        0
  1

274
    -2
284
     1
 64
     0
275
    -2
285
     1
 65
     0
276
    -2
286
     1
 66
     0
277
    -2
287
     1
 67
     0
278
    -2
288
     1
 68
     0
279
    -2
289
     1
 69
     0
  7
STANDARD
140
6.0
170
     5
 62
     7
 63
   257
283
     0
 90
        4
 91
        0
  1

274
    -2
284
     1
 64
     0
275
    -2
285
     1
 65
     0
276
    -2
286
     1
 66
     0
277
    -2
287
     1
 67
     0
278
    -2
288
     1
 68
     0
279
    -2
289
     1
 69
     0
  7
STANDARD
140
4.5
170
     5
 62
     7
 63
   257
283
     0
 90
        4
 91
        0
  1

274
    -2
284
     1
 64
     0
275
    -2
285
     1
 65
     0
276
    -2
286
     1
 66
     0
277
    -2
287
     1
 67
     0
278
    -2
288
     1
 68
     0
279
    -2
289
     1
 69
     0
  0
VISUALSTYLE
  5
1000008
102
{ACAD_REACTORS
330
1000003
102
}
330
1000003
100
AcDbVisualStyle
  2
2dWireframe
 70
     4
177
     3
291
     0
 70
    58
 90
        0
176
     1
 90
        2
176
     1
 90
        0
176
     1
 90
        0
176
     1
 40
0.6
176
     1
 40
30.0
176
     1
 62
     7
420
 16777215
176
     1
 90
        1
176
     1
 90
        4
176
     1
 62
     7
176
     1
 62
   257
176
     1
 90
        1
176
     1
 90
        1
176
     1
 40
1.0
176
     1
 90
        0
176
     1
 62
   257
176
     1
 40
1.0
176
     1
 90
        1
176
     1
 90
        6
176
     1
 90
        2
176
     1
 62
     7
176
     1
 90
        5
176
     1
 90
        0
176
     1
 90
        0
176
     1
290
     0
176
     1
 90
        1
176
     1
 40
0.0
176
     1
 90
        0
176
     1
290
     1
176
     1
290
     1
176
     1
290
     0
176
     1
290
     0
176
     1
290
     0
176
     1
290
     0
176
     1
290
     0
176
     1
290
     0
176
     1
290
     0
176
     1
 90
       50
176
     1
 40
0.0
176
     1
 40
1.0
176
     1
 90
        0
176
     1
 62
    18
420
        0
176
     1
 90
       50
176
     1
 90
        3
176
     1
 62
     5
420
      255
176
     1
290
     0
176
     1
 90
       50
176
     1
 90
       50
176
     1
 90
       50
176
     1
290
     0
176
     1
 90
       50
176
     1
 62
   256
176
     0
 40
1.0
176
     0
 90
        2
176
     1
  1
strokes_ogs.tif
176
     1
290
     0
176
     1
 40
1.0
176
     1
 40
1.0
176
     1
  0
VISUALSTYLE
  5
100000B
102
{ACAD_REACTORS
330
1000003
102
}
330
1000003
100
AcDbVisualStyle
  2
Basic
 70
     7
177
     3
291
     1
 70
    58
 90
        1
176
     1
 90
        0
176
     1
 90
        1
176
     1
 90
        0
176
     1
 40
0.6
176
     1
 40
30.0
176
     1
 62
     7
420
 16777215
176
     1
 90
        0
176
     1
 90
        4
176
     1
 62
     7
176
     1
 62
   257
176
     1
 90
        1
176
     1
 90
        1
176
     1
 40
1.0
176
     1
 90
        8
176
     1
 62
     7
176
     1
 40
1.0
176
     1
 90
        1
176
     1
 90
        6
176
     1
 90
        2
176
     1
 62
     7
176
     1
 90
        5
176
     1
 90
        0
176
     1
 90
        0
176
     1
290
     0
176
     1
 90
        1
176
     1
 40
0.0
176
     1
 90
        0
176
     1
290
     0
176
     1
290
     1
176
     1
290
     1
176
     1
290
     0
176
     1
290
     0
176
     1
290
     0
176
     1
290
     0
176
     1
290
     0
176
     1
290
     0
176
     1
 90
       50
176
     1
 40
0.0
176
     1
 40
1.0
176
     1
 90
        0
176
     1
 62
    18
420
        0
176
     1
 90
       50
176
     1
 90
        3
176
     1
 62
     5
420
      255
176
     1
290
     0
176
     1
 90
       50
176
     1
 90
       50
176
     1
 90
       50
176
     1
290
     0
176
     1
 90
       50
176
     1
 62
   256
176
     0
 40
1.0
176
     0
 90
        2
176
     1
  1
strokes_ogs.tif
176
     1
290
     0
176
     1
 40
1.0
176
     1
 40
1.0
176
     1
  0
VISUALSTYLE
  5
100000F
102
{ACAD_REACTORS
330
1000003
102
}
330
1000003
100
AcDbVisualStyle
  2
Brighten
 70
    12
177
     3
291
     1
 70
    58
 90
        2
176
     1
 90
        2
176
     1
 90
        0
176
     1
 90
        0
176
     1
 40
0.6
176
     1
 40
30.0
176
     1
 62
     7
420
 16777215
176
     1
 90
        1
176
     1
 90
        4
176
     1
 62
     7
176
     1
 62
   257
176
     1
 90
        1
176
     1
 90
        1
176
     1
 40
1.0
176
     1
 90
        8
176
     1
 62
     7
176
     1
 40
1.0
176
     1
 90
        1
176
     1
 90
        6
176
     1
 90
        2
176
     1
 62
     7
176
     1
 90
        5
176
     1
 90
        0
176
     1
 90
        0
176
     1
290
     0
176
     1
 90
        1
176
     1
 40
50.0
176
     1
 90
        0
176
     1
290
     0
176
     1
290
     1
176
     1
290
     1
176
     1
290
     0
176
     1
290
     0
176
     1
290
     0
176
     1
290
     0
176
     1
290
     0
176
     1
290
     0
176
     1
 90
       50
176
     1
 40
0.0
176
     1
 40
1.0
176
     1
 90
        0
176
     1
 62
    18
420
        0
176
     1
 90
       50
176
     1
 90
        3
176
     1
 62
     5
420
      255
176
     1
290
     0
176
     1
 90
       50
176
     1
 90
       50
176
     1
 90
       50
176
     1
290
     0
176
     1
 90
       50
176
     1
 62
   256
176
     0
 40
1.0
176
     0
 90
        2
176
     1
  1
strokes_ogs.tif
176
     1
290
     0
176
     1
 40
1.0
176
     1
 40
1.0
176
     1
  0
VISUALSTYLE
  5
1000013
102
{ACAD_REACTORS
330
1000003
102
}
330
1000003
100
AcDbVisualStyle
  2
ColorChange
 70
    16
177
     3
291
     1
 70
    58
 90
        2
176
     1
 90
        2
176
     1
 90
        3
176
     1
 90
        0
176
     1
 40
0.6
176
     1
 40
30.0
176
     1
 62
     8
420
  8421504
176
     1
 90
        1
176
     1
 90
        4
176
     1
 62
     7
176
     1
 62
   257
176
     1
 90
        1
176
     1
 90
        1
176
     1
 40
1.0
176
     1
 90
        8
176
     1
 62
     8
420
  8421504
176
     1
 40
1.0
176
     1
 90
        1
176
     1
 90
        6
176
     1
 90
        2
176
     1
 62
     7
176
     1
 90
        5
176
     1
 90
        0
176
     1
 90
        0
176
     1
290
     0
176
     1
 90
        1
176
     1
 40
0.0
176
     1
 90
        0
176
     1
290
     0
176
     1
290
     1
176
     1
290
     1
176
     1
290
     0
176
     1
290
     0
176
     1
290
     0
176
     1
290
     0
176
     1
290
     0
176
     1
290
     0
176
     1
 90
       50
176
     1
 40
0.0
176
     1
 40
1.0
176
     1
 90
        0
176
     1
 62
    18
420
        0
176
     1
 90
       50
176
     1
 90
        3
176
     1
 62
     5
420
      255
176
     1
290
     0
176
     1
 90
       50
176
     1
 90
       50
176
     1
 90
       50
176
     1
290
     0
176
     1
 90
       50
176
     1
 62
   256
176
     0
 40
1.0
176
     0
 90
        2
176
     1
  1
strokes_ogs.tif
176
     1
290
     0
176
     1
 40
1.0
176
     1
 40
1.0
176
     1
  0
VISUALSTYLE
  5
100000D
102
{ACAD_REACTORS
330
1000003
102
}
330
1000003
100
AcDbVisualStyle
  2
Conceptual
 70
     9
177
     3
291
     0
 70
    58
 90
        3
176
     1
 90
        2
176
     1
 90
        0
176
     1
 90
        0
176
     1
 40
0.6
176
     1
 40
30.0
176
     1
 62
     7
420
 16777215
176
     1
 90
        2
176
     1
 90
        2
176
     1
 62
     7
176
     1
 62
   257
176
     1
 90
        1
176
     1
 90
        1
176
     1
 40
179.0
176
     1
 90
        8
176
     1
 62
     7
176
     1
 40
1.0
176
     1
 90
        1
176
     1
 90
        6
176
     1
 90
        2
176
     1
 62
     7
176
     1
 90
        3
176
     1
 90
        0
176
     1
 90
        0
176
     1
290
     0
176
     1
 90
        1
176
     1
 40
0.0
176
     1
 90
        0
176
     1
290
     0
176
     1
290
     1
176
     1
290
     1
176
     1
290
     0
176
     1
290
     0
176
     1
290
     0
176
     1
290
     0
176
     1
290
     0
176
     1
290
     0
176
     1
 90
       50
176
     1
 40
0.0
176
     1
 40
1.0
176
     1
 90
        0
176
     1
 62
    18
420
        0
176
     1
 90
       50
176
     1
 90
        3
176
     1
 62
     5
420
      255
176
     1
290
     0
176
     1
 90
       50
176
     1
 90
       50
176
     1
 90
       50
176
     1
290
     0
176
     1
 90
       50
176
     1
 62
   256
176
     0
 40
1.0
176
     0
 90
        2
176
     1
  1
strokes_ogs.tif
176
     1
290
     0
176
     1
 40
1.0
176
     1
 40
1.0
176
     1
  0
VISUALSTYLE
  5
100000E
102
{ACAD_REACTORS
330
1000003
102
}
330
1000003
100
AcDbVisualStyle
  2
Dim
 70
    11
177
     3
291
     1
 70
    58
 90
        2
176
     1
 90
        2
176
     1
 90
        0
176
     1
 90
        0
176
     1
 40
0.6
176
     1
 40
30.0
176
     1
 62
     7
420
 16777215
176
     1
 90
        1
176
     1
 90
        4
176
     1
 62
     7
176
     1
 62
   257
176
     1
 90
        1
176
     1
 90
        1
176
     1
 40
1.0
176
     1
 90
        8
176
     1
 62
     7
176
     1
 40
1.0
176
     1
 90
        1
176
     1
 90
        6
176
     1
 90
        2
176
     1
 62
     7
176
     1
 90
        5
176
     1
 90
        0
176
     1
 90
        0
176
     1
290
     0
176
     1
 90
        1
176
     1
 40
-50.0
176
     1
 90
        0
176
     1
290
     0
176
     1
290
     1
176
     1
290
     1
176
     1
290
     0
176
     1
290
     0
176
     1
290
     0
176
     1
290
     0
176
     1
290
     0
176
     1
290
     0
176
     1
 90
       50
176
     1
 40
0.0
176
     1
 40
1.0
176
     1
 90
        0
176
     1
 62
    18
420
        0
176
     1
 90
       50
176
     1
 90
        3
176
     1
 62
     5
420
      255
176
     1
290
     0
176
     1
 90
       50
176
     1
 90
       50
176
     1
 90
       50
176
     1
290
     0
176
     1
 90
       50
176
     1
 62
   256
176
     0
 40
1.0
176
     0
 90
        2
176
     1
  1
strokes_ogs.tif
176
     1
290
     0
176
     1
 40
1.0
176
     1
 40
1.0
176
     1
  0
VISUALSTYLE
  5
1000016
102
{ACAD_REACTORS
330
1000003
102
}
330
1000003
100
AcDbVisualStyle
  2
EdgeColorOff
 70
    22
177
     3
291
     1
 70
    58
 90
        2
176
     0
 90
        2
176
     0
 90
        0
176
     0
 90
        0
176
     0
 40
0.6
176
     0
 40
30.0
176
     0
 62
     7
420
 16777215
176
     0
 90
        1
176
     0
 90
        4
176
     0
 62
     7
176
     0
 62
   257
176
     0
 90
        1
176
     0
 90
        1
176
     0
 40
1.0
176
     0
 90
        8
176
     2
 62
     7
176
     0
 40
1.0
176
     0
 90
        1
176
     0
 90
        6
176
     0
 90
        2
176
     0
 62
     7
176
     0
 90
        5
176
     0
 90
        0
176
     0
 90
        0
176
     0
290
     0
176
     0
 90
        1
176
     0
 40
0.0
176
     0
 90
        0
176
     0
290
     0
176
     0
290
     1
176
     0
290
     1
176
     0
290
     0
176
     0
290
     0
176
     0
290
     0
176
     0
290
     0
176
     0
290
     0
176
     0
290
     0
176
     0
 90
       50
176
     0
 40
0.0
176
     0
 40
1.0
176
     0
 90
        0
176
     0
 62
    18
420
        0
176
     0
 90
       50
176
     0
 90
        3
176
     0
 62
     5
420
      255
176
     0
290
     0
176
     0
 90
       50
176
     0
 90
       50
176
     0
 90
       50
176
     0
290
     0
176
     0
 90
       50
176
     0
 62
   256
176
     0
 40
1.0
176
     0
 90
        2
176
     0
  1
strokes_ogs.tif
176
     0
290
     0
176
     0
 40
1.0
176
     0
 40
1.0
176
     0
  0
VISUALSTYLE
  5
1000012
102
{ACAD_REACTORS
330
1000003
102
}
330
1000003
100
AcDbVisualStyle
  2
Facepattern
 70
    15
177
     3
291
     1
 70
    58
 90
        2
176
     1
 90
        2
176
     1
 90
        0
176
     1
 90
        0
176
     1
 40
0.6
176
     1
 40
30.0
176
     1
 62
     7
420
 16777215
176
     1
 90
        1
176
     1
 90
        4
176
     1
 62
     7
176
     1
 62
   257
176
     1
 90
        1
176
     1
 90
        1
176
     1
 40
1.0
176
     1
 90
        8
176
     1
 62
     7
176
     1
 40
1.0
176
     1
 90
        1
176
     1
 90
        6
176
     1
 90
        2
176
     1
 62
     7
176
     1
 90
        5
176
     1
 90
        0
176
     1
 90
        0
176
     1
290
     0
176
     1
 90
        1
176
     1
 40
0.0
176
     1
 90
        0
176
     1
290
     0
176
     1
290
     1
176
     1
290
     1
176
     1
290
     0
176
     1
290
     0
176
     1
290
     0
176
     1
290
     0
176
     1
290
     0
176
     1
290
     0
176
     1
 90
       50
176
     1
 40
0.0
176
     1
 40
1.0
176
     1
 90
        0
176
     1
 62
    18
420
        0
176
     1
 90
       50
176
     1
 90
        3
176
     1
 62
     5
420
      255
176
     1
290
     0
176
     1
 90
       50
176
     1
 90
       50
176
     1
 90
       50
176
     1
290
     0
176
     1
 90
       50
176
     1
 62
   256
176
     0
 40
1.0
176
     0
 90
        2
176
     1
  1
strokes_ogs.tif
176
     1
290
     0
176
     1
 40
1.0
176
     1
 40
1.0
176
     1
  0
VISUALSTYLE
  5
1000004
102
{ACAD_REACTORS
330
1000003
102
}
330
1000003
100
AcDbVisualStyle
  2
Flat
 70
     0
177
     3
291
     1
 70
    58
 90
        2
176
     1
 90
        1
176
     1
 90
        1
176
     1
 90
        2
176
     1
 40
0.6
176
     1
 40
30.0
176
     1
 62
     7
420
 16777215
176
     1
 90
        0
176
     1
 90
        0
176
     1
 62
     7
176
     1
 62
   257
176
     1
 90
        1
176
     1
 90
        1
176
     1
 40
1.0
176
     1
 90
        8
176
     1
 62
     7
176
     1
 40
1.0
176
     1
 90
        1
176
     1
 90
        6
176
     1
 90
        2
176
     1
 62
     7
176
     1
 90
        5
176
     1
 90
        0
176
     1
 90
        0
176
     1
290
     0
176
     1
 90
       13
176
     1
 40
0.0
176
     1
 90
        0
176
     1
290
     0
176
     1
290
     1
176
     1
290
     1
176
     1
290
     0
176
     1
290
     0
176
     1
290
     0
176
     1
290
     0
176
     1
290
     0
176
     1
290
     0
176
     1
 90
       50
176
     1
 40
0.0
176
     1
 40
1.0
176
     1
 90
        0
176
     1
 62
    18
420
        0
176
     1
 90
       50
176
     1
 90
        3
176
     1
 62
     5
420
      255
176
     1
290
     0
176
     1
 90
       50
176
     1
 90
       50
176
     1
 90
       50
176
     1
290
     0
176
     1
 90
       50
176
     1
 62
   256
176
     0
 40
1.0
176
     0
 90
        2
176
     1
  1
strokes_ogs.tif
176
     1
290
     0
176
     1
 40
1.0
176
     1
 40
1.0
176
     1
  0
VISUALSTYLE
  5
1000005
102
{ACAD_REACTORS
330
1000003
102
}
330
1000003
100
AcDbVisualStyle
  2
FlatWithEdges
 70
     1
177
     3
291
     1
 70
    58
 90
        2
176
     1
 90
        1
176
     1
 90
        1
176
     1
 90
        2
176
     1
 40
0.6
176
     1
 40
30.0
176
     1
 62
     7
420
 16777215
176
     1
 90
        1
176
     1
 90
        0
176
     1
 62
     7
176
     1
 62
   257
176
     1
 90
        1
176
     1
 90
        1
176
     1
 40
1.0
176
     1
 90
        0
176
     1
 62
   257
176
     1
 40
1.0
176
     1
 90
        1
176
     1
 90
        6
176
     1
 90
        2
176
     1
 62
     7
176
     1
 90
        5
176
     1
 90
        0
176
     1
 90
        0
176
     1
290
     0
176
     1
 90
       13
176
     1
 40
0.0
176
     1
 90
        0
176
     1
290
     0
176
     1
290
     1
176
     1
290
     1
176
     1
290
     0
176
     1
290
     0
176
     1
290
     0
176
     1
290
     0
176
     1
290
     0
176
     1
290
     0
176
     1
 90
       50
176
     1
 40
0.0
176
     1
 40
1.0
176
     1
 90
        0
176
     1
 62
    18
420
        0
176
     1
 90
       50
176
     1
 90
        3
176
     1
 62
     5
420
      255
176
     1
290
     0
176
     1
 90
       50
176
     1
 90
       50
176
     1
 90
       50
176
     1
290
     0
176
     1
 90
       50
176
     1
 62
   256
176
     0
 40
1.0
176
     0
 90
        2
176
     1
  1
strokes_ogs.tif
176
     1
290
     0
176
     1
 40
1.0
176
     1
 40
1.0
176
     1
  0
VISUALSTYLE
  5
1000006
102
{ACAD_REACTORS
330
1000003
102
}
330
1000003
100
AcDbVisualStyle
  2
Gouraud
 70
     2
177
     3
291
     1
 70
    58
 90
        2
176
     1
 90
        2
176
     1
 90
        1
176
     1
 90
        2
176
     1
 40
0.6
176
     1
 40
30.0
176
     1
 62
     7
420
 16777215
176
     1
 90
        0
176
     1
 90
        0
176
     1
 62
     7
176
     1
 62
   257
176
     1
 90
        1
176
     1
 90
        1
176
     1
 40
1.0
176
     1
 90
        0
176
     1
 62
     7
176
     1
 40
1.0
176
     1
 90
        1
176
     1
 90
        6
176
     1
 90
        2
176
     1
 62
     7
176
     1
 90
        5
176
     1
 90
        0
176
     1
 90
        0
176
     1
290
     0
176
     1
 90
       13
176
     1
 40
0.0
176
     1
 90
        0
176
     1
290
     0
176
     1
290
     1
176
     1
290
     1
176
     1
290
     0
176
     1
290
     0
176
     1
290
     0
176
     1
290
     0
176
     1
290
     0
176
     1
290
     0
176
     1
 90
       50
176
     1
 40
0.0
176
     1
 40
1.0
176
     1
 90
        0
176
     1
 62
    18
420
        0
176
     1
 90
       50
176
     1
 90
        3
176
     1
 62
     5
420
      255
176
     1
290
     0
176
     1
 90
       50
176
     1
 90
       50
176
     1
 90
       50
176
     1
290
     0
176
     1
 90
       50
176
     1
 62
   256
176
     0
 40
1.0
176
     0
 90
        2
176
     1
  1
strokes_ogs.tif
176
     1
290
     0
176
     1
 40
1.0
176
     1
 40
1.0
176
     1
  0
VISUALSTYLE
  5
1000007
102
{ACAD_REACTORS
330
1000003
102
}
330
1000003
100
AcDbVisualStyle
  2
GouraudWithEdges
 70
     3
177
     3
291
     1
 70
    58
 90
        2
176
     1
 90
        2
176
     1
 90
        1
176
     1
 90
        2
176
     1
 40
0.6
176
     1
 40
30.0
176
     1
 62
     7
420
 16777215
176
     1
 90
        1
176
     1
 90
        0
176
     1
 62
     7
176
     1
 62
   257
176
     1
 90
        1
176
     1
 90
        1
176
     1
 40
1.0
176
     1
 90
        0
176
     1
 62
   257
176
     1
 40
1.0
176
     1
 90
        1
176
     1
 90
        6
176
     1
 90
        2
176
     1
 62
     7
176
     1
 90
        5
176
     1
 90
        0
176
     1
 90
        0
176
     1
290
     0
176
     1
 90
       13
176
     1
 40
0.0
176
     1
 90
        0
176
     1
290
     0
176
     1
290
     1
176
     1
290
     1
176
     1
290
     0
176
     1
290
     0
176
     1
290
     0
176
     1
290
     0
176
     1
290
     0
176
     1
290
     0
176
     1
 90
       50
176
     1
 40
0.0
176
     1
 40
1.0
176
     1
 90
        0
176
     1
 62
    18
420
        0
176
     1
 90
       50
176
     1
 90
        3
176
     1
 62
     5
420
      255
176
     1
290
     0
176
     1
 90
       50
176
     1
 90
       50
176
     1
 90
       50
176
     1
290
     0
176
     1
 90
       50
176
     1
 62
   256
176
     0
 40
1.0
176
     0
 90
        2
176
     1
  1
strokes_ogs.tif
176
     1
290
     0
176
     1
 40
1.0
176
     1
 40
1.0
176
     1
  0
VISUALSTYLE
  5
100000A
102
{ACAD_REACTORS
330
1000003
102
}
330
1000003
100
AcDbVisualStyle
  2
Hidden
 70
     6
177
     3
291
     0
 70
    58
 90
        1
176
     1
 90
        2
176
     1
 90
        2
176
     1
 90
        0
176
     1
 40
0.6
176
     1
 40
30.0
176
     1
 62
     7
420
 16777215
176
     1
 90
        2
176
     1
 90
        2
176
     1
 62
     7
176
     1
 62
   257
176
     1
 90
        2
176
     1
 90
        1
176
     1
 40
40.0
176
     1
 90
        0
176
     1
 62
   257
176
     1
 40
1.0
176
     1
 90
        1
176
     1
 90
        6
176
     1
 90
        2
176
     1
 62
     7
176
     1
 90
        3
176
     1
 90
        0
176
     1
 90
        0
176
     1
290
     0
176
     1
 90
        1
176
     1
 40
0.0
176
     1
 90
        0
176
     1
290
     0
176
     1
290
     1
176
     1
290
     1
176
     1
290
     0
176
     1
290
     0
176
     1
290
     0
176
     1
290
     0
176
     1
290
     0
176
     1
290
     0
176
     1
 90
       50
176
     1
 40
0.0
176
     1
 40
1.0
176
     1
 90
        0
176
     1
 62
    18
420
        0
176
     1
 90
       50
176
     1
 90
        3
176
     1
 62
     5
420
      255
176
     1
290
     0
176
     1
 90
       50
176
     1
 90
       50
176
     1
 90
       50
176
     1
290
     0
176
     1
 90
       50
176
     1
 62
   256
176
     0
 40
1.0
176
     0
 90
        2
176
     1
  1
strokes_ogs.tif
176
     1
290
     0
176
     1
 40
1.0
176
     1
 40
1.0
176
     1
  0
VISUALSTYLE
  5
1000014
102
{ACAD_REACTORS
330
1000003
102
}
330
1000003
100
AcDbVisualStyle
  2
JitterOff
 70
    20
177
     3
291
     1
 70
    58
 90
        2
176
     0
 90
        2
176
     0
 90
        0
176
     0
 90
        0
176
     0
 40
0.6
176
     0
 40
30.0
176
     0
 62
     7
420
 16777215
176
     0
 90
        1
176
     0
 90
        4
176
     0
 62
     7
176
     0
 62
   257
176
     0
 90
        1
176
     0
 90
        1
176
     0
 40
1.0
176
     0
 90
       10
176
     2
 62
     7
176
     0
 40
1.0
176
     0
 90
        1
176
     0
 90
        6
176
     0
 90
        2
176
     0
 62
     7
176
     0
 90
        5
176
     0
 90
        0
176
     0
 90
        0
176
     0
290
     0
176
     0
 90
        1
176
     0
 40
0.0
176
     0
 90
        0
176
     0
290
     0
176
     0
290
     1
176
     0
290
     1
176
     0
290
     0
176
     0
290
     0
176
     0
290
     0
176
     0
290
     0
176
     0
290
     0
176
     0
290
     0
176
     0
 90
       50
176
     0
 40
0.0
176
     0
 40
1.0
176
     0
 90
        0
176
     0
 62
    18
420
        0
176
     0
 90
       50
176
     0
 90
        3
176
     0
 62
     5
420
      255
176
     0
290
     0
176
     0
 90
       50
176
     0
 90
       50
176
     0
 90
       50
176
     0
290
     0
176
     0
 90
       50
176
     0
 62
   256
176
     0
 40
1.0
176
     0
 90
        2
176
     0
  1
strokes_ogs.tif
176
     0
290
     0
176
     0
 40
1.0
176
     0
 40
1.0
176
     0
  0
VISUALSTYLE
  5
1000011
102
{ACAD_REACTORS
330
1000003
102
}
330
1000003
100
AcDbVisualStyle
  2
Linepattern
 70
    14
177
     3
291
     1
 70
    58
 90
        2
176
     1
 90
        2
176
     1
 90
        0
176
     1
 90
        0
176
     1
 40
0.6
176
     1
 40
30.0
176
     1
 62
     7
420
 16777215
176
     1
 90
        1
176
     1
 90
        4
176
     1
 62
     7
176
     1
 62
   257
176
     1
 90
        7
176
     1
 90
        7
176
     1
 40
1.0
176
     1
 90
        8
176
     1
 62
     7
176
     1
 40
1.0
176
     1
 90
        1
176
     1
 90
        6
176
     1
 90
        2
176
     1
 62
     7
176
     1
 90
        5
176
     1
 90
        0
176
     1
 90
        0
176
     1
290
     0
176
     1
 90
        1
176
     1
 40
0.0
176
     1
 90
        0
176
     1
290
     0
176
     1
290
     1
176
     1
290
     1
176
     1
290
     0
176
     1
290
     0
176
     1
290
     0
176
     1
290
     0
176
     1
290
     0
176
     1
290
     0
176
     1
 90
       50
176
     1
 40
0.0
176
     1
 40
1.0
176
     1
 90
        0
176
     1
 62
    18
420
        0
176
     1
 90
       50
176
     1
 90
        3
176
     1
 62
     5
420
      255
176
     1
290
     0
176
     1
 90
       50
176
     1
 90
       50
176
     1
 90
       50
176
     1
290
     0
176
     1
 90
       50
176
     1
 62
   256
176
     0
 40
1.0
176
     0
 90
        2
176
     1
  1
strokes_ogs.tif
176
     1
290
     0
176
     1
 40
1.0
176
     1
 40
1.0
176
     1
  0
VISUALSTYLE
  5
1000015
102
{ACAD_REACTORS
330
1000003
102
}
330
1000003
100
AcDbVisualStyle
  2
OverhangOff
 70
    21
177
     3
291
     1
 70
    58
 90
        2
176
     0
 90
        2
176
     0
 90
        0
176
     0
 90
        0
176
     0
 40
0.6
176
     0
 40
30.0
176
     0
 62
     7
420
 16777215
176
     0
 90
        1
176
     0
 90
        4
176
     0
 62
     7
176
     0
 62
   257
176
     0
 90
        1
176
     0
 90
        1
176
     0
 40
1.0
176
     0
 90
        9
176
     2
 62
     7
176
     0
 40
1.0
176
     0
 90
        1
176
     0
 90
        6
176
     0
 90
        2
176
     0
 62
     7
176
     0
 90
        5
176
     0
 90
        0
176
     0
 90
        0
176
     0
290
     0
176
     0
 90
        1
176
     0
 40
0.0
176
     0
 90
        0
176
     0
290
     0
176
     0
290
     1
176
     0
290
     1
176
     0
290
     0
176
     0
290
     0
176
     0
290
     0
176
     0
290
     0
176
     0
290
     0
176
     0
290
     0
176
     0
 90
       50
176
     0
 40
0.0
176
     0
 40
1.0
176
     0
 90
        0
176
     0
 62
    18
420
        0
176
     0
 90
       50
176
     0
 90
        3
176
     0
 62
     5
420
      255
176
     0
290
     0
176
     0
 90
       50
176
     0
 90
       50
176
     0
 90
       50
176
     0
290
     0
176
     0
 90
       50
176
     0
 62
   256
176
     0
 40
1.0
176
     0
 90
        2
176
     0
  1
strokes_ogs.tif
176
     0
290
     0
176
     0
 40
1.0
176
     0
 40
1.0
176
     0
  0
VISUALSTYLE
  5
100000C
102
{ACAD_REACTORS
330
1000003
102
}
330
1000003
100
AcDbVisualStyle
  2
Realistic
 70
     8
177
     3
291
     0
 70
    58
 90
        2
176
     1
 90
        3
176
     1
 90
        0
176
     1
 90
        2
176
     1
 40
0.6
176
     1
 40
30.0
176
     1
 62
     7
420
 16777215
176
     1
 90
        0
176
     1
 90
        0
176
     1
 62
     7
176
     1
 62
   257
176
     1
 90
        1
176
     1
 90
        1
176
     1
 40
1.0
176
     1
 90
        8
176
     1
 62
   257
176
     1
 40
1.0
176
     1
 90
        1
176
     1
 90
        6
176
     1
 90
        2
176
     1
 62
     7
176
     1
 90
        3
176
     1
 90
        0
176
     1
 90
        0
176
     1
290
     0
176
     1
 90
       13
176
     1
 40
0.0
176
     1
 90
        0
176
     1
290
     0
176
     1
290
     1
176
     1
290
     1
176
     1
290
     0
176
     1
290
     0
176
     1
290
     0
176
     1
290
     0
176
     1
290
     0
176
     1
290
     0
176
     1
 90
       50
176
     1
 40
0.0
176
     1
 40
1.0
176
     1
 90
        0
176
     1
 62
    18
420
        0
176
     1
 90
       50
176
     1
 90
        3
176
     1
 62
     5
420
      255
176
     1
290
     0
176
     1
 90
       50
176
     1
 90
       50
176
     1
 90
       50
176
     1
290
     0
176
     1
 90
       50
176
     1
 62
   256
176
     0
 40
1.0
176
     0
 90
        2
176
     1
  1
strokes_ogs.tif
176
     1
290
     0
176
     1
 40
1.0
176
     1
 40
1.0
176
     1
  0
VISUALSTYLE
  5
100001B
102
{ACAD_REACTORS
330
1000003
102
}
330
1000003
100
AcDbVisualStyle
  2
Shaded
 70
    27
177
     3
291
     0
 70
    58
 90
        2
176
     1
 90
        2
176
     1
 90
        1
176
     1
 90
        2
176
     1
 40
0.6
176
     1
 40
30.0
176
     1
 62
     7
420
 16777215
176
     1
 90
        0
176
     1
 90
        4
176
     1
 62
     7
176
     1
 62
   257
176
     1
 90
        1
176
     1
 90
        1
176
     1
 40
1.0
176
     1
 90
        8
176
     1
 62
   257
176
     1
 40
1.0
176
     1
 90
        1
176
     1
 90
        6
176
     1
 90
        2
176
     1
 62
     8
420
  7895160
176
     1
 90
        3
176
     1
 90
        0
176
     1
 90
        0
176
     1
290
     0
176
     1
 90
        5
176
     1
 40
0.0
176
     1
 90
        0
176
     1
290
     0
176
     1
290
     1
176
     1
290
     1
176
     1
290
     0
176
     1
290
     0
176
     1
290
     0
176
     1
290
     0
176
     1
290
     0
176
     1
290
     0
176
     1
 90
       50
176
     1
 40
0.0
176
     1
 40
1.0
176
     1
 90
        0
176
     1
 62
    18
420
        0
176
     1
 90
       50
176
     1
 90
        3
176
     1
 62
     5
420
      255
176
     1
290
     0
176
     1
 90
       50
176
     1
 90
       50
176
     1
 90
       50
176
     1
290
     0
176
     1
 90
       50
176
     1
 62
   256
176
     0
 40
1.0
176
     0
 90
        2
176
     1
  1
strokes_ogs.tif
176
     1
290
     0
176
     1
 40
1.0
176
     1
 40
1.0
176
     1
  0
VISUALSTYLE
  5
100001A
102
{ACAD_REACTORS
330
1000003
102
}
330
1000003
100
AcDbVisualStyle
  2
Shaded with edges
 70
    26
177
     3
291
     0
 70
    58
 90
        2
176
     1
 90
        2
176
     1
 90
        1
176
     1
 90
        2
176
     1
 40
0.6
176
     1
 40
30.0
176
     1
 62
     7
420
 16777215
176
     1
 90
        1
176
     1
 90
       10
176
     1
 62
     7
176
     1
 62
   257
176
     1
 90
        2
176
     1
 90
        1
176
     1
 40
1.0
176
     1
 90
        8
176
     1
 62
   257
176
     1
 40
1.0
176
     1
 90
        1
176
     1
 90
        6
176
     1
 90
        2
176
     1
 62
     7
176
     1
 90
        3
176
     1
 90
        0
176
     1
 90
        0
176
     1
290
     0
176
     1
 90
        5
176
     1
 40
0.0
176
     1
 90
        0
176
     1
290
     0
176
     1
290
     1
176
     1
290
     1
176
     1
290
     0
176
     1
290
     0
176
     1
290
     0
176
     1
290
     0
176
     1
290
     0
176
     1
290
     0
176
     1
 90
       50
176
     1
 40
0.0
176
     1
 40
1.0
176
     1
 90
        0
176
     1
 62
    18
420
        0
176
     1
 90
       50
176
     1
 90
        3
176
     1
 62
     5
420
      255
176
     1
290
     0
176
     1
 90
       50
176
     1
 90
       50
176
     1
 90
       50
176
     1
290
     0
176
     1
 90
       50
176
     1
 62
   256
176
     0
 40
1.0
176
     0
 90
        2
176
     1
  1
strokes_ogs.tif
176
     1
290
     0
176
     1
 40
1.0
176
     1
 40
1.0
176
     1
  0
VISUALSTYLE
  5
1000017
102
{ACAD_REACTORS
330
1000003
102
}
330
1000003
100
AcDbVisualStyle
  2
Shades of Gray
 70
    23
177
     3
291
     0
 70
    58
 90
        2
176
     1
 90
        2
176
     1
 90
        3
176
     1
 90
        0
176
     1
 40
0.6
176
     1
 40
30.0
176
     1
 62
     7
420
 16777215
176
     1
 90
        2
176
     1
 90
        2
176
     1
 62
     7
176
     1
 62
     7
176
     1
 90
        1
176
     1
 90
        1
176
     1
 40
40.0
176
     1
 90
        8
176
     1
 62
     7
176
     1
 40
1.0
176
     1
 90
        1
176
     1
 90
        6
176
     1
 90
        2
176
     1
 62
     7
176
     1
 90
        3
176
     1
 90
        0
176
     1
 90
        0
176
     1
290
     0
176
     1
 90
        1
176
     1
 40
0.0
176
     1
 90
        0
176
     1
290
     0
176
     1
290
     1
176
     1
290
     1
176
     1
290
     0
176
     1
290
     0
176
     1
290
     0
176
     1
290
     0
176
     1
290
     0
176
     1
290
     0
176
     1
 90
       50
176
     1
 40
0.0
176
     1
 40
1.0
176
     1
 90
        0
176
     1
 62
    18
420
        0
176
     1
 90
       50
176
     1
 90
        3
176
     1
 62
     5
420
      255
176
     1
290
     0
176
     1
 90
       50
176
     1
 90
       50
176
     1
 90
       50
176
     1
290
     0
176
     1
 90
       50
176
     1
 62
   256
176
     0
 40
1.0
176
     0
 90
        2
176
     1
  1
strokes_ogs.tif
176
     1
290
     0
176
     1
 40
1.0
176
     1
 40
1.0
176
     1
  0
VISUALSTYLE
  5
1000018
102
{ACAD_REACTORS
330
1000003
102
}
330
1000003
100
AcDbVisualStyle
  2
Sketchy
 70
    24
177
     3
291
     0
 70
    58
 90
        1
176
     1
 90
        2
176
     1
 90
        2
176
     1
 90
        0
176
     1
 40
0.6
176
     1
 40
30.0
176
     1
 62
     7
420
 16777215
176
     1
 90
        2
176
     1
 90
        2
176
     1
 62
     7
176
     1
 62
     7
176
     1
 90
        1
176
     1
 90
        1
176
     1
 40
40.0
176
     1
 90
       11
176
     1
 62
     7
176
     1
 40
1.0
176
     1
 90
        1
176
     1
 90
        6
176
     1
 90
        2
176
     1
 62
     7
176
     1
 90
        6
176
     1
 90
        0
176
     1
 90
        0
176
     1
290
     0
176
     1
 90
        1
176
     1
 40
0.0
176
     1
 90
        0
176
     1
290
     0
176
     1
290
     1
176
     1
290
     1
176
     1
290
     0
176
     1
290
     0
176
     1
290
     0
176
     1
290
     0
176
     1
290
     0
176
     1
290
     0
176
     1
 90
       50
176
     1
 40
0.0
176
     1
 40
1.0
176
     1
 90
        0
176
     1
 62
    18
420
        0
176
     1
 90
       50
176
     1
 90
        3
176
     1
 62
     5
420
      255
176
     1
290
     0
176
     1
 90
       50
176
     1
 90
       50
176
     1
 90
       50
176
     1
290
     0
176
     1
 90
       50
176
     1
 62
   256
176
     0
 40
1.0
176
     0
 90
        2
176
     1
  1
strokes_ogs.tif
176
     1
290
     0
176
     1
 40
1.0
176
     1
 40
1.0
176
     1
  0
VISUALSTYLE
  5
1000010
102
{ACAD_REACTORS
330
1000003
102
}
330
1000003
100
AcDbVisualStyle
  2
Thicken
 70
    13
177
     3
291
     1
 70
    58
 90
        2
176
     1
 90
        2
176
     1
 90
        0
176
     1
 90
        0
176
     1
 40
0.6
176
     1
 40
30.0
176
     1
 62
     7
420
 16777215
176
     1
 90
        1
176
     1
 90
        4
176
     1
 62
     7
176
     1
 62
   257
176
     1
 90
        1
176
     1
 90
        1
176
     1
 40
1.0
176
     1
 90
       12
176
     1
 62
     7
176
     1
 40
1.0
176
     1
 90
        1
176
     1
 90
        6
176
     1
 90
        2
176
     1
 62
     7
176
     1
 90
        5
176
     1
 90
        0
176
     1
 90
        0
176
     1
290
     0
176
     1
 90
        1
176
     1
 40
0.0
176
     1
 90
        0
176
     1
290
     0
176
     1
290
     1
176
     1
290
     1
176
     1
290
     0
176
     1
290
     0
176
     1
290
     0
176
     1
290
     0
176
     1
290
     0
176
     1
290
     0
176
     1
 90
       50
176
     1
 40
0.0
176
     1
 40
1.0
176
     1
 90
        0
176
     1
 62
    18
420
        0
176
     1
 90
       50
176
     1
 90
        3
176
     1
 62
     5
420
      255
176
     1
290
     0
176
     1
 90
       50
176
     1
 90
       50
176
     1
 90
       50
176
     1
290
     0
176
     1
 90
       50
176
     1
 62
   256
176
     0
 40
1.0
176
     0
 90
        2
176
     1
  1
strokes_ogs.tif
176
     1
290
     0
176
     1
 40
1.0
176
     1
 40
1.0
176
     1
  0
VISUALSTYLE
  5
1000009
102
{ACAD_REACTORS
330
1000003
102
}
330
1000003
100
AcDbVisualStyle
  2
Wireframe
 70
     5
177
     3
291
     0
 70
    58
 90
        0
176
     1
 90
        2
176
     1
 90
        0
176
     1
 90
        0
176
     1
 40
0.6
176
     1
 40
30.0
176
     1
 62
     7
420
 16777215
176
     1
 90
        1
176
     1
 90
        4
176
     1
 62
     7
176
     1
 62
   257
176
     1
 90
        1
176
     1
 90
        1
176
     1
 40
1.0
176
     1
 90
        0
176
     1
 62
   257
176
     1
 40
1.0
176
     1
 90
        1
176
     1
 90
        6
176
     1
 90
        2
176
     1
 62
     7
176
     1
 90
        3
176
     1
 90
        0
176
     1
 90
        0
176
     1
290
     0
176
     1
 90
        1
176
     1
 40
0.0
176
     1
 90
        0
176
     1
290
     0
176
     1
290
     1
176
     1
290
     1
176
     1
290
     0
176
     1
290
     0
176
     1
290
     0
176
     1
290
     0
176
     1
290
     0
176
     1
290
     0
176
     1
 90
       50
176
     1
 40
0.0
176
     1
 40
1.0
176
     1
 90
        0
176
     1
 62
    18
420
        0
176
     1
 90
       50
176
     1
 90
        3
176
     1
 62
     5
420
      255
176
     1
290
     0
176
     1
 90
       50
176
     1
 90
       50
176
     1
 90
       50
176
     1
290
     0
176
     1
 90
       50
176
     1
 62
   256
176
     0
 40
1.0
176
     0
 90
        2
176
     1
  1
strokes_ogs.tif
176
     1
290
     0
176
     1
 40
1.0
176
     1
 40
1.0
176
     1
  0
VISUALSTYLE
  5
1000019
102
{ACAD_REACTORS
330
1000003
102
}
330
1000003
100
AcDbVisualStyle
  2
X-Ray
 70
    25
177
     3
291
     0
 70
    58
 90
        2
176
     1
 90
        2
176
     1
 90
        1
176
     1
 90
        1
176
     1
 40
0.5
176
     1
 40
30.0
176
     1
 62
     7
420
 16777215
176
     1
 90
        1
176
     1
 90
        0
176
     1
 62
     7
176
     1
 62
   257
176
     1
 90
        1
176
     1
 90
        1
176
     1
 40
1.0
176
     1
 90
        8
176
     1
 62
     7
176
     1
 40
1.0
176
     1
 90
        1
176
     1
 90
        6
176
     1
 90
        2
176
     1
 62
     7
176
     1
 90
        3
176
     1
 90
        0
176
     1
 90
        0
176
     1
290
     0
176
     1
 90
       13
176
     1
 40
0.0
176
     1
 90
        0
176
     1
290
     0
176
     1
290
     1
176
     1
290
     1
176
     1
290
     0
176
     1
290
     0
176
     1
290
     0
176
     1
290
     0
176
     1
290
     0
176
     1
290
     0
176
     1
 90
       50
176
     1
 40
0.0
176
     1
 40
1.0
176
     1
 90
        0
176
     1
 62
    18
420
        0
176
     1
 90
       50
176
     1
 90
        3
176
     1
 62
     5
420
      255
176
     1
290
     0
176
     1
 90
       50
176
     1
 90
       50
176
     1
 90
       50
176
     1
290
     0
176
     1
 90
       50
176
     1
 62
   256
176
     0
 40
1.0
176
     0
 90
        2
176
     1
  1
strokes_ogs.tif
176
     1
290
     0
176
     1
 40
1.0
176
     1
 40
1.0
176
     1
  0
DICTIONARYVAR
  5
1000282
102
{ACAD_REACTORS
330
100027E
102
}
330
100027E
100
DictionaryVariables
280
     0
  1
1:1
  0
DICTIONARYVAR
  5
1000280
102
{ACAD_REACTORS
330
100027E
102
}
330
100027E
100
DictionaryVariables
280
     0
  1
Standard
  0
DICTIONARYVAR
  5
100027F
102
{ACAD_REACTORS
330
100027E
102
}
330
100027E
100
DictionaryVariables
280
     0
  1
Standard
  0
DICTIONARYVAR
  5
1000281
102
{ACAD_REACTORS
330
100027E
102
}
330
100027E
100
DictionaryVariables
280
     0
  1
0
  0
ENDSEC
  0
SECTION
  2
ACDSDATA
 70
     2
 71
     2
  0
ACDSSCHEMA
 90
        0
  1
AcDb3DSolid_ASM_Data
  2
AcDbDs::ID
280
    10
 91
        0
  2
ASM_Data
280
    15
 91
        0
101
ACDSRECORD
 95
        0
 90
        1
  2
AcDbDs::TreatedAsObjectData
280
     1
291
     1
101
ACDSRECORD
 95
        0
 90
        2
  2
AcDbDs::Legacy
280
     1
291
     1
101
ACDSRECORD
  1
AcDbDs::ID
 90
        3
  2
AcDs:Indexable
280
     1
291
     1
101
ACDSRECORD
  1
AcDbDs::ID
 90
        4
  2
AcDbDs::HandleAttribute
280
     7
282
     1
  0
ACDSSCHEMA
 90
        1
  1
AcDbDs::TreatedAsObjectDataSchema
  2
AcDbDs::TreatedAsObjectData
280
     1
 91
        0
  0
ACDSSCHEMA
 90
        2
  1
AcDbDs::LegacySchema
  2
AcDbDs::Legacy
280
     1
 91
        0
  0
ACDSSCHEMA
 90
        3
  1
AcDbDs::IndexedPropertySchema
  2
AcDs:Indexable
280
     1
 91
        0
  0
ACDSSCHEMA
 90
        4
  1
AcDbDs::HandleAttributeSchema
  2
AcDbDs::HandleAttribute
280
     7
 91
        8
  0
ENDSEC
  0
EOF
