  0
SECTION
  2
HEADER
  9
$ACADVER
  1
AC1027
  9
$ACADMAINTVER
 70
     8
  9
$DWGCODEPAGE
  3
ANSI_1250
  9
$REQUIREDVERSIONS
160
                 0
  9
$INSBASE
 10
0.0
 20
0.0
 30
0.0
  9
$EXTMIN
 10
7569105.86
 20
5716076.93
 30
0.0
  9
$EXTMAX
 10
7569554.639999998
 20
5716666.8
 30
0.0
  9
$LIMMIN
 10
7569105.86
 20
5716076.93
  9
$LIMMAX
 10
7569554.639999998
 20
5716666.8
  9
$ORTHOMODE
 70
     0
  9
$REGENMODE
 70
     1
  9
$FILLMODE
 70
     1
  9
$QTEXTMODE
 70
     0
  9
$MIRRTEXT
 70
     0
  9
$LTSCALE
 40
1.0
  9
$ATTMODE
 70
     1
  9
$TEXTSIZE
 40
0.2
  9
$TRACEWID
 40
0.05
  9
$TEXTSTYLE
  7
STANDARD
  9
$CLAYER
  8
0
  9
$CELTYPE
  6
CONTINUOUS
  9
$CECOLOR
 62
   256
  9
$CELTSCALE
 40
1.0
  9
$DISPSILH
 70
     0
  9
$DIMSCALE
 40
1.0
  9
$DIMASZ
 40
2.5
  9
$DIMEXO
 40
0.625
  9
$DIMDLI
 40
0.38
  9
$DIMRND
 40
0.0
  9
$DIMDLE
 40
0.0
  9
$DIMEXE
 40
1.25
  9
$DIMTP
 40
0.0
  9
$DIMTM
 40
0.0
  9
$DIMTXT
 40
2.5
  9
$DIMCEN
 40
0.09
  9
$DIMTSZ
 40
0.0
  9
$DIMTOL
 70
     0
  9
$DIMLIM
 70
     0
  9
$DIMTIH
 70
     1
  9
$DIMTOH
 70
     1
  9
$DIMSE1
 70
     0
  9
$DIMSE2
 70
     0
  9
$DIMTAD
 70
     0
  9
$DIMZIN
 70
     0
  9
$DIMBLK
  1

  9
$DIMASO
 70
     1
  9
$DIMSHO
 70
     1
  9
$DIMPOST
  1

  9
$DIMAPOST
  1

  9
$DIMALT
 70
     0
  9
$DIMALTD
 70
     2
  9
$DIMALTF
 40
25.4
  9
$DIMLFAC
 40
1.0
  9
$DIMTOFL
 70
     0
  9
$DIMTVP
 40
0.0
  9
$DIMTIX
 70
     0
  9
$DIMSOXD
 70
     0
  9
$DIMSAH
 70
     0
  9
$DIMBLK1
  1

  9
$DIMBLK2
  1

  9
$DIMSTYLE
  2
Standard
  9
$DIMCLRD
 70
     0
  9
$DIMCLRE
 70
     0
  9
$DIMCLRT
 70
     0
  9
$DIMTFAC
 40
1.0
  9
$DIMGAP
 40
0.625
  9
$DIMJUST
 70
     0
  9
$DIMSD1
 70
     0
  9
$DIMSD2
 70
     0
  9
$DIMTOLJ
 70
     1
  9
$DIMTZIN
 70
     0
  9
$DIMALTZ
 70
     0
  9
$DIMALTTZ
 70
     0
  9
$DIMUPT
 70
     0
  9
$DIMDEC
 70
     4
  9
$DIMTDEC
 70
     4
  9
$DIMALTU
 70
     2
  9
$DIMALTTD
 70
     2
  9
$DIMTXSTY
  7
STANDARD
  9
$DIMAUNIT
 70
     0
  9
$DIMADEC
 70
     0
  9
$DIMALTRND
 40
0.0
  9
$DIMAZIN
 70
     0
  9
$DIMDSEP
 70
    46
  9
$DIMATFIT
 70
     3
  9
$DIMFRAC
 70
     0
  9
$DIMLDRBLK
  1

  9
$DIMLUNIT
 70
     2
  9
$DIMLWD
 70
    -2
  9
$DIMLWE
 70
    -2
  9
$DIMTMOVE
 70
     0
  9
$DIMFXL
 40
1.0
  9
$DIMFXLON
 70
     0
  9
$DIMJOGANG
 40
0.7853981633974483
  9
$DIMTFILL
 70
     0
  9
$DIMTFILLCLR
 70
     0
  9
$DIMARCSYM
 70
     0
  9
$DIMLTYPE
  6

  9
$DIMLTEX1
  6

  9
$DIMLTEX2
  6

  9
$DIMTXTDIRECTION
 70
     0
  9
$LUNITS
 70
     2
  9
$LUPREC
 70
     4
  9
$SKETCHINC
 40
0.1
  9
$FILLETRAD
 40
0.0
  9
$AUNITS
 70
     0
  9
$AUPREC
 70
     0
  9
$MENU
  1

  9
$ELEVATION
 40
0.0
  9
$PELEVATION
 40
0.0
  9
$THICKNESS
 40
0.0
  9
$LIMCHECK
 70
     0
  9
$CHAMFERA
 40
0.0
  9
$CHAMFERB
 40
0.0
  9
$CHAMFERC
 40
0.0
  9
$CHAMFERD
 40
0.0
  9
$SKPOLY
 70
     0
  9
$TDCREATE
 40
2305814.322821875
  9
$TDUCREATE
 40
45266.281155208
  9
$TDUPDATE
 40
2460285.325738959
  9
$TDUUPDATE
 40
2460285.284072292
  9
$TDINDWG
 40
0.001194421
  9
$TDUSRTIMER
 40
0.001193877
  9
$USRTIMER
 70
     1
  9
$ANGBASE
 50
0.0
  9
$ANGDIR
 70
     0
  9
$PDMODE
 70
     0
  9
$PDSIZE
 40
0.0
  9
$PLINEWID
 40
0.0
  9
$SPLFRAME
 70
     0
  9
$SPLINETYPE
 70
     6
  9
$SPLINESEGS
 70
     8
  9
$HANDSEED
  5
10000EC
  9
$SURFTAB1
 70
     6
  9
$SURFTAB2
 70
     6
  9
$SURFTYPE
 70
     6
  9
$SURFU
 70
     6
  9
$SURFV
 70
     6
  9
$UCSBASE
  2

  9
$UCSNAME
  2

  9
$UCSORG
 10
0.0
 20
0.0
 30
0.0
  9
$UCSXDIR
 10
1.0
 20
0.0
 30
0.0
  9
$UCSYDIR
 10
0.0
 20
1.0
 30
0.0
  9
$UCSORTHOREF
  2

  9
$UCSORTHOVIEW
 70
     0
  9
$UCSORGTOP
 10
0.0
 20
0.0
 30
0.0
  9
$UCSORGBOTTOM
 10
0.0
 20
0.0
 30
0.0
  9
$UCSORGLEFT
 10
0.0
 20
0.0
 30
0.0
  9
$UCSORGRIGHT
 10
0.0
 20
0.0
 30
0.0
  9
$UCSORGFRONT
 10
0.0
 20
0.0
 30
0.0
  9
$UCSORGBACK
 10
0.0
 20
0.0
 30
0.0
  9
$PUCSBASE
  2

  9
$PUCSNAME
  2

  9
$PUCSORG
 10
0.0
 20
0.0
 30
0.0
  9
$PUCSXDIR
 10
1.0
 20
0.0
 30
0.0
  9
$PUCSYDIR
 10
0.0
 20
1.0
 30
0.0
  9
$PUCSORTHOREF
  2

  9
$PUCSORTHOVIEW
 70
     0
  9
$PUCSORGTOP
 10
0.0
 20
0.0
 30
0.0
  9
$PUCSORGBOTTOM
 10
0.0
 20
0.0
 30
0.0
  9
$PUCSORGLEFT
 10
0.0
 20
0.0
 30
0.0
  9
$PUCSORGRIGHT
 10
0.0
 20
0.0
 30
0.0
  9
$PUCSORGFRONT
 10
0.0
 20
0.0
 30
0.0
  9
$PUCSORGBACK
 10
0.0
 20
0.0
 30
0.0
  9
$USERI1
 70
     0
  9
$USERI2
 70
     0
  9
$USERI3
 70
     0
  9
$USERI4
 70
     0
  9
$USERI5
 70
     0
  9
$USERR1
 40
0.0
  9
$USERR2
 40
0.0
  9
$USERR3
 40
0.0
  9
$USERR4
 40
0.0
  9
$USERR5
 40
0.0
  9
$WORLDVIEW
 70
     1
  9
$SHADEDGE
 70
     3
  9
$SHADEDIF
 70
    70
  9
$TILEMODE
 70
     1
  9
$MAXACTVP
 70
    64
  9
$PINSBASE
 10
0.0
 20
0.0
 30
0.0
  9
$PLIMCHECK
 70
     0
  9
$PEXTMIN
 10
1.000000000000000E+20
 20
1.000000000000000E+20
 30
1.000000000000000E+20
  9
$PEXTMAX
 10
-1.000000000000000E+20
 20
-1.000000000000000E+20
 30
-1.000000000000000E+20
  9
$PLIMMIN
 10
0.0
 20
0.0
  9
$PLIMMAX
 10
210.0
 20
297.0
  9
$UNITMODE
 70
     0
  9
$VISRETAIN
 70
     1
  9
$PLINEGEN
 70
     0
  9
$PSLTSCALE
 70
     1
  9
$TREEDEPTH
 70
  3020
  9
$CMLSTYLE
  2
Standard
  9
$CMLJUST
 70
     0
  9
$CMLSCALE
 40
1.0
  9
$PROXYGRAPHICS
 70
     1
  9
$MEASUREMENT
 70
     0
  9
$CELWEIGHT
370
    -1
  9
$ENDCAPS
280
     0
  9
$JOINSTYLE
280
     0
  9
$LWDISPLAY
290
     1
  9
$INSUNITS
 70
     6
  9
$HYPERLINKBASE
  1

  9
$STYLESHEET
  1

  9
$XEDIT
290
     0
  9
$CEPSNTYPE
380
     0
  9
$PSTYLEMODE
290
     1
  9
$FINGERPRINTGUID
  2
{108B3DA1-74E4-441F-954C-9EBE58C922C8}
  9
$VERSIONGUID
  2
{F9E3265A-B6DE-4091-BE96-41BE8C488AEF}
  9
$EXTNAMES
290
     1
  9
$PSVPSCALE
 40
0.0
  9
$OLESTARTUP
290
     0
  9
$SORTENTS
280
   127
  9
$INDEXCTL
280
     0
  9
$HIDETEXT
280
     1
  9
$XCLIPFRAME
280
     2
  9
$HALOGAP
280
     0
  9
$OBSCOLOR
 70
   257
  9
$OBSLTYPE
280
     0
  9
$INTERSECTIONDISPLAY
280
     0
  9
$INTERSECTIONCOLOR
 70
   257
  9
$DIMASSOC
280
     2
  9
$PROJECTNAME
  1

  9
$CAMERADISPLAY
290
     0
  9
$LENSLENGTH
 40
50.0
  9
$CAMERAHEIGHT
 40
0.0
  9
$STEPSPERSEC
 40
2.0
  9
$STEPSIZE
 40
6.0
  9
$3DDWFPREC
 40
2.0
  9
$PSOLWIDTH
 40
0.25
  9
$PSOLHEIGHT
 40
4.0
  9
$LOFTANG1
 40
1.570796326794896
  9
$LOFTANG2
 40
1.570796326794896
  9
$LOFTMAG1
 40
0.0
  9
$LOFTMAG2
 40
0.0
  9
$LOFTPARAM
 70
     7
  9
$LOFTNORMALS
280
     1
  9
$LATITUDE
 40
0.0
  9
$LONGITUDE
 40
0.0
  9
$NORTHDIRECTION
 40
0.0
  9
$TIMEZONE
 70
 -8000
  9
$LIGHTGLYPHDISPLAY
280
     1
  9
$TILEMODELIGHTSYNCH
280
     1
  9
$CMATERIAL
347
1000000
  9
$SOLIDHIST
280
     1
  9
$SHOWHIST
280
     1
  9
$DWFFRAME
280
     2
  9
$DGNFRAME
280
     0
  9
$REALWORLDSCALE
290
     1
  9
$INTERFERECOLOR
 62
     1
  9
$CSHADOW
280
     0
  9
$SHADOWPLANELOCATION
 40
0.0
  0
ENDSEC
  0
SECTION
  2
CLASSES
  0
CLASS
  1
WIPEOUT
  2
AcDbWipeout
  3
WipeOut
 90
      127
 91
        0
280
     0
281
     1
  0
CLASS
  1
WIPEOUTVARIABLES
  2
AcDbWipeoutVariables
  3
WipeOut
 90
        0
 91
        0
280
     0
281
     0
  0
CLASS
  1
ACDBDICTIONARYWDFLT
  2
AcDbDictionaryWithDefault
  3
ObjectDBX Classes
 90
    32768
 91
        1
280
     0
281
     0
  0
CLASS
  1
MATERIAL
  2
AcDbMaterial
  3
ObjectDBX Classes
 90
        0
 91
        3
280
     0
281
     0
  0
CLASS
  1
VISUALSTYLE
  2
AcDbVisualStyle
  3
ObjectDBX Classes
 90
     4095
 91
       24
280
     0
281
     0
  0
CLASS
  1
TABLESTYLE
  2
AcDbTableStyle
  3
ObjectDBX Classes
 90
     2047
 91
        1
280
     0
281
     0
  0
CLASS
  1
MLEADERSTYLE
  2
AcDbMLeaderStyle
  3
ACDB_MLEADERSTYLE_CLASS
 90
     4095
 91
        1
280
     0
281
     0
  0
CLASS
  1
SCALE
  2
AcDbScale
  3
ObjectDBX Classes
 90
     1153
 91
       17
280
     0
281
     0
  0
CLASS
  1
SORTENTSTABLE
  2
AcDbSortentsTable
  3
ObjectDBX Classes
 90
        0
 91
        1
280
     0
281
     0
  0
CLASS
  1
DICTIONARYVAR
  2
AcDbDictionaryVar
  3
ObjectDBX Classes
 90
        0
 91
        4
280
     0
281
     0
  0
ENDSEC
  0
SECTION
  2
TABLES
  0
TABLE
  2
VPORT
  5
1
330
0
100
AcDbSymbolTable
 70
     1
  0
VPORT
  5
2
330
1
100
AcDbSymbolTableRecord
100
AcDbViewportTableRecord
  2
*ACTIVE
 70
     0
 10
0.0
 20
0.0
 11
1.0
 21
1.0
 12
7569291.862445786
 22
5716418.94055637
 13
0.0
 23
0.0
 14
1.0
 24
1.0
 15
0.0
 25
0.0
 16
0.0
 26
0.0
 36
1.0
 17
0.0
 27
0.0
 37
0.0
 40
429.5821574874836
 41
1.500709219858156
 42
50.0
 43
0.0
 44
0.0
 50
0.0
 51
0.0
 71
     0
 72
   100
 73
     1
 74
     1
 75
     0
 76
     0
 77
     0
 78
     0
281
     0
 65
     1
110
0.0
120
0.0
130
0.0
111
1.0
121
0.0
131
0.0
112
0.0
122
1.0
132
0.0
 79
     0
146
0.0
348
1000008
 60
     3
 61
     5
292
     1
282
     1
141
0.0
142
0.0
 63
   256
  0
ENDTAB
  0
TABLE
  2
LTYPE
  5
3
330
0
100
AcDbSymbolTable
 70
     9
  0
LTYPE
  5
4
330
3
100
AcDbSymbolTableRecord
100
AcDbLinetypeTableRecord
  2
ByBlock
 70
     0
  3

 72
    65
 73
     0
 40
0.0
  0
LTYPE
  5
5
330
3
100
AcDbSymbolTableRecord
100
AcDbLinetypeTableRecord
  2
ByLayer
 70
     0
  3

 72
    65
 73
     0
 40
0.0
  0
LTYPE
  5
6
330
3
100
AcDbSymbolTableRecord
100
AcDbLinetypeTableRecord
  2
CONTINUOUS
 70
     0
  3
Solid line
 72
    65
 73
     0
 40
0.0
  0
LTYPE
  5
8
330
3
100
AcDbSymbolTableRecord
100
AcDbLinetypeTableRecord
  2
L_0_02
 70
     0
  3
Dzialka_ewidencyjna (MLineStyle)
 72
    65
 73
     0
 40
0.0
  0
LTYPE
  5
9
330
3
100
AcDbSymbolTableRecord
100
AcDbLinetypeTableRecord
  2
L_0_03
 70
     0
  3
Uzytek_gruntowy
 72
    65
 73
     2
 40
2.0
 49
1.0
 74
     0
 49
-1.0
 74
     0
  0
LTYPE
  5
A
330
3
100
AcDbSymbolTableRecord
100
AcDbLinetypeTableRecord
  2
L_0_04
 70
     0
  3
Budynek_projektowany
 72
    65
 73
     2
 40
3.0
 49
2.0
 74
     0
 49
-1.0
 74
     0
  0
LTYPE
  5
B
330
3
100
AcDbSymbolTableRecord
100
AcDbLinetypeTableRecord
  2
L_0_06
 70
     0
  3
Granica_konturu_klasyfikacyjnego_Krawedz_chodnika
 72
    65
 73
     2
 40
4.0
 49
3.0
 74
     0
 49
-1.0
 74
     0
  0
LTYPE
  5
C
330
3
100
AcDbSymbolTableRecord
100
AcDbLinetypeTableRecord
  2
L_0_44
 70
     0
  3
Uzytek_gruntowy_1_1000__1_2000
 72
    65
 73
     2
 40
1.399999999999999
 49
0.7
 74
     0
 49
-0.7
 74
     0
  0
LTYPE
  5
D
330
3
100
AcDbSymbolTableRecord
100
AcDbLinetypeTableRecord
  2
L_0_51
 70
     0
  3
L_0_51
 72
    65
 73
     2
 40
2.799999999999999
 49
2.1
 74
     0
 49
-0.7
 74
     0
  0
LTYPE
  5
E
330
3
100
AcDbSymbolTableRecord
100
AcDbLinetypeTableRecord
  2
L_0_69_SHX
 70
     0
  3
L_0_69
 72
    65
 73
    12
 40
10.0
 49
0.0
 74
     0
 49
-0.5
 74
     0
 49
-1.0
 74
     0
 49
-1.0
 74
     0
 49
-1.0
 74
     0
 49
-1.0
 74
     0
 49
-1.0
 74
     4
 75
     1
340
F
 46
0.1
 50
0.0
 44
0.0
 45
0.0
 49
-1.0
 74
     0
 49
-1.0
 74
     0
 49
-1.0
 74
     0
 49
-1.0
 74
     0
 49
-0.5
 74
     0
  0
LTYPE
  5
11
330
3
100
AcDbSymbolTableRecord
100
AcDbLinetypeTableRecord
  2
L_0_69
 70
     0
  3
L_0_69 (MLineStyle)
 72
    65
 73
     0
 40
0.0
  0
ENDTAB
  0
TABLE
  2
LAYER
  5
12
330
0
100
AcDbSymbolTable
 70
     3
  0
LAYER
  5
13
330
12
100
AcDbSymbolTableRecord
100
AcDbLayerTableRecord
  2
0
 70
     0
 62
     7
  6
CONTINUOUS
370
    18
390
14
347
1000002
348
0
  0
LAYER
  5
15
330
12
100
AcDbSymbolTableRecord
100
AcDbLayerTableRecord
  2
Dzialki
 70
     0
 62
     7
  6
L_0_02
370
    18
390
14
347
1000002
348
0
  0
LAYER
  5
16
330
12
100
AcDbSymbolTableRecord
100
AcDbLayerTableRecord
  2
podzial
 70
     0
 62
     1
  6
CONTINUOUS
370
    18
390
14
347
1000002
348
0
  0
ENDTAB
  0
TABLE
  2
STYLE
  5
17
330
0
100
AcDbSymbolTable
 70
     3
  0
STYLE
  5
18
330
17
100
AcDbSymbolTableRecord
100
AcDbTextStyleTableRecord
  2
STANDARD
 70
     0
 40
0.0
 41
1.0
 50
0.0
 71
     0
 42
0.2
  3
simplex.shx
  4

  0
STYLE
  5
19
330
17
100
AcDbSymbolTableRecord
100
AcDbTextStyleTableRecord
  2
STANDARD_ITALIC
 70
     0
 40
0.0
 41
1.0
 50
15.0
 71
     0
 42
0.2
  3
simplex.shx
  4

  0
STYLE
  5
F
330
17
100
AcDbSymbolTableRecord
100
AcDbTextStyleTableRecord
  2

 70
     1
 40
0.0
 41
0.1
 50
0.0
 71
     0
 42
0.2
  3
sarny-dzialki.shx
  4

  0
ENDTAB
  0
TABLE
  2
VIEW
  5
1A
330
0
100
AcDbSymbolTable
 70
     0
  0
ENDTAB
  0
TABLE
  2
UCS
  5
1B
330
0
100
AcDbSymbolTable
 70
     0
  0
ENDTAB
  0
TABLE
  2
APPID
  5
1C
330
0
100
AcDbSymbolTable
 70
     1
  0
APPID
  5
1D
330
1C
100
AcDbSymbolTableRecord
100
AcDbRegAppTableRecord
  2
ACAD
 70
     0
  0
ENDTAB
  0
TABLE
  2
DIMSTYLE
  5
1E
330
0
100
AcDbSymbolTable
 70
     1
100
AcDbDimStyleTable
 71
     0
  0
DIMSTYLE
105
1F
330
1E
100
AcDbSymbolTableRecord
100
AcDbDimStyleTableRecord
  2
Standard
 70
     0
340
18
  0
ENDTAB
  0
TABLE
  2
BLOCK_RECORD
  5
20
330
0
100
AcDbSymbolTable
 70
     5
  0
BLOCK_RECORD
  5
21
102
{ACAD_XDICTIONARY
360
1000034
102
}
330
20
100
AcDbSymbolTableRecord
100
AcDbBlockTableRecord
  2
*MODEL_SPACE
340
22
 70
     0
280
     1
281
     0
  0
BLOCK_RECORD
  5
23
330
20
100
AcDbSymbolTableRecord
100
AcDbBlockTableRecord
  2
*PAPER_SPACE
340
24
 70
     0
280
     1
281
     0
  0
BLOCK_RECORD
  5
25
330
20
100
AcDbSymbolTableRecord
100
AcDbBlockTableRecord
  2
OSHF
340
0
 70
     0
280
     1
281
     0
  0
BLOCK_RECORD
  5
27
330
20
100
AcDbSymbolTableRecord
100
AcDbBlockTableRecord
  2
EGPG_S
340
0
 70
     0
280
     1
281
     0
  0
BLOCK_RECORD
  5
29
330
20
100
AcDbSymbolTableRecord
100
AcDbBlockTableRecord
  2
PLN
340
0
102
{BLKREFS
331
113
102
}
 70
     0
280
     1
281
     0
  0
BLOCK_RECORD
  5
2B
330
20
100
AcDbSymbolTableRecord
100
AcDbBlockTableRecord
  2
L_0_02_1
340
0
102
{BLKREFS
331
5F
331
62
331
65
331
68
331
6B
331
6E
331
71
331
74
331
77
331
7A
331
7D
331
80
331
83
331
86
331
89
331
8C
331
8F
331
92
331
95
331
98
331
9B
331
9E
331
A1
331
A4
331
A7
331
AA
331
AD
331
B0
331
B3
331
B6
331
B9
331
BC
331
BF
331
C2
331
C5
331
C8
331
CB
331
CE
331
D1
331
D4
331
D7
331
DA
331
DD
331
E0
331
E3
331
E6
331
E9
331
EC
331
EF
331
F2
331
F5
331
F8
331
FB
331
FE
331
101
331
104
331
107
331
10A
331
10C
102
}
 70
     0
280
     1
281
     0
  0
BLOCK_RECORD
  5
2D
330
20
100
AcDbSymbolTableRecord
100
AcDbBlockTableRecord
  2
L_0_02_2
340
0
102
{BLKREFS
331
60
331
63
331
66
331
69
331
6C
331
6F
331
72
331
75
331
78
331
7B
331
7E
331
81
331
84
331
87
331
8A
331
8D
331
90
331
93
331
96
331
99
331
9C
331
9F
331
A2
331
A5
331
A8
331
AB
331
AE
331
B1
331
B4
331
B7
331
BA
331
BD
331
C0
331
C3
331
C6
331
C9
331
CC
331
CF
331
D2
331
D5
331
D8
331
DB
331
DE
331
E1
331
E4
331
E7
331
EA
331
ED
331
F0
331
F3
331
F6
331
F9
331
FC
331
FF
331
102
331
105
331
108
331
10B
331
10D
102
}
 70
     0
280
     1
281
     0
  0
ENDTAB
  0
ENDSEC
  0
SECTION
  2
BLOCKS
  0
BLOCK
  5
2F
330
21
100
AcDbEntity
  8
0
100
AcDbBlockBegin
  2
*MODEL_SPACE
 70
     0
 10
0.0
 20
0.0
 30
0.0
  3
*MODEL_SPACE
  1

  0
ENDBLK
  5
30
330
21
100
AcDbEntity
  8
0
100
AcDbBlockEnd
  0
BLOCK
  5
31
330
23
100
AcDbEntity
 67
     1
  8
0
100
AcDbBlockBegin
  2
*PAPER_SPACE
 70
     0
 10
0.0
 20
0.0
 30
0.0
  3
*PAPER_SPACE
  1

  0
ENDBLK
  5
32
330
23
100
AcDbEntity
 67
     1
  8
0
100
AcDbBlockEnd
  0
BLOCK
  5
26
330
25
100
AcDbEntity
  8
0
 62
     0
370
    13
100
AcDbBlockBegin
  2
OSHF
 70
     0
 10
0.0
 20
0.0
 30
0.0
  3
OSHF
  1

  0
CIRCLE
  5
33
330
25
100
AcDbEntity
  8
0
  6
Continuous
 62
     0
370
    18
100
AcDbCircle
 10
0.0
 20
0.1
 30
0.0
 40
1.486606874731999
  0
HATCH
  5
34
330
25
100
AcDbEntity
  8
0
  6
Continuous
 62
     0
370
    18
100
AcDbHatch
 10
0.0
 20
0.0
 30
0.0
210
0.0
220
0.0
230
1.0
  2
SOLID
 70
     1
 71
     1
 91
        1
 92
        3
 72
     0
 73
     1
 93
        3
 10
0.0
 20
-1.3
 10
-1.199999999999999
 20
0.7
 10
1.3
 20
0.7
 97
        0
 75
     0
 76
     1
 98
        1
 10
0.0
 20
0.0
  0
POLYLINE
  5
35
330
25
100
AcDbEntity
  8
0
  6
Continuous
 62
     0
370
    18
100
AcDb2dPolyline
 66
     1
 10
0.0
 20
0.0
 30
0.0
 70
   129
  0
VERTEX
  5
36
330
35
100
AcDbEntity
  8
0
100
AcDbVertex
100
AcDb2dVertex
 10
0.0
 20
-1.3
 30
0.0
  0
VERTEX
  5
37
330
35
100
AcDbEntity
  8
0
100
AcDbVertex
100
AcDb2dVertex
 10
-1.199999999999999
 20
0.7
 30
0.0
  0
VERTEX
  5
38
330
35
100
AcDbEntity
  8
0
100
AcDbVertex
100
AcDb2dVertex
 10
1.3
 20
0.7
 30
0.0
  0
VERTEX
  5
39
330
35
100
AcDbEntity
  8
0
100
AcDbVertex
100
AcDb2dVertex
 10
0.0
 20
-1.3
 30
0.0
  0
SEQEND
  5
3A
330
0
100
AcDbEntity
  8
0
  0
ENDBLK
  5
3B
330
25
100
AcDbEntity
  8
0
100
AcDbBlockEnd
  0
BLOCK
  5
28
330
27
100
AcDbEntity
  8
0
 62
     0
370
    13
100
AcDbBlockBegin
  2
EGPG_S
 70
     0
 10
0.0
 20
0.0
 30
0.0
  3
EGPG_S
  1

  0
CIRCLE
  5
3C
330
27
100
AcDbEntity
  8
0
  6
Continuous
 62
     0
370
    13
100
AcDbCircle
 10
0.0
 20
0.0
 30
0.0
 40
0.4
  0
ENDBLK
  5
3D
330
27
100
AcDbEntity
  8
0
100
AcDbBlockEnd
  0
BLOCK
  5
2A
330
29
100
AcDbEntity
  8
0
 62
     0
370
    13
100
AcDbBlockBegin
  2
PLN
 70
     0
 10
0.0
 20
0.0
 30
0.0
  3
PLN
  1

  0
POLYLINE
  5
3E
330
29
100
AcDbEntity
  8
0
  6
Continuous
 62
     0
370
    25
100
AcDb2dPolyline
 66
     1
 10
0.0
 20
0.0
 30
0.0
 70
   128
  0
VERTEX
  5
3F
330
3E
100
AcDbEntity
  8
0
100
AcDbVertex
100
AcDb2dVertex
 10
0.0
 20
27.0
 30
0.0
  0
VERTEX
  5
40
330
3E
100
AcDbEntity
  8
0
100
AcDbVertex
100
AcDb2dVertex
 10
0.0
 20
47.0
 30
0.0
  0
VERTEX
  5
41
330
3E
100
AcDbEntity
  8
0
100
AcDbVertex
100
AcDb2dVertex
 10
-1.0
 20
34.0
 30
0.0
  0
SEQEND
  5
42
330
0
100
AcDbEntity
  8
0
  0
POLYLINE
  5
43
330
29
100
AcDbEntity
  8
0
  6
Continuous
 62
     0
370
    25
100
AcDb2dPolyline
 66
     1
 10
0.0
 20
0.0
 30
0.0
 70
   128
  0
VERTEX
  5
44
330
43
100
AcDbEntity
  8
0
100
AcDbVertex
100
AcDb2dVertex
 10
-1.0
 20
34.0
 30
0.0
  0
VERTEX
  5
45
330
43
100
AcDbEntity
  8
0
100
AcDbVertex
100
AcDb2dVertex
 10
-2.0
 20
21.0
 30
0.0
  0
SEQEND
  5
46
330
0
100
AcDbEntity
  8
0
  0
POLYLINE
  5
47
330
29
100
AcDbEntity
  8
0
  6
Continuous
 62
     0
370
    25
100
AcDb2dPolyline
 66
     1
 10
0.0
 20
0.0
 30
0.0
 70
   128
  0
VERTEX
  5
48
330
47
100
AcDbEntity
  8
0
100
AcDbVertex
100
AcDb2dVertex
 10
-2.0
 20
21.0
 30
0.0
  0
VERTEX
  5
49
330
47
100
AcDbEntity
  8
0
100
AcDbVertex
100
AcDb2dVertex
 10
-3.0
 20
8.0
 30
0.0
  0
VERTEX
  5
4A
330
47
100
AcDbEntity
  8
0
100
AcDbVertex
100
AcDb2dVertex
 10
3.0
 20
8.0
 30
0.0
  0
SEQEND
  5
4B
330
0
100
AcDbEntity
  8
0
  0
POLYLINE
  5
4C
330
29
100
AcDbEntity
  8
0
  6
Continuous
 62
     0
370
    25
100
AcDb2dPolyline
 66
     1
 10
0.0
 20
0.0
 30
0.0
 70
   128
  0
VERTEX
  5
4D
330
4C
100
AcDbEntity
  8
0
100
AcDbVertex
100
AcDb2dVertex
 10
0.0
 20
27.0
 30
0.0
  0
VERTEX
  5
4E
330
4C
100
AcDbEntity
  8
0
100
AcDbVertex
100
AcDb2dVertex
 10
0.0
 20
8.0
 30
0.0
  0
SEQEND
  5
4F
330
0
100
AcDbEntity
  8
0
  0
POLYLINE
  5
50
330
29
100
AcDbEntity
  8
0
  6
Continuous
 62
     0
370
    25
100
AcDb2dPolyline
 66
     1
 10
0.0
 20
0.0
 30
0.0
 70
   128
  0
VERTEX
  5
51
330
50
100
AcDbEntity
  8
0
100
AcDbVertex
100
AcDb2dVertex
 10
0.0
 20
8.0
 30
0.0
  0
VERTEX
  5
52
330
50
100
AcDbEntity
  8
0
100
AcDbVertex
100
AcDb2dVertex
 10
0.0
 20
0.0
 30
0.0
  0
SEQEND
  5
53
330
0
100
AcDbEntity
  8
0
  0
POLYLINE
  5
54
330
29
100
AcDbEntity
  8
0
  6
Continuous
 62
     0
370
    25
100
AcDb2dPolyline
 66
     1
 10
0.0
 20
0.0
 30
0.0
 70
   128
  0
VERTEX
  5
55
330
54
100
AcDbEntity
  8
0
100
AcDbVertex
100
AcDb2dVertex
 10
-2.0
 20
0.0
 30
0.0
  0
VERTEX
  5
56
330
54
100
AcDbEntity
  8
0
100
AcDbVertex
100
AcDb2dVertex
 10
-2.0
 20
5.0
 30
0.0
  0
VERTEX
  5
57
330
54
100
AcDbEntity
  8
0
100
AcDbVertex
100
AcDb2dVertex
 10
2.0
 20
0.0
 30
0.0
  0
VERTEX
  5
58
330
54
100
AcDbEntity
  8
0
100
AcDbVertex
100
AcDb2dVertex
 10
2.0
 20
5.0
 30
0.0
  0
SEQEND
  5
59
330
0
100
AcDbEntity
  8
0
  0
ENDBLK
  5
5A
330
29
100
AcDbEntity
  8
0
100
AcDbBlockEnd
  0
BLOCK
  5
2C
330
2B
100
AcDbEntity
  8
0
 62
     0
370
    13
100
AcDbBlockBegin
  2
L_0_02_1
 70
     0
 10
0.0
 20
0.0
 30
0.0
  3
L_0_02_1
  1

  0
POINT
  5
5B
330
2B
100
AcDbEntity
  8
0
 62
     0
100
AcDbPoint
 10
0.0
 20
0.0
 30
0.0
  0
ENDBLK
  5
5C
330
2B
100
AcDbEntity
  8
0
100
AcDbBlockEnd
  0
BLOCK
  5
2E
330
2D
100
AcDbEntity
  8
0
 62
     0
370
    13
100
AcDbBlockBegin
  2
L_0_02_2
 70
     0
 10
0.0
 20
0.0
 30
0.0
  3
L_0_02_2
  1

  0
POINT
  5
5D
330
2D
100
AcDbEntity
  8
0
 62
     0
100
AcDbPoint
 10
0.0
 20
0.0
 30
0.0
  0
ENDBLK
  5
5E
330
2D
100
AcDbEntity
  8
0
100
AcDbBlockEnd
  0
ENDSEC
  0
SECTION
  2
ENTITIES
  0
MLINE
  5
B5
330
21
100
AcDbEntity
  8
Dzialki
  6
L_0_02
370
    18
100
AcDbMline
  2
L_0_02
340
7
 40
1.0
 70
     1
 71
     1
 72
     2
 73
     1
 10
7569187.11
 20
5716589.16
 30
0.0
210
0.0
220
0.0
230
1.0
 11
7569187.11
 21
5716589.16
 31
0.0
 12
-0.9920834727469999
 22
0.12558018595
 32
0.0
 13
-0.12558018595
 23
-0.9920834727469999
 33
0.0
 74
     0
 75
     0
 11
7569186.32
 21
5716589.259999999
 31
0.0
 12
-0.9920834727469999
 22
0.12558018595
 32
0.0
 13
-0.12558018595
 23
-0.9920834727469999
 33
0.0
 74
     0
 75
     0
  0
POINT
  5
1000037
330
21
100
AcDbEntity
  8
0
 62
     0
100
AcDbPoint
 10
7569272.75
 20
5716295.7
 30
0.0
 50
-301.53
  0
POINT
  5
1000039
330
21
100
AcDbEntity
  8
0
 62
     0
100
AcDbPoint
 10
7569272.75
 20
5716295.7
 30
0.0
 50
-207.61
  0
POINT
  5
100003A
330
21
100
AcDbEntity
  8
0
 62
     0
100
AcDbPoint
 10
7569254.990000001
 20
5716286.41
 30
0.0
 50
-27.61
  0
LINE
  5
100003B
330
21
100
AcDbEntity
  8
Dzialki
  6
Continuous
370
    18
100
AcDbLine
 10
7569272.306952471
 20
5716295.468248224
 30
0.0
 11
7569255.433047531
 21
5716286.641751776
 31
0.0
  0
POINT
  5
100003C
330
21
100
AcDbEntity
  8
0
 62
     0
100
AcDbPoint
 10
7569254.990000001
 20
5716286.41
 30
0.0
 50
-224.8499999999999
  0
POINT
  5
100003D
330
21
100
AcDbEntity
  8
0
 62
     0
100
AcDbPoint
 10
7569239.719999999
 20
5716271.22
 30
0.0
 50
-44.85
  0
LINE
  5
100003E
330
21
100
AcDbEntity
  8
Dzialki
  6
Continuous
370
    18
100
AcDbLine
 10
7569254.635519262
 20
5716286.057376398
 30
0.0
 11
7569240.074480738
 21
5716271.572623603
 31
0.0
  0
POINT
  5
100003F
330
21
100
AcDbEntity
  8
0
 62
     0
100
AcDbPoint
 10
7569316.78
 20
5716546.45
 30
0.0
 50
-117.9
  0
POINT
  5
1000040
330
21
100
AcDbEntity
  8
0
 62
     0
100
AcDbPoint
 10
7569279.83
 20
5716616.23
 30
0.0
 50
-297.9
  0
LINE
  5
1000041
330
21
100
AcDbEntity
  8
Dzialki
  6
Continuous
370
    18
100
AcDbLine
 10
7569316.546018317
 20
5716546.891873933
 30
0.0
 11
7569280.063981683
 21
5716615.788126069
 31
0.0
  0
POINT
  5
1000042
330
21
100
AcDbEntity
  8
0
 62
     0
100
AcDbPoint
 10
7569253.28
 20
5716592.519999998
 30
0.0
 50
-197.1299999999999
  0
POINT
  5
1000043
330
21
100
AcDbEntity
  8
0
 62
     0
100
AcDbPoint
 10
7569230.540000001
 20
5716585.509999999
 30
0.0
 50
-17.12999999999999
  0
LINE
  5
1000044
330
21
100
AcDbEntity
  8
Dzialki
  6
Continuous
370
    18
100
AcDbLine
 10
7569252.802187795
 20
5716592.372706086
 30
0.0
 11
7569231.017812206
 21
5716585.657293912
 31
0.0
  0
POINT
  5
1000045
330
21
100
AcDbEntity
  8
0
 62
     0
100
AcDbPoint
 10
7569230.540000001
 20
5716585.509999999
 30
0.0
 50
-297.13
  0
POINT
  5
1000046
330
21
100
AcDbEntity
  8
0
 62
     0
100
AcDbPoint
 10
7569260.21
 20
5716527.599999999
 30
0.0
 50
-117.13
  0
LINE
  5
1000047
330
21
100
AcDbEntity
  8
Dzialki
  6
Continuous
370
    18
100
AcDbLine
 10
7569230.767991382
 20
5716585.065005697
 30
0.0
 11
7569259.982008617
 21
5716528.044994301
 31
0.0
  0
POINT
  5
1000048
330
21
100
AcDbEntity
  8
0
 62
     0
100
AcDbPoint
 10
7569260.21
 20
5716527.599999999
 30
0.0
 50
-18.43
  0
POINT
  5
1000049
330
21
100
AcDbEntity
  8
0
 62
     0
100
AcDbPoint
 10
7569316.78
 20
5716546.45
 30
0.0
 50
-198.4299999999999
  0
LINE
  5
100004A
330
21
100
AcDbEntity
  8
Dzialki
  6
Continuous
370
    18
100
AcDbLine
 10
7569260.684358417
 20
5716527.75806357
 30
0.0
 11
7569316.305641583
 21
5716546.29193643
 31
0.0
  0
POINT
  5
100004B
330
21
100
AcDbEntity
  8
0
 62
     0
100
AcDbPoint
 10
7569183.179999998
 20
5716594.859999999
 30
0.0
 50
-118.03
  0
POINT
  5
100004C
330
21
100
AcDbEntity
  8
0
 62
     0
100
AcDbPoint
 10
7569144.88
 20
5716666.8
 30
0.0
 50
-298.03
  0
LINE
  5
100004D
330
21
100
AcDbEntity
  8
Dzialki
  6
Continuous
370
    18
100
AcDbLine
 10
7569182.945030737
 20
5716595.301349574
 30
0.0
 11
7569145.11496926
 21
5716666.358650426
 31
0.0
  0
POINT
  5
100004E
330
21
100
AcDbEntity
  8
0
 62
     0
100
AcDbPoint
 10
7569160.860000001
 20
5716575.74
 30
0.0
 50
-27.97
  0
POINT
  5
100004F
330
21
100
AcDbEntity
  8
0
 62
     0
100
AcDbPoint
 10
7569186.32
 20
5716589.259999999
 30
0.0
 50
-207.97
  0
LINE
  5
1000050
330
21
100
AcDbEntity
  8
Dzialki
  6
Continuous
370
    18
100
AcDbLine
 10
7569161.301598276
 20
5716575.97450152
 30
0.0
 11
7569185.878401724
 21
5716589.025498481
 31
0.0
  0
POINT
  5
1000051
330
21
100
AcDbEntity
  8
0
 62
     0
100
AcDbPoint
 10
7569186.32
 20
5716589.259999999
 30
0.0
 50
-119.28
  0
POINT
  5
1000052
330
21
100
AcDbEntity
  8
0
 62
     0
100
AcDbPoint
 10
7569183.179999998
 20
5716594.859999999
 30
0.0
 50
-299.28
  0
LINE
  5
1000053
330
21
100
AcDbEntity
  8
Dzialki
  6
Continuous
370
    18
100
AcDbLine
 10
7569186.075461206
 20
5716589.696120141
 30
0.0
 11
7569183.424538794
 21
5716594.423879858
 31
0.0
  0
POINT
  5
1000054
330
21
100
AcDbEntity
  8
0
 62
     0
100
AcDbPoint
 10
7569497.900000001
 20
5716564.51
 30
0.0
 50
-198.92
  0
POINT
  5
1000055
330
21
100
AcDbEntity
  8
0
 62
     0
100
AcDbPoint
 10
7569336.61
 20
5716509.22
 30
0.0
 50
-18.92
  0
LINE
  5
1000056
330
21
100
AcDbEntity
  8
Dzialki
  6
Continuous
370
    18
100
AcDbLine
 10
7569497.427018545
 20
5716564.347862579
 30
0.0
 11
7569337.082981455
 21
5716509.38213742
 31
0.0
  0
POINT
  5
1000057
330
21
100
AcDbEntity
  8
0
 62
     0
100
AcDbPoint
 10
7569336.61
 20
5716509.22
 30
0.0
 50
-297.76
  0
POINT
  5
1000058
330
21
100
AcDbEntity
  8
0
 62
     0
100
AcDbPoint
 10
7569357.549999999
 20
5716469.44
 30
0.0
 50
-117.76
  0
LINE
  5
1000059
330
21
100
AcDbEntity
  8
Dzialki
  6
Continuous
370
    18
100
AcDbLine
 10
7569336.84290072
 20
5716508.777555365
 30
0.0
 11
7569357.317099281
 21
5716469.882444634
 31
0.0
  0
POINT
  5
100005A
330
21
100
AcDbEntity
  8
0
 62
     0
100
AcDbPoint
 10
7569357.549999999
 20
5716469.44
 30
0.0
 50
-18.89
  0
POINT
  5
100005B
330
21
100
AcDbEntity
  8
0
 62
     0
100
AcDbPoint
 10
7569497.32
 20
5716517.269999999
 30
0.0
 50
-198.8899999999999
  0
LINE
  5
100005C
330
21
100
AcDbEntity
  8
Dzialki
  6
Continuous
370
    18
100
AcDbLine
 10
7569358.023067533
 20
5716469.6018861
 30
0.0
 11
7569496.846932467
 21
5716517.108113898
 31
0.0
  0
POINT
  5
100005D
330
21
100
AcDbEntity
  8
0
 62
     0
100
AcDbPoint
 10
7569366.389999999
 20
5716452.750000001
 30
0.0
 50
-18.85
  0
POINT
  5
100005E
330
21
100
AcDbEntity
  8
0
 62
     0
100
AcDbPoint
 10
7569496.53
 20
5716497.18
 30
0.0
 50
-198.85
  0
LINE
  5
100005F
330
21
100
AcDbEntity
  8
Dzialki
  6
Continuous
370
    18
100
AcDbLine
 10
7569366.863183875
 20
5716452.911545717
 30
0.0
 11
7569496.056816123
 21
5716497.018454282
 31
0.0
  0
POINT
  5
1000060
330
21
100
AcDbEntity
  8
0
 62
     0
100
AcDbPoint
 10
7569357.549999999
 20
5716469.44
 30
0.0
 50
-297.91
  0
POINT
  5
1000061
330
21
100
AcDbEntity
  8
0
 62
     0
100
AcDbPoint
 10
7569366.389999999
 20
5716452.750000001
 30
0.0
 50
-117.91
  0
LINE
  5
1000062
330
21
100
AcDbEntity
  8
Dzialki
  6
Continuous
370
    18
100
AcDbLine
 10
7569357.784029001
 20
5716468.998151127
 30
0.0
 11
7569366.155970998
 21
5716453.191848874
 31
0.0
  0
POINT
  5
1000063
330
21
100
AcDbEntity
  8
0
 62
     0
100
AcDbPoint
 10
7569498.7
 20
5716579.809999999
 30
0.0
 50
-198.92
  0
POINT
  5
1000064
330
21
100
AcDbEntity
  8
0
 62
     0
100
AcDbPoint
 10
7569329.78
 20
5716521.9
 30
0.0
 50
-18.92
  0
LINE
  5
1000065
330
21
100
AcDbEntity
  8
Dzialki
  6
Continuous
370
    18
100
AcDbLine
 10
7569498.227022363
 20
5716579.647851438
 30
0.0
 11
7569330.252977636
 21
5716522.06214856
 31
0.0
  0
POINT
  5
1000066
330
21
100
AcDbEntity
  8
0
 62
     0
100
AcDbPoint
 10
7569329.78
 20
5716521.9
 30
0.0
 50
-298.31
  0
POINT
  5
1000067
330
21
100
AcDbEntity
  8
0
 62
     0
100
AcDbPoint
 10
7569336.61
 20
5716509.22
 30
0.0
 50
-118.31
  0
LINE
  5
1000068
330
21
100
AcDbEntity
  8
Dzialki
  6
Continuous
370
    18
100
AcDbLine
 10
7569330.017112016
 20
5716521.459797897
 30
0.0
 11
7569336.372887984
 21
5716509.660202103
 31
0.0
  0
POINT
  5
1000069
330
21
100
AcDbEntity
  8
0
 62
     0
100
AcDbPoint
 10
7569238.139999998
 20
5716273.769999999
 30
0.0
 50
-44.70000000000001
  0
POINT
  5
100006A
330
21
100
AcDbEntity
  8
0
 62
     0
100
AcDbPoint
 10
7569253.599999999
 20
5716289.07
 30
0.0
 50
-224.6999999999999
  0
LINE
  5
100006B
330
21
100
AcDbEntity
  8
Dzialki
  6
Continuous
370
    18
100
AcDbLine
 10
7569238.495387611
 20
5716274.121709602
 30
0.0
 11
7569253.244612387
 21
5716288.718290396
 31
0.0
  0
POINT
  5
100006C
330
21
100
AcDbEntity
  8
0
 62
     0
100
AcDbPoint
 10
7569253.599999999
 20
5716289.07
 30
0.0
 50
-207.63
  0
POINT
  5
100006D
330
21
100
AcDbEntity
  8
0
 62
     0
100
AcDbPoint
 10
7569231.42
 20
5716277.459999999
 30
0.0
 50
-27.63
  0
LINE
  5
100006E
330
21
100
AcDbEntity
  8
Dzialki
  6
Continuous
370
    18
100
AcDbLine
 10
7569253.157017794
 20
5716288.838123382
 30
0.0
 11
7569231.862982205
 21
5716277.691876618
 31
0.0
  0
POINT
  5
100006F
330
21
100
AcDbEntity
  8
0
 62
     0
100
AcDbPoint
 10
7569231.42
 20
5716277.459999999
 30
0.0
 50
-331.23
  0
POINT
  5
1000070
330
21
100
AcDbEntity
  8
0
 62
     0
100
AcDbPoint
 10
7569238.139999998
 20
5716273.769999999
 30
0.0
 50
-151.23
  0
LINE
  5
1000071
330
21
100
AcDbEntity
  8
Dzialki
  6
Continuous
370
    18
100
AcDbLine
 10
7569231.85827309
 20
5716277.219341115
 30
0.0
 11
7569237.701726909
 21
5716274.010658882
 31
0.0
  0
POINT
  5
1000072
330
21
100
AcDbEntity
  8
0
 62
     0
100
AcDbPoint
 10
7569231.42
 20
5716277.459999999
 30
0.0
 50
-207.64
  0
POINT
  5
1000073
330
21
100
AcDbEntity
  8
0
 62
     0
100
AcDbPoint
 10
7569186.04
 20
5716253.700000001
 30
0.0
 50
-27.64
  0
LINE
  5
1000074
330
21
100
AcDbEntity
  8
Dzialki
  6
Continuous
370
    18
100
AcDbLine
 10
7569230.977042208
 20
5716277.228076749
 30
0.0
 11
7569186.482957792
 21
5716253.931923252
 31
0.0
  0
POINT
  5
1000075
330
21
100
AcDbEntity
  8
0
 62
     0
100
AcDbPoint
 10
7569186.04
 20
5716253.700000001
 30
0.0
 50
-305.91
  0
POINT
  5
1000076
330
21
100
AcDbEntity
  8
0
 62
     0
100
AcDbPoint
 10
7569207.389999998
 20
5716224.219999999
 30
0.0
 50
-125.91
  0
LINE
  5
1000077
330
21
100
AcDbEntity
  8
Dzialki
  6
Continuous
370
    18
100
AcDbLine
 10
7569186.333276658
 20
5716253.295044691
 30
0.0
 11
7569207.096723342
 21
5716224.624955308
 31
0.0
  0
POINT
  5
1000078
330
21
100
AcDbEntity
  8
0
 62
     0
100
AcDbPoint
 10
7569125.9
 20
5716336.89
 30
0.0
 50
-305.85
  0
POINT
  5
1000079
330
21
100
AcDbEntity
  8
0
 62
     0
100
AcDbPoint
 10
7569153.44
 20
5716298.769999998
 30
0.0
 50
-125.8499999999999
  0
LINE
  5
100007A
330
21
100
AcDbEntity
  8
Dzialki
  6
Continuous
370
    18
100
AcDbLine
 10
7569126.192807384
 20
5716336.484705248
 30
0.0
 11
7569153.147192617
 21
5716299.17529475
 31
0.0
  0
POINT
  5
100007B
330
21
100
AcDbEntity
  8
0
 62
     0
100
AcDbPoint
 10
7569153.44
 20
5716298.769999998
 30
0.0
 50
-21.11
  0
POINT
  5
100007C
330
21
100
AcDbEntity
  8
0
 62
     0
100
AcDbPoint
 10
7569233.719999999
 20
5716329.759999999
 30
0.0
 50
-201.11
  0
LINE
  5
100007D
330
21
100
AcDbEntity
  8
Dzialki
  6
Continuous
370
    18
100
AcDbLine
 10
7569153.90645232
 20
5716298.95006175
 30
0.0
 11
7569233.25354768
 21
5716329.579938249
 31
0.0
  0
POINT
  5
100007E
330
21
100
AcDbEntity
  8
0
 62
     0
100
AcDbPoint
 10
7569233.719999999
 20
5716329.759999999
 30
0.0
 50
-118.47
  0
POINT
  5
100007F
330
21
100
AcDbEntity
  8
0
 62
     0
100
AcDbPoint
 10
7569179.710000001
 20
5716429.349999999
 30
0.0
 50
-298.47
  0
LINE
  5
1000080
330
21
100
AcDbEntity
  8
Dzialki
  6
Continuous
370
    18
100
AcDbLine
 10
7569233.481635241
 20
5716330.199525018
 30
0.0
 11
7569179.948364757
 21
5716428.910474981
 31
0.0
  0
POINT
  5
1000081
330
21
100
AcDbEntity
  8
0
 62
     0
100
AcDbPoint
 10
7569395.61
 20
5716573.519999999
 30
0.0
 50
-198.9499999999999
  0
POINT
  5
1000082
330
21
100
AcDbEntity
  8
0
 62
     0
100
AcDbPoint
 10
7569316.78
 20
5716546.45
 30
0.0
 50
-18.95
  0
LINE
  5
1000083
330
21
100
AcDbEntity
  8
Dzialki
  6
Continuous
370
    18
100
AcDbLine
 10
7569395.137105431
 20
5716573.357609335
 30
0.0
 11
7569317.252894568
 21
5716546.612390664
 31
0.0
  0
POINT
  5
1000084
330
21
100
AcDbEntity
  8
0
 62
     0
100
AcDbPoint
 10
7569316.78
 20
5716546.45
 30
0.0
 50
-297.9
  0
POINT
  5
1000085
330
21
100
AcDbEntity
  8
0
 62
     0
100
AcDbPoint
 10
7569329.78
 20
5716521.9
 30
0.0
 50
-117.9
  0
LINE
  5
1000086
330
21
100
AcDbEntity
  8
Dzialki
  6
Continuous
370
    18
100
AcDbLine
 10
7569317.013985209
 20
5716546.008127934
 30
0.0
 11
7569329.546014793
 21
5716522.341872066
 31
0.0
  0
POINT
  5
1000087
330
21
100
AcDbEntity
  8
0
 62
     0
100
AcDbPoint
 10
7569301.34
 20
5716376.84
 30
0.0
 50
-118.28
  0
POINT
  5
1000088
330
21
100
AcDbEntity
  8
0
 62
     0
100
AcDbPoint
 10
7569187.11
 20
5716589.16
 30
0.0
 50
-298.28
  0
LINE
  5
1000089
330
21
100
AcDbEntity
  8
Dzialki
  6
Continuous
370
    18
100
AcDbLine
 10
7569301.10310469
 20
5716377.280318762
 30
0.0
 11
7569187.34689531
 21
5716588.719681237
 31
0.0
  0
POINT
  5
100008A
330
21
100
AcDbEntity
  8
0
 62
     0
100
AcDbPoint
 10
7569187.11
 20
5716589.16
 30
0.0
 50
-172.79
  0
POINT
  5
100008B
330
21
100
AcDbEntity
  8
0
 62
     0
100
AcDbPoint
 10
7569186.32
 20
5716589.259999999
 30
0.0
 50
-352.79
  0
POINT
  5
100008C
330
21
100
AcDbEntity
  8
0
 62
     0
100
AcDbPoint
 10
7569233.719999999
 20
5716329.759999999
 30
0.0
 50
-34.85
  0
POINT
  5
100008D
330
21
100
AcDbEntity
  8
0
 62
     0
100
AcDbPoint
 10
7569301.34
 20
5716376.84
 30
0.0
 50
-214.85
  0
LINE
  5
100008E
330
21
100
AcDbEntity
  8
Dzialki
  6
Continuous
370
    18
100
AcDbLine
 10
7569234.130338777
 20
5716330.045695794
 30
0.0
 11
7569300.929661221
 21
5716376.554304205
 31
0.0
  0
POINT
  5
1000090
330
21
100
AcDbEntity
  8
0
 62
     0
100
AcDbPoint
 10
7569413.24
 20
5716364.099999999
 30
0.0
 50
-299.11
  0
POINT
  5
1000092
330
21
100
AcDbEntity
  8
0
 62
     0
100
AcDbPoint
 10
7569413.24
 20
5716364.099999999
 30
0.0
 50
-207.42
  0
POINT
  5
1000093
330
21
100
AcDbEntity
  8
0
 62
     0
100
AcDbPoint
 10
7569391.709999999
 20
5716352.93
 30
0.0
 50
-27.42
  0
LINE
  5
1000094
330
21
100
AcDbEntity
  8
Dzialki
  6
Continuous
370
    18
100
AcDbLine
 10
7569412.796175786
 20
5716363.869739132
 30
0.0
 11
7569392.153824215
 21
5716353.160260868
 31
0.0
  0
POINT
  5
1000095
330
21
100
AcDbEntity
  8
0
 62
     0
100
AcDbPoint
 10
7569391.709999999
 20
5716352.93
 30
0.0
 50
-299.7
  0
POINT
  5
1000098
330
21
100
AcDbEntity
  8
0
 62
     0
100
AcDbPoint
 10
7569391.709999999
 20
5716352.93
 30
0.0
 50
-207.43
  0
POINT
  5
1000099
330
21
100
AcDbEntity
  8
0
 62
     0
100
AcDbPoint
 10
7569362.110000001
 20
5716337.57
 30
0.0
 50
-27.43
  0
LINE
  5
100009A
330
21
100
AcDbEntity
  8
Dzialki
  6
Continuous
370
    18
100
AcDbLine
 10
7569391.266195373
 20
5716352.699701383
 30
0.0
 11
7569362.553804628
 21
5716337.800298617
 31
0.0
  0
POINT
  5
100009B
330
21
100
AcDbEntity
  8
0
 62
     0
100
AcDbPoint
 10
7569362.110000001
 20
5716337.57
 30
0.0
 50
-300.45
  0
POINT
  5
100009C
330
21
100
AcDbEntity
  8
0
 62
     0
100
AcDbPoint
 10
7569514.619999999
 20
5716078.160000001
 30
0.0
 50
-120.45
  0
POINT
  5
100009E
330
21
100
AcDbEntity
  8
0
 62
     0
100
AcDbPoint
 10
7569362.110000001
 20
5716337.57
 30
0.0
 50
-207.43
  0
POINT
  5
100009F
330
21
100
AcDbEntity
  8
0
 62
     0
100
AcDbPoint
 10
7569330.7
 20
5716321.269999999
 30
0.0
 50
-27.43
  0
LINE
  5
10000A0
330
21
100
AcDbEntity
  8
Dzialki
  6
Continuous
370
    18
100
AcDbLine
 10
7569361.666199745
 20
5716337.339692959
 30
0.0
 11
7569331.143800256
 21
5716321.50030704
 31
0.0
  0
POINT
  5
10000A1
330
21
100
AcDbEntity
  8
0
 62
     0
100
AcDbPoint
 10
7569330.7
 20
5716321.269999999
 30
0.0
 50
-301.95
  0
POINT
  5
10000A2
330
21
100
AcDbEntity
  8
0
 62
     0
100
AcDbPoint
 10
7569482.74
 20
5716077.480000001
 30
0.0
 50
-121.95
  0
POINT
  5
10000A4
330
21
100
AcDbEntity
  8
0
 62
     0
100
AcDbPoint
 10
7569330.7
 20
5716321.269999999
 30
0.0
 50
-207.41
  0
POINT
  5
10000A5
330
21
100
AcDbEntity
  8
0
 62
     0
100
AcDbPoint
 10
7569311.629999999
 20
5716311.379999999
 30
0.0
 50
-27.41
  0
LINE
  5
10000A6
330
21
100
AcDbEntity
  8
Dzialki
  6
Continuous
370
    18
100
AcDbLine
 10
7569330.256140349
 20
5716321.039807448
 30
0.0
 11
7569312.07385965
 21
5716311.61019255
 31
0.0
  0
POINT
  5
10000A7
330
21
100
AcDbEntity
  8
0
 62
     0
100
AcDbPoint
 10
7569311.629999999
 20
5716311.379999999
 30
0.0
 50
-301.83
  0
POINT
  5
10000A8
330
21
100
AcDbEntity
  8
0
 62
     0
100
AcDbPoint
 10
7569457.17
 20
5716076.93
 30
0.0
 50
-121.83
  0
POINT
  5
10000AA
330
21
100
AcDbEntity
  8
0
 62
     0
100
AcDbPoint
 10
7569413.24
 20
5716364.099999999
 30
0.0
 50
-116.57
  0
POINT
  5
10000AB
330
21
100
AcDbEntity
  8
0
 62
     0
100
AcDbPoint
 10
7569411.900000001
 20
5716366.78
 30
0.0
 50
-296.57
  0
LINE
  5
10000AC
330
21
100
AcDbEntity
  8
Dzialki
  6
Continuous
370
    18
100
AcDbLine
 10
7569413.016393203
 20
5716364.547213595
 30
0.0
 11
7569412.123606798
 21
5716366.332786405
 31
0.0
  0
POINT
  5
10000AD
330
21
100
AcDbEntity
  8
0
 62
     0
100
AcDbPoint
 10
7569411.900000001
 20
5716366.78
 30
0.0
 50
-207.45
  0
POINT
  5
10000AE
330
21
100
AcDbEntity
  8
0
 62
     0
100
AcDbPoint
 10
7569310.07
 20
5716313.89
 30
0.0
 50
-27.45
  0
LINE
  5
10000AF
330
21
100
AcDbEntity
  8
Dzialki
  6
Continuous
370
    18
100
AcDbLine
 10
7569411.45628178
 20
5716366.549534945
 30
0.0
 11
7569310.51371822
 21
5716314.120465055
 31
0.0
  0
POINT
  5
10000B0
330
21
100
AcDbEntity
  8
0
 62
     0
100
AcDbPoint
 10
7569310.07
 20
5716313.89
 30
0.0
 50
-207.44
  0
POINT
  5
10000B1
330
21
100
AcDbEntity
  8
0
 62
     0
100
AcDbPoint
 10
7569307.469999999
 20
5716312.54
 30
0.0
 50
-27.44
  0
LINE
  5
10000B2
330
21
100
AcDbEntity
  8
Dzialki
  6
Continuous
370
    18
100
AcDbLine
 10
7569309.626251962
 20
5716313.659592364
 30
0.0
 11
7569307.913748038
 21
5716312.770407636
 31
0.0
  0
POINT
  5
10000B3
330
21
100
AcDbEntity
  8
0
 62
     0
100
AcDbPoint
 10
7569307.469999999
 20
5716312.54
 30
0.0
 50
-201.42
  0
POINT
  5
10000B4
330
21
100
AcDbEntity
  8
0
 62
     0
100
AcDbPoint
 10
7569271.650000001
 20
5716298.49
 30
0.0
 50
-21.42
  0
LINE
  5
10000B5
330
21
100
AcDbEntity
  8
Dzialki
  6
Continuous
370
    18
100
AcDbLine
 10
7569307.004526391
 20
5716312.35742311
 30
0.0
 11
7569272.115473607
 21
5716298.67257689
 31
0.0
  0
POINT
  5
10000B6
330
21
100
AcDbEntity
  8
0
 62
     0
100
AcDbPoint
 10
7569271.650000001
 20
5716298.49
 30
0.0
 50
-207.56
  0
POINT
  5
10000B7
330
21
100
AcDbEntity
  8
0
 62
     0
100
AcDbPoint
 10
7569253.599999999
 20
5716289.07
 30
0.0
 50
-27.56
  0
LINE
  5
10000B8
330
21
100
AcDbEntity
  8
Dzialki
  6
Continuous
370
    18
100
AcDbLine
 10
7569271.206733852
 20
5716298.258666641
 30
0.0
 11
7569254.043266147
 21
5716289.301333358
 31
0.0
  0
POINT
  5
10000B9
330
21
100
AcDbEntity
  8
0
 62
     0
100
AcDbPoint
 10
7569272.75
 20
5716295.7
 30
0.0
 50
-21.6
  0
POINT
  5
10000BA
330
21
100
AcDbEntity
  8
0
 62
     0
100
AcDbPoint
 10
7569309.34
 20
5716310.19
 30
0.0
 50
-201.6
  0
LINE
  5
10000BB
330
21
100
AcDbEntity
  8
Dzialki
  6
Continuous
370
    18
100
AcDbLine
 10
7569273.214875221
 20
5716295.884095161
 30
0.0
 11
7569308.875124778
 21
5716310.005904838
 31
0.0
  0
POINT
  5
10000BC
330
21
100
AcDbEntity
  8
0
 62
     0
100
AcDbPoint
 10
7569309.34
 20
5716310.19
 30
0.0
 50
-27.46
  0
POINT
  5
10000BD
330
21
100
AcDbEntity
  8
0
 62
     0
100
AcDbPoint
 10
7569311.629999999
 20
5716311.379999999
 30
0.0
 50
-207.46
  0
LINE
  5
10000BE
330
21
100
AcDbEntity
  8
Dzialki
  6
Continuous
370
    18
100
AcDbLine
 10
7569309.783671826
 20
5716310.420554356
 30
0.0
 11
7569311.186328174
 21
5716311.149445645
 31
0.0
  0
POINT
  5
10000BF
330
21
100
AcDbEntity
  8
0
 62
     0
100
AcDbPoint
 10
7569366.389999999
 20
5716452.750000001
 30
0.0
 50
-297.48
  0
POINT
  5
10000C0
330
21
100
AcDbEntity
  8
0
 62
     0
100
AcDbPoint
 10
7569381.94
 20
5716422.849999999
 30
0.0
 50
-117.48
  0
LINE
  5
10000C1
330
21
100
AcDbEntity
  8
Dzialki
  6
Continuous
370
    18
100
AcDbLine
 10
7569366.620699724
 20
5716452.306403745
 30
0.0
 11
7569381.709300276
 21
5716423.293596254
 31
0.0
  0
POINT
  5
10000C2
330
21
100
AcDbEntity
  8
0
 62
     0
100
AcDbPoint
 10
7569381.94
 20
5716422.849999999
 30
0.0
 50
-297.97
  0
POINT
  5
10000C3
330
21
100
AcDbEntity
  8
0
 62
     0
100
AcDbPoint
 10
7569392.610000001
 20
5716402.76
 30
0.0
 50
-117.97
  0
LINE
  5
10000C4
330
21
100
AcDbEntity
  8
Dzialki
  6
Continuous
370
    18
100
AcDbLine
 10
7569382.174529399
 20
5716422.408416528
 30
0.0
 11
7569392.3754706
 21
5716403.201583471
 31
0.0
  0
POINT
  5
10000C5
330
21
100
AcDbEntity
  8
0
 62
     0
100
AcDbPoint
 10
7569392.610000001
 20
5716402.76
 30
0.0
 50
-20.33
  0
POINT
  5
10000C6
330
21
100
AcDbEntity
  8
0
 62
     0
100
AcDbPoint
 10
7569508.759999998
 20
5716445.8
 30
0.0
 50
-200.33
  0
LINE
  5
10000C7
330
21
100
AcDbEntity
  8
Dzialki
  6
Continuous
370
    18
100
AcDbLine
 10
7569393.078846133
 20
5716402.933733427
 30
0.0
 11
7569508.291153867
 21
5716445.626266573
 31
0.0
  0
POINT
  5
10000C8
330
21
100
AcDbEntity
  8
0
 62
     0
100
AcDbPoint
 10
7569468.509999999
 20
5716335.179999999
 30
0.0
 50
-150.83
  0
POINT
  5
10000C9
330
21
100
AcDbEntity
  8
0
 62
     0
100
AcDbPoint
 10
7569411.900000001
 20
5716366.78
 30
0.0
 50
-330.83
  0
LINE
  5
10000CA
330
21
100
AcDbEntity
  8
Dzialki
  6
Continuous
370
    18
100
AcDbLine
 10
7569468.073413361
 20
5716335.423704959
 30
0.0
 11
7569412.336586638
 21
5716366.53629504
 31
0.0
  0
POINT
  5
10000CB
330
21
100
AcDbEntity
  8
0
 62
     0
100
AcDbPoint
 10
7569392.610000001
 20
5716402.76
 30
0.0
 50
-298.2
  0
POINT
  5
10000CC
330
21
100
AcDbEntity
  8
0
 62
     0
100
AcDbPoint
 10
7569411.900000001
 20
5716366.78
 30
0.0
 50
-118.2
  0
LINE
  5
10000CD
330
21
100
AcDbEntity
  8
Dzialki
  6
Continuous
370
    18
100
AcDbLine
 10
7569392.84625344
 20
5716402.319336508
 30
0.0
 11
7569411.663746562
 21
5716367.220663491
 31
0.0
  0
POINT
  5
10000CE
330
21
100
AcDbEntity
  8
0
 62
     0
100
AcDbPoint
 10
7569188.969999999
 20
5716597.249999999
 30
0.0
 50
-118.15
  0
POINT
  5
10000CF
330
21
100
AcDbEntity
  8
0
 62
     0
100
AcDbPoint
 10
7569169.509999999
 20
5716633.62
 30
0.0
 50
-298.15
  0
LINE
  5
10000D0
330
21
100
AcDbEntity
  8
Dzialki
  6
Continuous
370
    18
100
AcDbLine
 10
7569188.734114695
 20
5716597.690860663
 30
0.0
 11
7569169.745885302
 21
5716633.179139336
 31
0.0
  0
POINT
  5
10000D1
330
21
100
AcDbEntity
  8
0
 62
     0
100
AcDbPoint
 10
7569183.179999998
 20
5716594.859999999
 30
0.0
 50
-22.43
  0
POINT
  5
10000D2
330
21
100
AcDbEntity
  8
0
 62
     0
100
AcDbPoint
 10
7569188.969999999
 20
5716597.249999999
 30
0.0
 50
-202.43
  0
LINE
  5
10000D3
330
21
100
AcDbEntity
  8
Dzialki
  6
Continuous
370
    18
100
AcDbLine
 10
7569183.64217356
 20
5716595.050776306
 30
0.0
 11
7569188.507826437
 21
5716597.059223694
 31
0.0
  0
POINT
  5
10000D4
330
21
100
AcDbEntity
  8
0
 62
     0
100
AcDbPoint
 10
7569200.740000001
 20
5716643.669999999
 30
0.0
 50
-297.13
  0
POINT
  5
10000D5
330
21
100
AcDbEntity
  8
0
 62
     0
100
AcDbPoint
 10
7569219.46
 20
5716607.139999999
 30
0.0
 50
-117.13
  0
LINE
  5
10000D6
330
21
100
AcDbEntity
  8
Dzialki
  6
Continuous
370
    18
100
AcDbLine
 10
7569200.968029718
 20
5716643.22502534
 30
0.0
 11
7569219.231970281
 21
5716607.584974658
 31
0.0
  0
POINT
  5
10000D7
330
21
100
AcDbEntity
  8
0
 62
     0
100
AcDbPoint
 10
7569219.46
 20
5716607.139999999
 30
0.0
 50
-297.12
  0
POINT
  5
10000D8
330
21
100
AcDbEntity
  8
0
 62
     0
100
AcDbPoint
 10
7569230.540000001
 20
5716585.509999999
 30
0.0
 50
-117.12
  0
LINE
  5
10000D9
330
21
100
AcDbEntity
  8
Dzialki
  6
Continuous
370
    18
100
AcDbLine
 10
7569219.68795781
 20
5716606.694988497
 30
0.0
 11
7569230.31204219
 21
5716585.955011502
 31
0.0
  0
POINT
  5
10000DA
330
21
100
AcDbEntity
  8
0
 62
     0
100
AcDbPoint
 10
7569219.46
 20
5716607.139999999
 30
0.0
 50
-197.97
  0
POINT
  5
10000DB
330
21
100
AcDbEntity
  8
0
 62
     0
100
AcDbPoint
 10
7569188.969999999
 20
5716597.249999999
 30
0.0
 50
-17.97
  0
LINE
  5
10000DC
330
21
100
AcDbEntity
  8
Dzialki
  6
Continuous
370
    18
100
AcDbLine
 10
7569218.984394776
 20
5716606.985728577
 30
0.0
 11
7569189.445605224
 21
5716597.404271421
 31
0.0
  0
POINT
  5
10000DD
330
21
100
AcDbEntity
  8
0
 62
     0
100
AcDbPoint
 10
7569153.44
 20
5716298.769999998
 30
0.0
 50
-305.88
  0
POINT
  5
10000DE
330
21
100
AcDbEntity
  8
0
 62
     0
100
AcDbPoint
 10
7569186.04
 20
5716253.700000001
 30
0.0
 50
-125.88
  0
LINE
  5
10000DF
330
21
100
AcDbEntity
  8
Dzialki
  6
Continuous
370
    18
100
AcDbLine
 10
7569153.733037294
 20
5716298.364871446
 30
0.0
 11
7569185.746962706
 21
5716254.105128553
 31
0.0
  0
POINT
  5
10000E0
330
21
100
AcDbEntity
  8
0
 62
     0
100
AcDbPoint
 10
7569179.710000001
 20
5716429.349999999
 30
0.0
 50
-122.22
  0
POINT
  5
10000E1
330
21
100
AcDbEntity
  8
0
 62
     0
100
AcDbPoint
 10
7569105.86
 20
5716546.55
 30
0.0
 50
-302.22
  0
POINT
  5
10000E2
330
21
100
AcDbEntity
  8
0
 62
     0
100
AcDbPoint
 10
7569105.86
 20
5716546.55
 30
0.0
 50
-27.96
  0
POINT
  5
10000E3
330
21
100
AcDbEntity
  8
0
 62
     0
100
AcDbPoint
 10
7569160.860000001
 20
5716575.74
 30
0.0
 50
-207.96
  0
LINE
  5
10000E6
330
21
100
AcDbEntity
  8
podzial
  6
Continuous
370
    18
100
AcDbLine
 10
7569282.372000001
 20
5716412.097
 30
0.0
 11
7569365.126
 21
5716455.127999999
 31
0.0
  0
ENDSEC
  0
SECTION
  2
OBJECTS
  0
DICTIONARY
  5
129
330
0
100
AcDbDictionary
281
     1
  3
ACAD_COLOR
350
100001C
  3
ACAD_GROUP
350
12A
  3
ACAD_LAYOUT
350
12B
  3
ACAD_MATERIAL
350
FFFFFF
  3
ACAD_MLEADERSTYLE
350
100001F
  3
ACAD_MLINESTYLE
350
12C
  3
ACAD_PLOTSETTINGS
350
12D
  3
ACAD_PLOTSTYLENAME
350
12E
  3
ACAD_SCALELIST
350
1000021
  3
ACAD_TABLESTYLE
350
100001D
  3
ACAD_VISUALSTYLE
350
1000003
  3
AcDbVariableDictionary
350
10000E7
  0
DICTIONARY
  5
1000034
330
21
100
AcDbDictionary
280
     1
281
     1
  3
ACAD_SORTENTS
360
1000035
  0
DICTIONARY
  5
100001C
102
{ACAD_REACTORS
330
129
102
}
330
129
100
AcDbDictionary
281
     1
  0
DICTIONARY
  5
12A
102
{ACAD_REACTORS
330
129
102
}
330
129
100
AcDbDictionary
281
     1
  0
DICTIONARY
  5
12B
102
{ACAD_REACTORS
330
129
102
}
330
129
100
AcDbDictionary
281
     1
  3
Layout
350
24
  3
Model
350
22
  0
DICTIONARY
  5
FFFFFF
102
{ACAD_REACTORS
330
129
102
}
330
129
100
AcDbDictionary
281
     1
  3
ByBlock
350
1000001
  3
ByLayer
350
1000000
  3
Global
350
1000002
  0
DICTIONARY
  5
100001F
102
{ACAD_REACTORS
330
129
102
}
330
129
100
AcDbDictionary
281
     1
  3
Standard
350
1000020
  0
DICTIONARY
  5
12C
102
{ACAD_REACTORS
330
129
102
}
330
129
100
AcDbDictionary
281
     1
  3
L_0_02
350
7
  3
L_0_69
350
10
  3
Standard
350
12F
  0
DICTIONARY
  5
12D
102
{ACAD_REACTORS
330
129
102
}
330
129
100
AcDbDictionary
281
     1
  0
ACDBDICTIONARYWDFLT
  5
12E
102
{ACAD_REACTORS
330
129
102
}
330
129
100
AcDbDictionary
281
     1
  3
Normal
350
14
100
AcDbDictionaryWithDefault
340
14
  0
DICTIONARY
  5
1000021
102
{ACAD_REACTORS
330
129
102
}
330
129
100
AcDbDictionary
281
     1
  3
A0
350
1000022
  3
A1
350
1000023
  3
A2
350
1000024
  3
A3
350
1000025
  3
A4
350
1000026
  3
A5
350
1000027
  3
A6
350
1000028
  3
A7
350
1000029
  3
A8
350
100002A
  3
A9
350
100002B
  3
B0
350
100002C
  3
B1
350
100002D
  3
B2
350
100002E
  3
B3
350
100002F
  3
B4
350
1000030
  3
B5
350
1000031
  3
B6
350
1000032
  0
DICTIONARY
  5
100001D
102
{ACAD_REACTORS
330
129
102
}
330
129
100
AcDbDictionary
281
     1
  3
Standard
350
100001E
  0
DICTIONARY
  5
1000003
102
{ACAD_REACTORS
330
129
102
}
330
129
100
AcDbDictionary
281
     1
  3
2dWireframe
350
1000008
  3
Basic
350
100000B
  3
Brighten
350
100000F
  3
ColorChange
350
1000013
  3
Conceptual
350
100000D
  3
Dim
350
100000E
  3
EdgeColorOff
350
1000016
  3
Facepattern
350
1000012
  3
Flat
350
1000004
  3
FlatWithEdges
350
1000005
  3
Gouraud
350
1000006
  3
GouraudWithEdges
350
1000007
  3
Hidden
350
100000A
  3
JitterOff
350
1000014
  3
Linepattern
350
1000011
  3
OverhangOff
350
1000015
  3
Realistic
350
100000C
  3
Shaded
350
100001B
  3
Shaded with edges
350
100001A
  3
Shades of Gray
350
1000017
  3
Sketchy
350
1000018
  3
Thicken
350
1000010
  3
Wireframe
350
1000009
  3
X-Ray
350
1000019
  0
DICTIONARY
  5
10000E7
102
{ACAD_REACTORS
330
129
102
}
330
129
100
AcDbDictionary
281
     1
  3
CANNOSCALE
350
10000EB
  3
CMLEADERSTYLE
350
10000E9
  3
CTABLESTYLE
350
10000E8
  3
MSLTSCALE
350
10000EA
  0
SORTENTSTABLE
  5
1000035
102
{ACAD_REACTORS
330
1000034
102
}
330
1000034
100
AcDbSortentsTable
330
21
331
B5
  5
100008B
331
1000036
  5
B5
331
1000037
  5
1000036
331
1000038
  5
1000037
331
1000039
  5
1000038
331
100003A
  5
1000039
331
100003B
  5
100003A
331
100003C
  5
100003B
331
100003D
  5
100003C
331
100003E
  5
100003D
331
100003F
  5
100003E
331
1000040
  5
100003F
331
1000041
  5
1000040
331
1000042
  5
1000041
331
1000043
  5
1000042
331
1000044
  5
1000043
331
1000045
  5
1000044
331
1000046
  5
1000045
331
1000047
  5
1000046
331
1000048
  5
1000047
331
1000049
  5
1000048
331
100004A
  5
1000049
331
100004B
  5
100004A
331
100004C
  5
100004B
331
100004D
  5
100004C
331
100004E
  5
100004D
331
100004F
  5
100004E
331
1000050
  5
100004F
331
1000051
  5
1000050
331
1000052
  5
1000051
331
1000053
  5
1000052
331
1000054
  5
1000053
331
1000055
  5
1000054
331
1000056
  5
1000055
331
1000057
  5
1000056
331
1000058
  5
1000057
331
1000059
  5
1000058
331
100005A
  5
1000059
331
100005B
  5
100005A
331
100005C
  5
100005B
331
100005D
  5
100005C
331
100005E
  5
100005D
331
100005F
  5
100005E
331
1000060
  5
100005F
331
1000061
  5
1000060
331
1000062
  5
1000061
331
1000063
  5
1000062
331
1000064
  5
1000063
331
1000065
  5
1000064
331
1000066
  5
1000065
331
1000067
  5
1000066
331
1000068
  5
1000067
331
1000069
  5
1000068
331
100006A
  5
1000069
331
100006B
  5
100006A
331
100006C
  5
100006B
331
100006D
  5
100006C
331
100006E
  5
100006D
331
100006F
  5
100006E
331
1000070
  5
100006F
331
1000071
  5
1000070
331
1000072
  5
1000071
331
1000073
  5
1000072
331
1000074
  5
1000073
331
1000075
  5
1000074
331
1000076
  5
1000075
331
1000077
  5
1000076
331
1000078
  5
1000077
331
1000079
  5
1000078
331
100007A
  5
1000079
331
100007B
  5
100007A
331
100007C
  5
100007B
331
100007D
  5
100007C
331
100007E
  5
100007D
331
100007F
  5
100007E
331
1000080
  5
100007F
331
1000081
  5
1000080
331
1000082
  5
1000081
331
1000083
  5
1000082
331
1000084
  5
1000083
331
1000085
  5
1000084
331
1000086
  5
1000085
331
1000087
  5
1000086
331
1000088
  5
1000087
331
1000089
  5
1000088
331
100008A
  5
1000089
331
100008B
  5
100008A
  0
LAYOUT
  5
24
330
12B
100
AcDbPlotSettings
  1

  2

  4

  6

 40
0.0
 41
0.0
 42
0.0
 43
0.0
 44
0.0
 45
0.0
 46
0.0
 47
0.0
 48
0.0
 49
0.0
140
0.0
141
0.0
142
1.0
143
1.0
 70
   688
 72
     1
 73
     0
 74
     5
  7

 75
     0
 76
     0
 77
     2
 78
   300
147
1.0
148
0.0
149
0.0
100
AcDbLayout
  1
Layout
 70
     1
 71
     1
 10
0.0
 20
0.0
 11
420.0
 21
297.0
 12
0.0
 22
0.0
 32
0.0
 14
1.000000000000000E+20
 24
1.000000000000000E+20
 34
1.000000000000000E+20
 15
-1.000000000000000E+20
 25
-1.000000000000000E+20
 35
-1.000000000000000E+20
146
0.0
 13
0.0
 23
0.0
 33
0.0
 16
1.0
 26
0.0
 36
0.0
 17
0.0
 27
1.0
 37
0.0
 76
     0
330
23
  0
LAYOUT
  5
22
330
12B
100
AcDbPlotSettings
  1

  2

  4

  6

 40
0.0
 41
0.0
 42
0.0
 43
0.0
 44
0.0
 45
0.0
 46
0.0
 47
0.0
 48
0.0
 49
0.0
140
0.0
141
0.0
142
1.0
143
1.0
 70
  1712
 72
     1
 73
     0
 74
     0
  7

 75
     0
 76
     0
 77
     2
 78
   300
147
1.0
148
0.0
149
0.0
100
AcDbLayout
  1
Model
 70
     1
 71
     0
 10
0.0
 20
0.0
 11
12.0
 21
9.0
 12
0.0
 22
0.0
 32
0.0
 14
0.0
 24
0.0
 34
0.0
 15
0.0
 25
0.0
 35
0.0
146
0.0
 13
0.0
 23
0.0
 33
0.0
 16
1.0
 26
0.0
 36
0.0
 17
0.0
 27
1.0
 37
0.0
 76
     0
330
21
331
2
  0
MATERIAL
  5
1000001
102
{ACAD_REACTORS
330
FFFFFF
102
}
330
FFFFFF
100
AcDbMaterial
  1
ByBlock
 72
     0
 73
     2
 77
     0
 78
     2
171
     0
172
     2
175
     0
176
     2
179
     0
270
     2
274
     2
 94
      127
  0
MATERIAL
  5
1000000
102
{ACAD_REACTORS
330
FFFFFF
102
}
330
FFFFFF
100
AcDbMaterial
  1
ByLayer
 72
     0
 73
     2
 77
     0
 78
     2
171
     0
172
     2
175
     0
176
     2
179
     0
270
     2
274
     2
 94
      127
  0
MATERIAL
  5
1000002
102
{ACAD_REACTORS
330
FFFFFF
102
}
330
FFFFFF
100
AcDbMaterial
  1
Global
 72
     0
 73
     2
 77
     0
 78
     2
171
     0
172
     2
175
     0
176
     2
179
     0
270
     2
274
     2
 94
      127
  0
MLEADERSTYLE
  5
1000020
102
{ACAD_REACTORS
330
100001F
102
}
330
100001F
100
AcDbMLeaderStyle
179
     2
170
     2
171
     1
172
     0
 90
        2
 40
0.0
 41
0.0
173
     1
 91
-1056964608
340
4
 92
       -2
290
     1
 42
0.4
291
     1
 43
2.0
  3
Standard
 44
0.18
300

342
18
174
     1
178
     1
175
     1
176
     0
 93
-1056964608
 45
0.2
292
     0
297
     0
 46
5.0
 94
-1056964608
 47
1.0
 49
1.0
140
1.0
293
     1
141
0.0
294
     1
177
     0
142
1.0
295
     0
296
     0
143
0.125
271
     0
272
     9
273
     9
298
     0
  0
MLINESTYLE
  5
7
330
12C
100
AcDbMlineStyle
  2
L_0_02
 70
     0
  3

 62
   256
 51
90.0
 52
90.0
 71
     1
 49
0.0
 62
   256
  6
CONTINUOUS
  0
MLINESTYLE
  5
10
330
12C
100
AcDbMlineStyle
  2
L_0_69
 70
     0
  3

 62
   256
 51
90.0
 52
90.0
 71
     2
 49
0.0
 62
   256
  6
CONTINUOUS
 49
0.0
 62
   256
  6
L_0_69_SHX
  0
MLINESTYLE
  5
12F
102
{ACAD_REACTORS
330
12C
102
}
330
12C
100
AcDbMlineStyle
  2
Standard
 70
     0
  3

 62
   256
 51
90.0
 52
90.0
 71
     2
 49
0.5
 62
   256
  6
BYLAYER
 49
-0.5
 62
   256
  6
BYLAYER
  0
ACDBPLACEHOLDER
  5
14
330
12E
  0
SCALE
  5
1000022
102
{ACAD_REACTORS
330
1000021
102
}
330
1000021
100
AcDbScale
 70
     0
300
1:1
140
1.0
141
1.0
290
     1
  0
SCALE
  5
1000023
102
{ACAD_REACTORS
330
1000021
102
}
330
1000021
100
AcDbScale
 70
     0
300
1:2
140
1.0
141
2.0
290
     0
  0
SCALE
  5
1000024
102
{ACAD_REACTORS
330
1000021
102
}
330
1000021
100
AcDbScale
 70
     0
300
1:4
140
1.0
141
4.0
290
     0
  0
SCALE
  5
1000025
102
{ACAD_REACTORS
330
1000021
102
}
330
1000021
100
AcDbScale
 70
     0
300
1:5
140
1.0
141
5.0
290
     0
  0
SCALE
  5
1000026
102
{ACAD_REACTORS
330
1000021
102
}
330
1000021
100
AcDbScale
 70
     0
300
1:8
140
1.0
141
8.0
290
     0
  0
SCALE
  5
1000027
102
{ACAD_REACTORS
330
1000021
102
}
330
1000021
100
AcDbScale
 70
     0
300
1:10
140
1.0
141
10.0
290
     0
  0
SCALE
  5
1000028
102
{ACAD_REACTORS
330
1000021
102
}
330
1000021
100
AcDbScale
 70
     0
300
1:16
140
1.0
141
16.0
290
     0
  0
SCALE
  5
1000029
102
{ACAD_REACTORS
330
1000021
102
}
330
1000021
100
AcDbScale
 70
     0
300
1:20
140
1.0
141
20.0
290
     0
  0
SCALE
  5
100002A
102
{ACAD_REACTORS
330
1000021
102
}
330
1000021
100
AcDbScale
 70
     0
300
1:30
140
1.0
141
30.0
290
     0
  0
SCALE
  5
100002B
102
{ACAD_REACTORS
330
1000021
102
}
330
1000021
100
AcDbScale
 70
     0
300
1:40
140
1.0
141
40.0
290
     0
  0
SCALE
  5
100002C
102
{ACAD_REACTORS
330
1000021
102
}
330
1000021
100
AcDbScale
 70
     0
300
1:50
140
1.0
141
50.0
290
     0
  0
SCALE
  5
100002D
102
{ACAD_REACTORS
330
1000021
102
}
330
1000021
100
AcDbScale
 70
     0
300
1:100
140
1.0
141
100.0
290
     0
  0
SCALE
  5
100002E
102
{ACAD_REACTORS
330
1000021
102
}
330
1000021
100
AcDbScale
 70
     0
300
2:1
140
2.0
141
1.0
290
     0
  0
SCALE
  5
100002F
102
{ACAD_REACTORS
330
1000021
102
}
330
1000021
100
AcDbScale
 70
     0
300
4:1
140
4.0
141
1.0
290
     0
  0
SCALE
  5
1000030
102
{ACAD_REACTORS
330
1000021
102
}
330
1000021
100
AcDbScale
 70
     0
300
8:1
140
8.0
141
1.0
290
     0
  0
SCALE
  5
1000031
102
{ACAD_REACTORS
330
1000021
102
}
330
1000021
100
AcDbScale
 70
     0
300
10:1
140
10.0
141
1.0
290
     0
  0
SCALE
  5
1000032
102
{ACAD_REACTORS
330
1000021
102
}
330
1000021
100
AcDbScale
 70
     0
300
100:1
140
100.0
141
1.0
290
     0
  0
TABLESTYLE
  5
100001E
102
{ACAD_REACTORS
330
100001D
102
}
330
100001D
100
AcDbTableStyle
  3
Standard
 70
     0
 71
     0
 40
0.06
 41
0.06
280
     0
281
     0
  7
STANDARD
140
0.18
170
     2
 62
     7
 63
   257
283
     0
 90
        4
 91
        0
  1

274
    -2
284
     1
 64
     0
275
    -2
285
     1
 65
     0
276
    -2
286
     1
 66
     0
277
    -2
287
     1
 67
     0
278
    -2
288
     1
 68
     0
279
    -2
289
     1
 69
     0
  7
STANDARD
140
0.25
170
     5
 62
     7
 63
   257
283
     0
 90
        4
 91
        0
  1

274
    -2
284
     1
 64
     0
275
    -2
285
     1
 65
     0
276
    -2
286
     1
 66
     0
277
    -2
287
     1
 67
     0
278
    -2
288
     1
 68
     0
279
    -2
289
     1
 69
     0
  7
STANDARD
140
0.18
170
     5
 62
     7
 63
   257
283
     0
 90
        4
 91
        0
  1

274
    -2
284
     1
 64
     0
275
    -2
285
     1
 65
     0
276
    -2
286
     1
 66
     0
277
    -2
287
     1
 67
     0
278
    -2
288
     1
 68
     0
279
    -2
289
     1
 69
     0
  0
VISUALSTYLE
  5
1000008
102
{ACAD_REACTORS
330
1000003
102
}
330
1000003
100
AcDbVisualStyle
  2
2dWireframe
 70
     4
177
     3
291
     0
 70
    58
 90
        0
176
     1
 90
        2
176
     1
 90
        0
176
     1
 90
        0
176
     1
 40
0.6
176
     1
 40
30.0
176
     1
 62
     7
420
 16777215
176
     1
 90
        1
176
     1
 90
        4
176
     1
 62
     7
176
     1
 62
   257
176
     1
 90
        1
176
     1
 90
        1
176
     1
 40
1.0
176
     1
 90
        0
176
     1
 62
   257
176
     1
 40
1.0
176
     1
 90
        1
176
     1
 90
        6
176
     1
 90
        2
176
     1
 62
     7
176
     1
 90
        5
176
     1
 90
        0
176
     1
 90
        0
176
     1
290
     0
176
     1
 90
        1
176
     1
 40
0.0
176
     1
 90
        0
176
     1
290
     1
176
     1
290
     1
176
     1
290
     0
176
     1
290
     0
176
     1
290
     0
176
     1
290
     0
176
     1
290
     0
176
     1
290
     0
176
     1
290
     0
176
     1
 90
       50
176
     1
 40
0.0
176
     1
 40
1.0
176
     1
 90
        0
176
     1
 62
    18
420
        0
176
     1
 90
       50
176
     1
 90
        3
176
     1
 62
     5
420
      255
176
     1
290
     0
176
     1
 90
       50
176
     1
 90
       50
176
     1
 90
       50
176
     1
290
     0
176
     1
 90
       50
176
     1
 62
   256
176
     0
 40
1.0
176
     0
 90
        2
176
     1
  1
strokes_ogs.tif
176
     1
290
     0
176
     1
 40
1.0
176
     1
 40
1.0
176
     1
  0
VISUALSTYLE
  5
100000B
102
{ACAD_REACTORS
330
1000003
102
}
330
1000003
100
AcDbVisualStyle
  2
Basic
 70
     7
177
     3
291
     1
 70
    58
 90
        1
176
     1
 90
        0
176
     1
 90
        1
176
     1
 90
        0
176
     1
 40
0.6
176
     1
 40
30.0
176
     1
 62
     7
420
 16777215
176
     1
 90
        0
176
     1
 90
        4
176
     1
 62
     7
176
     1
 62
   257
176
     1
 90
        1
176
     1
 90
        1
176
     1
 40
1.0
176
     1
 90
        8
176
     1
 62
     7
176
     1
 40
1.0
176
     1
 90
        1
176
     1
 90
        6
176
     1
 90
        2
176
     1
 62
     7
176
     1
 90
        5
176
     1
 90
        0
176
     1
 90
        0
176
     1
290
     0
176
     1
 90
        1
176
     1
 40
0.0
176
     1
 90
        0
176
     1
290
     0
176
     1
290
     1
176
     1
290
     1
176
     1
290
     0
176
     1
290
     0
176
     1
290
     0
176
     1
290
     0
176
     1
290
     0
176
     1
290
     0
176
     1
 90
       50
176
     1
 40
0.0
176
     1
 40
1.0
176
     1
 90
        0
176
     1
 62
    18
420
        0
176
     1
 90
       50
176
     1
 90
        3
176
     1
 62
     5
420
      255
176
     1
290
     0
176
     1
 90
       50
176
     1
 90
       50
176
     1
 90
       50
176
     1
290
     0
176
     1
 90
       50
176
     1
 62
   256
176
     0
 40
1.0
176
     0
 90
        2
176
     1
  1
strokes_ogs.tif
176
     1
290
     0
176
     1
 40
1.0
176
     1
 40
1.0
176
     1
  0
VISUALSTYLE
  5
100000F
102
{ACAD_REACTORS
330
1000003
102
}
330
1000003
100
AcDbVisualStyle
  2
Brighten
 70
    12
177
     3
291
     1
 70
    58
 90
        2
176
     1
 90
        2
176
     1
 90
        0
176
     1
 90
        0
176
     1
 40
0.6
176
     1
 40
30.0
176
     1
 62
     7
420
 16777215
176
     1
 90
        1
176
     1
 90
        4
176
     1
 62
     7
176
     1
 62
   257
176
     1
 90
        1
176
     1
 90
        1
176
     1
 40
1.0
176
     1
 90
        8
176
     1
 62
     7
176
     1
 40
1.0
176
     1
 90
        1
176
     1
 90
        6
176
     1
 90
        2
176
     1
 62
     7
176
     1
 90
        5
176
     1
 90
        0
176
     1
 90
        0
176
     1
290
     0
176
     1
 90
        1
176
     1
 40
50.0
176
     1
 90
        0
176
     1
290
     0
176
     1
290
     1
176
     1
290
     1
176
     1
290
     0
176
     1
290
     0
176
     1
290
     0
176
     1
290
     0
176
     1
290
     0
176
     1
290
     0
176
     1
 90
       50
176
     1
 40
0.0
176
     1
 40
1.0
176
     1
 90
        0
176
     1
 62
    18
420
        0
176
     1
 90
       50
176
     1
 90
        3
176
     1
 62
     5
420
      255
176
     1
290
     0
176
     1
 90
       50
176
     1
 90
       50
176
     1
 90
       50
176
     1
290
     0
176
     1
 90
       50
176
     1
 62
   256
176
     0
 40
1.0
176
     0
 90
        2
176
     1
  1
strokes_ogs.tif
176
     1
290
     0
176
     1
 40
1.0
176
     1
 40
1.0
176
     1
  0
VISUALSTYLE
  5
1000013
102
{ACAD_REACTORS
330
1000003
102
}
330
1000003
100
AcDbVisualStyle
  2
ColorChange
 70
    16
177
     3
291
     1
 70
    58
 90
        2
176
     1
 90
        2
176
     1
 90
        3
176
     1
 90
        0
176
     1
 40
0.6
176
     1
 40
30.0
176
     1
 62
     8
420
  8421504
176
     1
 90
        1
176
     1
 90
        4
176
     1
 62
     7
176
     1
 62
   257
176
     1
 90
        1
176
     1
 90
        1
176
     1
 40
1.0
176
     1
 90
        8
176
     1
 62
     8
420
  8421504
176
     1
 40
1.0
176
     1
 90
        1
176
     1
 90
        6
176
     1
 90
        2
176
     1
 62
     7
176
     1
 90
        5
176
     1
 90
        0
176
     1
 90
        0
176
     1
290
     0
176
     1
 90
        1
176
     1
 40
0.0
176
     1
 90
        0
176
     1
290
     0
176
     1
290
     1
176
     1
290
     1
176
     1
290
     0
176
     1
290
     0
176
     1
290
     0
176
     1
290
     0
176
     1
290
     0
176
     1
290
     0
176
     1
 90
       50
176
     1
 40
0.0
176
     1
 40
1.0
176
     1
 90
        0
176
     1
 62
    18
420
        0
176
     1
 90
       50
176
     1
 90
        3
176
     1
 62
     5
420
      255
176
     1
290
     0
176
     1
 90
       50
176
     1
 90
       50
176
     1
 90
       50
176
     1
290
     0
176
     1
 90
       50
176
     1
 62
   256
176
     0
 40
1.0
176
     0
 90
        2
176
     1
  1
strokes_ogs.tif
176
     1
290
     0
176
     1
 40
1.0
176
     1
 40
1.0
176
     1
  0
VISUALSTYLE
  5
100000D
102
{ACAD_REACTORS
330
1000003
102
}
330
1000003
100
AcDbVisualStyle
  2
Conceptual
 70
     9
177
     3
291
     0
 70
    58
 90
        3
176
     1
 90
        2
176
     1
 90
        0
176
     1
 90
        0
176
     1
 40
0.6
176
     1
 40
30.0
176
     1
 62
     7
420
 16777215
176
     1
 90
        2
176
     1
 90
        2
176
     1
 62
     7
176
     1
 62
   257
176
     1
 90
        1
176
     1
 90
        1
176
     1
 40
179.0
176
     1
 90
        8
176
     1
 62
     7
176
     1
 40
1.0
176
     1
 90
        1
176
     1
 90
        6
176
     1
 90
        2
176
     1
 62
     7
176
     1
 90
        3
176
     1
 90
        0
176
     1
 90
        0
176
     1
290
     0
176
     1
 90
        1
176
     1
 40
0.0
176
     1
 90
        0
176
     1
290
     0
176
     1
290
     1
176
     1
290
     1
176
     1
290
     0
176
     1
290
     0
176
     1
290
     0
176
     1
290
     0
176
     1
290
     0
176
     1
290
     0
176
     1
 90
       50
176
     1
 40
0.0
176
     1
 40
1.0
176
     1
 90
        0
176
     1
 62
    18
420
        0
176
     1
 90
       50
176
     1
 90
        3
176
     1
 62
     5
420
      255
176
     1
290
     0
176
     1
 90
       50
176
     1
 90
       50
176
     1
 90
       50
176
     1
290
     0
176
     1
 90
       50
176
     1
 62
   256
176
     0
 40
1.0
176
     0
 90
        2
176
     1
  1
strokes_ogs.tif
176
     1
290
     0
176
     1
 40
1.0
176
     1
 40
1.0
176
     1
  0
VISUALSTYLE
  5
100000E
102
{ACAD_REACTORS
330
1000003
102
}
330
1000003
100
AcDbVisualStyle
  2
Dim
 70
    11
177
     3
291
     1
 70
    58
 90
        2
176
     1
 90
        2
176
     1
 90
        0
176
     1
 90
        0
176
     1
 40
0.6
176
     1
 40
30.0
176
     1
 62
     7
420
 16777215
176
     1
 90
        1
176
     1
 90
        4
176
     1
 62
     7
176
     1
 62
   257
176
     1
 90
        1
176
     1
 90
        1
176
     1
 40
1.0
176
     1
 90
        8
176
     1
 62
     7
176
     1
 40
1.0
176
     1
 90
        1
176
     1
 90
        6
176
     1
 90
        2
176
     1
 62
     7
176
     1
 90
        5
176
     1
 90
        0
176
     1
 90
        0
176
     1
290
     0
176
     1
 90
        1
176
     1
 40
-50.0
176
     1
 90
        0
176
     1
290
     0
176
     1
290
     1
176
     1
290
     1
176
     1
290
     0
176
     1
290
     0
176
     1
290
     0
176
     1
290
     0
176
     1
290
     0
176
     1
290
     0
176
     1
 90
       50
176
     1
 40
0.0
176
     1
 40
1.0
176
     1
 90
        0
176
     1
 62
    18
420
        0
176
     1
 90
       50
176
     1
 90
        3
176
     1
 62
     5
420
      255
176
     1
290
     0
176
     1
 90
       50
176
     1
 90
       50
176
     1
 90
       50
176
     1
290
     0
176
     1
 90
       50
176
     1
 62
   256
176
     0
 40
1.0
176
     0
 90
        2
176
     1
  1
strokes_ogs.tif
176
     1
290
     0
176
     1
 40
1.0
176
     1
 40
1.0
176
     1
  0
VISUALSTYLE
  5
1000016
102
{ACAD_REACTORS
330
1000003
102
}
330
1000003
100
AcDbVisualStyle
  2
EdgeColorOff
 70
    22
177
     3
291
     1
 70
    58
 90
        2
176
     0
 90
        2
176
     0
 90
        0
176
     0
 90
        0
176
     0
 40
0.6
176
     0
 40
30.0
176
     0
 62
     7
420
 16777215
176
     0
 90
        1
176
     0
 90
        4
176
     0
 62
     7
176
     0
 62
   257
176
     0
 90
        1
176
     0
 90
        1
176
     0
 40
1.0
176
     0
 90
        8
176
     2
 62
     7
176
     0
 40
1.0
176
     0
 90
        1
176
     0
 90
        6
176
     0
 90
        2
176
     0
 62
     7
176
     0
 90
        5
176
     0
 90
        0
176
     0
 90
        0
176
     0
290
     0
176
     0
 90
        1
176
     0
 40
0.0
176
     0
 90
        0
176
     0
290
     0
176
     0
290
     1
176
     0
290
     1
176
     0
290
     0
176
     0
290
     0
176
     0
290
     0
176
     0
290
     0
176
     0
290
     0
176
     0
290
     0
176
     0
 90
       50
176
     0
 40
0.0
176
     0
 40
1.0
176
     0
 90
        0
176
     0
 62
    18
420
        0
176
     0
 90
       50
176
     0
 90
        3
176
     0
 62
     5
420
      255
176
     0
290
     0
176
     0
 90
       50
176
     0
 90
       50
176
     0
 90
       50
176
     0
290
     0
176
     0
 90
       50
176
     0
 62
   256
176
     0
 40
1.0
176
     0
 90
        2
176
     0
  1
strokes_ogs.tif
176
     0
290
     0
176
     0
 40
1.0
176
     0
 40
1.0
176
     0
  0
VISUALSTYLE
  5
1000012
102
{ACAD_REACTORS
330
1000003
102
}
330
1000003
100
AcDbVisualStyle
  2
Facepattern
 70
    15
177
     3
291
     1
 70
    58
 90
        2
176
     1
 90
        2
176
     1
 90
        0
176
     1
 90
        0
176
     1
 40
0.6
176
     1
 40
30.0
176
     1
 62
     7
420
 16777215
176
     1
 90
        1
176
     1
 90
        4
176
     1
 62
     7
176
     1
 62
   257
176
     1
 90
        1
176
     1
 90
        1
176
     1
 40
1.0
176
     1
 90
        8
176
     1
 62
     7
176
     1
 40
1.0
176
     1
 90
        1
176
     1
 90
        6
176
     1
 90
        2
176
     1
 62
     7
176
     1
 90
        5
176
     1
 90
        0
176
     1
 90
        0
176
     1
290
     0
176
     1
 90
        1
176
     1
 40
0.0
176
     1
 90
        0
176
     1
290
     0
176
     1
290
     1
176
     1
290
     1
176
     1
290
     0
176
     1
290
     0
176
     1
290
     0
176
     1
290
     0
176
     1
290
     0
176
     1
290
     0
176
     1
 90
       50
176
     1
 40
0.0
176
     1
 40
1.0
176
     1
 90
        0
176
     1
 62
    18
420
        0
176
     1
 90
       50
176
     1
 90
        3
176
     1
 62
     5
420
      255
176
     1
290
     0
176
     1
 90
       50
176
     1
 90
       50
176
     1
 90
       50
176
     1
290
     0
176
     1
 90
       50
176
     1
 62
   256
176
     0
 40
1.0
176
     0
 90
        2
176
     1
  1
strokes_ogs.tif
176
     1
290
     0
176
     1
 40
1.0
176
     1
 40
1.0
176
     1
  0
VISUALSTYLE
  5
1000004
102
{ACAD_REACTORS
330
1000003
102
}
330
1000003
100
AcDbVisualStyle
  2
Flat
 70
     0
177
     3
291
     1
 70
    58
 90
        2
176
     1
 90
        1
176
     1
 90
        1
176
     1
 90
        2
176
     1
 40
0.6
176
     1
 40
30.0
176
     1
 62
     7
420
 16777215
176
     1
 90
        0
176
     1
 90
        0
176
     1
 62
     7
176
     1
 62
   257
176
     1
 90
        1
176
     1
 90
        1
176
     1
 40
1.0
176
     1
 90
        8
176
     1
 62
     7
176
     1
 40
1.0
176
     1
 90
        1
176
     1
 90
        6
176
     1
 90
        2
176
     1
 62
     7
176
     1
 90
        5
176
     1
 90
        0
176
     1
 90
        0
176
     1
290
     0
176
     1
 90
       13
176
     1
 40
0.0
176
     1
 90
        0
176
     1
290
     0
176
     1
290
     1
176
     1
290
     1
176
     1
290
     0
176
     1
290
     0
176
     1
290
     0
176
     1
290
     0
176
     1
290
     0
176
     1
290
     0
176
     1
 90
       50
176
     1
 40
0.0
176
     1
 40
1.0
176
     1
 90
        0
176
     1
 62
    18
420
        0
176
     1
 90
       50
176
     1
 90
        3
176
     1
 62
     5
420
      255
176
     1
290
     0
176
     1
 90
       50
176
     1
 90
       50
176
     1
 90
       50
176
     1
290
     0
176
     1
 90
       50
176
     1
 62
   256
176
     0
 40
1.0
176
     0
 90
        2
176
     1
  1
strokes_ogs.tif
176
     1
290
     0
176
     1
 40
1.0
176
     1
 40
1.0
176
     1
  0
VISUALSTYLE
  5
1000005
102
{ACAD_REACTORS
330
1000003
102
}
330
1000003
100
AcDbVisualStyle
  2
FlatWithEdges
 70
     1
177
     3
291
     1
 70
    58
 90
        2
176
     1
 90
        1
176
     1
 90
        1
176
     1
 90
        2
176
     1
 40
0.6
176
     1
 40
30.0
176
     1
 62
     7
420
 16777215
176
     1
 90
        1
176
     1
 90
        0
176
     1
 62
     7
176
     1
 62
   257
176
     1
 90
        1
176
     1
 90
        1
176
     1
 40
1.0
176
     1
 90
        0
176
     1
 62
   257
176
     1
 40
1.0
176
     1
 90
        1
176
     1
 90
        6
176
     1
 90
        2
176
     1
 62
     7
176
     1
 90
        5
176
     1
 90
        0
176
     1
 90
        0
176
     1
290
     0
176
     1
 90
       13
176
     1
 40
0.0
176
     1
 90
        0
176
     1
290
     0
176
     1
290
     1
176
     1
290
     1
176
     1
290
     0
176
     1
290
     0
176
     1
290
     0
176
     1
290
     0
176
     1
290
     0
176
     1
290
     0
176
     1
 90
       50
176
     1
 40
0.0
176
     1
 40
1.0
176
     1
 90
        0
176
     1
 62
    18
420
        0
176
     1
 90
       50
176
     1
 90
        3
176
     1
 62
     5
420
      255
176
     1
290
     0
176
     1
 90
       50
176
     1
 90
       50
176
     1
 90
       50
176
     1
290
     0
176
     1
 90
       50
176
     1
 62
   256
176
     0
 40
1.0
176
     0
 90
        2
176
     1
  1
strokes_ogs.tif
176
     1
290
     0
176
     1
 40
1.0
176
     1
 40
1.0
176
     1
  0
VISUALSTYLE
  5
1000006
102
{ACAD_REACTORS
330
1000003
102
}
330
1000003
100
AcDbVisualStyle
  2
Gouraud
 70
     2
177
     3
291
     1
 70
    58
 90
        2
176
     1
 90
        2
176
     1
 90
        1
176
     1
 90
        2
176
     1
 40
0.6
176
     1
 40
30.0
176
     1
 62
     7
420
 16777215
176
     1
 90
        0
176
     1
 90
        0
176
     1
 62
     7
176
     1
 62
   257
176
     1
 90
        1
176
     1
 90
        1
176
     1
 40
1.0
176
     1
 90
        0
176
     1
 62
     7
176
     1
 40
1.0
176
     1
 90
        1
176
     1
 90
        6
176
     1
 90
        2
176
     1
 62
     7
176
     1
 90
        5
176
     1
 90
        0
176
     1
 90
        0
176
     1
290
     0
176
     1
 90
       13
176
     1
 40
0.0
176
     1
 90
        0
176
     1
290
     0
176
     1
290
     1
176
     1
290
     1
176
     1
290
     0
176
     1
290
     0
176
     1
290
     0
176
     1
290
     0
176
     1
290
     0
176
     1
290
     0
176
     1
 90
       50
176
     1
 40
0.0
176
     1
 40
1.0
176
     1
 90
        0
176
     1
 62
    18
420
        0
176
     1
 90
       50
176
     1
 90
        3
176
     1
 62
     5
420
      255
176
     1
290
     0
176
     1
 90
       50
176
     1
 90
       50
176
     1
 90
       50
176
     1
290
     0
176
     1
 90
       50
176
     1
 62
   256
176
     0
 40
1.0
176
     0
 90
        2
176
     1
  1
strokes_ogs.tif
176
     1
290
     0
176
     1
 40
1.0
176
     1
 40
1.0
176
     1
  0
VISUALSTYLE
  5
1000007
102
{ACAD_REACTORS
330
1000003
102
}
330
1000003
100
AcDbVisualStyle
  2
GouraudWithEdges
 70
     3
177
     3
291
     1
 70
    58
 90
        2
176
     1
 90
        2
176
     1
 90
        1
176
     1
 90
        2
176
     1
 40
0.6
176
     1
 40
30.0
176
     1
 62
     7
420
 16777215
176
     1
 90
        1
176
     1
 90
        0
176
     1
 62
     7
176
     1
 62
   257
176
     1
 90
        1
176
     1
 90
        1
176
     1
 40
1.0
176
     1
 90
        0
176
     1
 62
   257
176
     1
 40
1.0
176
     1
 90
        1
176
     1
 90
        6
176
     1
 90
        2
176
     1
 62
     7
176
     1
 90
        5
176
     1
 90
        0
176
     1
 90
        0
176
     1
290
     0
176
     1
 90
       13
176
     1
 40
0.0
176
     1
 90
        0
176
     1
290
     0
176
     1
290
     1
176
     1
290
     1
176
     1
290
     0
176
     1
290
     0
176
     1
290
     0
176
     1
290
     0
176
     1
290
     0
176
     1
290
     0
176
     1
 90
       50
176
     1
 40
0.0
176
     1
 40
1.0
176
     1
 90
        0
176
     1
 62
    18
420
        0
176
     1
 90
       50
176
     1
 90
        3
176
     1
 62
     5
420
      255
176
     1
290
     0
176
     1
 90
       50
176
     1
 90
       50
176
     1
 90
       50
176
     1
290
     0
176
     1
 90
       50
176
     1
 62
   256
176
     0
 40
1.0
176
     0
 90
        2
176
     1
  1
strokes_ogs.tif
176
     1
290
     0
176
     1
 40
1.0
176
     1
 40
1.0
176
     1
  0
VISUALSTYLE
  5
100000A
102
{ACAD_REACTORS
330
1000003
102
}
330
1000003
100
AcDbVisualStyle
  2
Hidden
 70
     6
177
     3
291
     0
 70
    58
 90
        1
176
     1
 90
        2
176
     1
 90
        2
176
     1
 90
        0
176
     1
 40
0.6
176
     1
 40
30.0
176
     1
 62
     7
420
 16777215
176
     1
 90
        2
176
     1
 90
        2
176
     1
 62
     7
176
     1
 62
   257
176
     1
 90
        2
176
     1
 90
        1
176
     1
 40
40.0
176
     1
 90
        0
176
     1
 62
   257
176
     1
 40
1.0
176
     1
 90
        1
176
     1
 90
        6
176
     1
 90
        2
176
     1
 62
     7
176
     1
 90
        3
176
     1
 90
        0
176
     1
 90
        0
176
     1
290
     0
176
     1
 90
        1
176
     1
 40
0.0
176
     1
 90
        0
176
     1
290
     0
176
     1
290
     1
176
     1
290
     1
176
     1
290
     0
176
     1
290
     0
176
     1
290
     0
176
     1
290
     0
176
     1
290
     0
176
     1
290
     0
176
     1
 90
       50
176
     1
 40
0.0
176
     1
 40
1.0
176
     1
 90
        0
176
     1
 62
    18
420
        0
176
     1
 90
       50
176
     1
 90
        3
176
     1
 62
     5
420
      255
176
     1
290
     0
176
     1
 90
       50
176
     1
 90
       50
176
     1
 90
       50
176
     1
290
     0
176
     1
 90
       50
176
     1
 62
   256
176
     0
 40
1.0
176
     0
 90
        2
176
     1
  1
strokes_ogs.tif
176
     1
290
     0
176
     1
 40
1.0
176
     1
 40
1.0
176
     1
  0
VISUALSTYLE
  5
1000014
102
{ACAD_REACTORS
330
1000003
102
}
330
1000003
100
AcDbVisualStyle
  2
JitterOff
 70
    20
177
     3
291
     1
 70
    58
 90
        2
176
     0
 90
        2
176
     0
 90
        0
176
     0
 90
        0
176
     0
 40
0.6
176
     0
 40
30.0
176
     0
 62
     7
420
 16777215
176
     0
 90
        1
176
     0
 90
        4
176
     0
 62
     7
176
     0
 62
   257
176
     0
 90
        1
176
     0
 90
        1
176
     0
 40
1.0
176
     0
 90
       10
176
     2
 62
     7
176
     0
 40
1.0
176
     0
 90
        1
176
     0
 90
        6
176
     0
 90
        2
176
     0
 62
     7
176
     0
 90
        5
176
     0
 90
        0
176
     0
 90
        0
176
     0
290
     0
176
     0
 90
        1
176
     0
 40
0.0
176
     0
 90
        0
176
     0
290
     0
176
     0
290
     1
176
     0
290
     1
176
     0
290
     0
176
     0
290
     0
176
     0
290
     0
176
     0
290
     0
176
     0
290
     0
176
     0
290
     0
176
     0
 90
       50
176
     0
 40
0.0
176
     0
 40
1.0
176
     0
 90
        0
176
     0
 62
    18
420
        0
176
     0
 90
       50
176
     0
 90
        3
176
     0
 62
     5
420
      255
176
     0
290
     0
176
     0
 90
       50
176
     0
 90
       50
176
     0
 90
       50
176
     0
290
     0
176
     0
 90
       50
176
     0
 62
   256
176
     0
 40
1.0
176
     0
 90
        2
176
     0
  1
strokes_ogs.tif
176
     0
290
     0
176
     0
 40
1.0
176
     0
 40
1.0
176
     0
  0
VISUALSTYLE
  5
1000011
102
{ACAD_REACTORS
330
1000003
102
}
330
1000003
100
AcDbVisualStyle
  2
Linepattern
 70
    14
177
     3
291
     1
 70
    58
 90
        2
176
     1
 90
        2
176
     1
 90
        0
176
     1
 90
        0
176
     1
 40
0.6
176
     1
 40
30.0
176
     1
 62
     7
420
 16777215
176
     1
 90
        1
176
     1
 90
        4
176
     1
 62
     7
176
     1
 62
   257
176
     1
 90
        7
176
     1
 90
        7
176
     1
 40
1.0
176
     1
 90
        8
176
     1
 62
     7
176
     1
 40
1.0
176
     1
 90
        1
176
     1
 90
        6
176
     1
 90
        2
176
     1
 62
     7
176
     1
 90
        5
176
     1
 90
        0
176
     1
 90
        0
176
     1
290
     0
176
     1
 90
        1
176
     1
 40
0.0
176
     1
 90
        0
176
     1
290
     0
176
     1
290
     1
176
     1
290
     1
176
     1
290
     0
176
     1
290
     0
176
     1
290
     0
176
     1
290
     0
176
     1
290
     0
176
     1
290
     0
176
     1
 90
       50
176
     1
 40
0.0
176
     1
 40
1.0
176
     1
 90
        0
176
     1
 62
    18
420
        0
176
     1
 90
       50
176
     1
 90
        3
176
     1
 62
     5
420
      255
176
     1
290
     0
176
     1
 90
       50
176
     1
 90
       50
176
     1
 90
       50
176
     1
290
     0
176
     1
 90
       50
176
     1
 62
   256
176
     0
 40
1.0
176
     0
 90
        2
176
     1
  1
strokes_ogs.tif
176
     1
290
     0
176
     1
 40
1.0
176
     1
 40
1.0
176
     1
  0
VISUALSTYLE
  5
1000015
102
{ACAD_REACTORS
330
1000003
102
}
330
1000003
100
AcDbVisualStyle
  2
OverhangOff
 70
    21
177
     3
291
     1
 70
    58
 90
        2
176
     0
 90
        2
176
     0
 90
        0
176
     0
 90
        0
176
     0
 40
0.6
176
     0
 40
30.0
176
     0
 62
     7
420
 16777215
176
     0
 90
        1
176
     0
 90
        4
176
     0
 62
     7
176
     0
 62
   257
176
     0
 90
        1
176
     0
 90
        1
176
     0
 40
1.0
176
     0
 90
        9
176
     2
 62
     7
176
     0
 40
1.0
176
     0
 90
        1
176
     0
 90
        6
176
     0
 90
        2
176
     0
 62
     7
176
     0
 90
        5
176
     0
 90
        0
176
     0
 90
        0
176
     0
290
     0
176
     0
 90
        1
176
     0
 40
0.0
176
     0
 90
        0
176
     0
290
     0
176
     0
290
     1
176
     0
290
     1
176
     0
290
     0
176
     0
290
     0
176
     0
290
     0
176
     0
290
     0
176
     0
290
     0
176
     0
290
     0
176
     0
 90
       50
176
     0
 40
0.0
176
     0
 40
1.0
176
     0
 90
        0
176
     0
 62
    18
420
        0
176
     0
 90
       50
176
     0
 90
        3
176
     0
 62
     5
420
      255
176
     0
290
     0
176
     0
 90
       50
176
     0
 90
       50
176
     0
 90
       50
176
     0
290
     0
176
     0
 90
       50
176
     0
 62
   256
176
     0
 40
1.0
176
     0
 90
        2
176
     0
  1
strokes_ogs.tif
176
     0
290
     0
176
     0
 40
1.0
176
     0
 40
1.0
176
     0
  0
VISUALSTYLE
  5
100000C
102
{ACAD_REACTORS
330
1000003
102
}
330
1000003
100
AcDbVisualStyle
  2
Realistic
 70
     8
177
     3
291
     0
 70
    58
 90
        2
176
     1
 90
        3
176
     1
 90
        0
176
     1
 90
        2
176
     1
 40
0.6
176
     1
 40
30.0
176
     1
 62
     7
420
 16777215
176
     1
 90
        0
176
     1
 90
        0
176
     1
 62
     7
176
     1
 62
   257
176
     1
 90
        1
176
     1
 90
        1
176
     1
 40
1.0
176
     1
 90
        8
176
     1
 62
   257
176
     1
 40
1.0
176
     1
 90
        1
176
     1
 90
        6
176
     1
 90
        2
176
     1
 62
     7
176
     1
 90
        3
176
     1
 90
        0
176
     1
 90
        0
176
     1
290
     0
176
     1
 90
       13
176
     1
 40
0.0
176
     1
 90
        0
176
     1
290
     0
176
     1
290
     1
176
     1
290
     1
176
     1
290
     0
176
     1
290
     0
176
     1
290
     0
176
     1
290
     0
176
     1
290
     0
176
     1
290
     0
176
     1
 90
       50
176
     1
 40
0.0
176
     1
 40
1.0
176
     1
 90
        0
176
     1
 62
    18
420
        0
176
     1
 90
       50
176
     1
 90
        3
176
     1
 62
     5
420
      255
176
     1
290
     0
176
     1
 90
       50
176
     1
 90
       50
176
     1
 90
       50
176
     1
290
     0
176
     1
 90
       50
176
     1
 62
   256
176
     0
 40
1.0
176
     0
 90
        2
176
     1
  1
strokes_ogs.tif
176
     1
290
     0
176
     1
 40
1.0
176
     1
 40
1.0
176
     1
  0
VISUALSTYLE
  5
100001B
102
{ACAD_REACTORS
330
1000003
102
}
330
1000003
100
AcDbVisualStyle
  2
Shaded
 70
    27
177
     3
291
     0
 70
    58
 90
        2
176
     1
 90
        2
176
     1
 90
        1
176
     1
 90
        2
176
     1
 40
0.6
176
     1
 40
30.0
176
     1
 62
     7
420
 16777215
176
     1
 90
        0
176
     1
 90
        4
176
     1
 62
     7
176
     1
 62
   257
176
     1
 90
        1
176
     1
 90
        1
176
     1
 40
1.0
176
     1
 90
        8
176
     1
 62
   257
176
     1
 40
1.0
176
     1
 90
        1
176
     1
 90
        6
176
     1
 90
        2
176
     1
 62
     8
420
  7895160
176
     1
 90
        3
176
     1
 90
        0
176
     1
 90
        0
176
     1
290
     0
176
     1
 90
        5
176
     1
 40
0.0
176
     1
 90
        0
176
     1
290
     0
176
     1
290
     1
176
     1
290
     1
176
     1
290
     0
176
     1
290
     0
176
     1
290
     0
176
     1
290
     0
176
     1
290
     0
176
     1
290
     0
176
     1
 90
       50
176
     1
 40
0.0
176
     1
 40
1.0
176
     1
 90
        0
176
     1
 62
    18
420
        0
176
     1
 90
       50
176
     1
 90
        3
176
     1
 62
     5
420
      255
176
     1
290
     0
176
     1
 90
       50
176
     1
 90
       50
176
     1
 90
       50
176
     1
290
     0
176
     1
 90
       50
176
     1
 62
   256
176
     0
 40
1.0
176
     0
 90
        2
176
     1
  1
strokes_ogs.tif
176
     1
290
     0
176
     1
 40
1.0
176
     1
 40
1.0
176
     1
  0
VISUALSTYLE
  5
100001A
102
{ACAD_REACTORS
330
1000003
102
}
330
1000003
100
AcDbVisualStyle
  2
Shaded with edges
 70
    26
177
     3
291
     0
 70
    58
 90
        2
176
     1
 90
        2
176
     1
 90
        1
176
     1
 90
        2
176
     1
 40
0.6
176
     1
 40
30.0
176
     1
 62
     7
420
 16777215
176
     1
 90
        1
176
     1
 90
       10
176
     1
 62
     7
176
     1
 62
   257
176
     1
 90
        2
176
     1
 90
        1
176
     1
 40
1.0
176
     1
 90
        8
176
     1
 62
   257
176
     1
 40
1.0
176
     1
 90
        1
176
     1
 90
        6
176
     1
 90
        2
176
     1
 62
     7
176
     1
 90
        3
176
     1
 90
        0
176
     1
 90
        0
176
     1
290
     0
176
     1
 90
        5
176
     1
 40
0.0
176
     1
 90
        0
176
     1
290
     0
176
     1
290
     1
176
     1
290
     1
176
     1
290
     0
176
     1
290
     0
176
     1
290
     0
176
     1
290
     0
176
     1
290
     0
176
     1
290
     0
176
     1
 90
       50
176
     1
 40
0.0
176
     1
 40
1.0
176
     1
 90
        0
176
     1
 62
    18
420
        0
176
     1
 90
       50
176
     1
 90
        3
176
     1
 62
     5
420
      255
176
     1
290
     0
176
     1
 90
       50
176
     1
 90
       50
176
     1
 90
       50
176
     1
290
     0
176
     1
 90
       50
176
     1
 62
   256
176
     0
 40
1.0
176
     0
 90
        2
176
     1
  1
strokes_ogs.tif
176
     1
290
     0
176
     1
 40
1.0
176
     1
 40
1.0
176
     1
  0
VISUALSTYLE
  5
1000017
102
{ACAD_REACTORS
330
1000003
102
}
330
1000003
100
AcDbVisualStyle
  2
Shades of Gray
 70
    23
177
     3
291
     0
 70
    58
 90
        2
176
     1
 90
        2
176
     1
 90
        3
176
     1
 90
        0
176
     1
 40
0.6
176
     1
 40
30.0
176
     1
 62
     7
420
 16777215
176
     1
 90
        2
176
     1
 90
        2
176
     1
 62
     7
176
     1
 62
     7
176
     1
 90
        1
176
     1
 90
        1
176
     1
 40
40.0
176
     1
 90
        8
176
     1
 62
     7
176
     1
 40
1.0
176
     1
 90
        1
176
     1
 90
        6
176
     1
 90
        2
176
     1
 62
     7
176
     1
 90
        3
176
     1
 90
        0
176
     1
 90
        0
176
     1
290
     0
176
     1
 90
        1
176
     1
 40
0.0
176
     1
 90
        0
176
     1
290
     0
176
     1
290
     1
176
     1
290
     1
176
     1
290
     0
176
     1
290
     0
176
     1
290
     0
176
     1
290
     0
176
     1
290
     0
176
     1
290
     0
176
     1
 90
       50
176
     1
 40
0.0
176
     1
 40
1.0
176
     1
 90
        0
176
     1
 62
    18
420
        0
176
     1
 90
       50
176
     1
 90
        3
176
     1
 62
     5
420
      255
176
     1
290
     0
176
     1
 90
       50
176
     1
 90
       50
176
     1
 90
       50
176
     1
290
     0
176
     1
 90
       50
176
     1
 62
   256
176
     0
 40
1.0
176
     0
 90
        2
176
     1
  1
strokes_ogs.tif
176
     1
290
     0
176
     1
 40
1.0
176
     1
 40
1.0
176
     1
  0
VISUALSTYLE
  5
1000018
102
{ACAD_REACTORS
330
1000003
102
}
330
1000003
100
AcDbVisualStyle
  2
Sketchy
 70
    24
177
     3
291
     0
 70
    58
 90
        1
176
     1
 90
        2
176
     1
 90
        2
176
     1
 90
        0
176
     1
 40
0.6
176
     1
 40
30.0
176
     1
 62
     7
420
 16777215
176
     1
 90
        2
176
     1
 90
        2
176
     1
 62
     7
176
     1
 62
     7
176
     1
 90
        1
176
     1
 90
        1
176
     1
 40
40.0
176
     1
 90
       11
176
     1
 62
     7
176
     1
 40
1.0
176
     1
 90
        1
176
     1
 90
        6
176
     1
 90
        2
176
     1
 62
     7
176
     1
 90
        6
176
     1
 90
        0
176
     1
 90
        0
176
     1
290
     0
176
     1
 90
        1
176
     1
 40
0.0
176
     1
 90
        0
176
     1
290
     0
176
     1
290
     1
176
     1
290
     1
176
     1
290
     0
176
     1
290
     0
176
     1
290
     0
176
     1
290
     0
176
     1
290
     0
176
     1
290
     0
176
     1
 90
       50
176
     1
 40
0.0
176
     1
 40
1.0
176
     1
 90
        0
176
     1
 62
    18
420
        0
176
     1
 90
       50
176
     1
 90
        3
176
     1
 62
     5
420
      255
176
     1
290
     0
176
     1
 90
       50
176
     1
 90
       50
176
     1
 90
       50
176
     1
290
     0
176
     1
 90
       50
176
     1
 62
   256
176
     0
 40
1.0
176
     0
 90
        2
176
     1
  1
strokes_ogs.tif
176
     1
290
     0
176
     1
 40
1.0
176
     1
 40
1.0
176
     1
  0
VISUALSTYLE
  5
1000010
102
{ACAD_REACTORS
330
1000003
102
}
330
1000003
100
AcDbVisualStyle
  2
Thicken
 70
    13
177
     3
291
     1
 70
    58
 90
        2
176
     1
 90
        2
176
     1
 90
        0
176
     1
 90
        0
176
     1
 40
0.6
176
     1
 40
30.0
176
     1
 62
     7
420
 16777215
176
     1
 90
        1
176
     1
 90
        4
176
     1
 62
     7
176
     1
 62
   257
176
     1
 90
        1
176
     1
 90
        1
176
     1
 40
1.0
176
     1
 90
       12
176
     1
 62
     7
176
     1
 40
1.0
176
     1
 90
        1
176
     1
 90
        6
176
     1
 90
        2
176
     1
 62
     7
176
     1
 90
        5
176
     1
 90
        0
176
     1
 90
        0
176
     1
290
     0
176
     1
 90
        1
176
     1
 40
0.0
176
     1
 90
        0
176
     1
290
     0
176
     1
290
     1
176
     1
290
     1
176
     1
290
     0
176
     1
290
     0
176
     1
290
     0
176
     1
290
     0
176
     1
290
     0
176
     1
290
     0
176
     1
 90
       50
176
     1
 40
0.0
176
     1
 40
1.0
176
     1
 90
        0
176
     1
 62
    18
420
        0
176
     1
 90
       50
176
     1
 90
        3
176
     1
 62
     5
420
      255
176
     1
290
     0
176
     1
 90
       50
176
     1
 90
       50
176
     1
 90
       50
176
     1
290
     0
176
     1
 90
       50
176
     1
 62
   256
176
     0
 40
1.0
176
     0
 90
        2
176
     1
  1
strokes_ogs.tif
176
     1
290
     0
176
     1
 40
1.0
176
     1
 40
1.0
176
     1
  0
VISUALSTYLE
  5
1000009
102
{ACAD_REACTORS
330
1000003
102
}
330
1000003
100
AcDbVisualStyle
  2
Wireframe
 70
     5
177
     3
291
     0
 70
    58
 90
        0
176
     1
 90
        2
176
     1
 90
        0
176
     1
 90
        0
176
     1
 40
0.6
176
     1
 40
30.0
176
     1
 62
     7
420
 16777215
176
     1
 90
        1
176
     1
 90
        4
176
     1
 62
     7
176
     1
 62
   257
176
     1
 90
        1
176
     1
 90
        1
176
     1
 40
1.0
176
     1
 90
        0
176
     1
 62
   257
176
     1
 40
1.0
176
     1
 90
        1
176
     1
 90
        6
176
     1
 90
        2
176
     1
 62
     7
176
     1
 90
        3
176
     1
 90
        0
176
     1
 90
        0
176
     1
290
     0
176
     1
 90
        1
176
     1
 40
0.0
176
     1
 90
        0
176
     1
290
     0
176
     1
290
     1
176
     1
290
     1
176
     1
290
     0
176
     1
290
     0
176
     1
290
     0
176
     1
290
     0
176
     1
290
     0
176
     1
290
     0
176
     1
 90
       50
176
     1
 40
0.0
176
     1
 40
1.0
176
     1
 90
        0
176
     1
 62
    18
420
        0
176
     1
 90
       50
176
     1
 90
        3
176
     1
 62
     5
420
      255
176
     1
290
     0
176
     1
 90
       50
176
     1
 90
       50
176
     1
 90
       50
176
     1
290
     0
176
     1
 90
       50
176
     1
 62
   256
176
     0
 40
1.0
176
     0
 90
        2
176
     1
  1
strokes_ogs.tif
176
     1
290
     0
176
     1
 40
1.0
176
     1
 40
1.0
176
     1
  0
VISUALSTYLE
  5
1000019
102
{ACAD_REACTORS
330
1000003
102
}
330
1000003
100
AcDbVisualStyle
  2
X-Ray
 70
    25
177
     3
291
     0
 70
    58
 90
        2
176
     1
 90
        2
176
     1
 90
        1
176
     1
 90
        1
176
     1
 40
0.5
176
     1
 40
30.0
176
     1
 62
     7
420
 16777215
176
     1
 90
        1
176
     1
 90
        0
176
     1
 62
     7
176
     1
 62
   257
176
     1
 90
        1
176
     1
 90
        1
176
     1
 40
1.0
176
     1
 90
        8
176
     1
 62
     7
176
     1
 40
1.0
176
     1
 90
        1
176
     1
 90
        6
176
     1
 90
        2
176
     1
 62
     7
176
     1
 90
        3
176
     1
 90
        0
176
     1
 90
        0
176
     1
290
     0
176
     1
 90
       13
176
     1
 40
0.0
176
     1
 90
        0
176
     1
290
     0
176
     1
290
     1
176
     1
290
     1
176
     1
290
     0
176
     1
290
     0
176
     1
290
     0
176
     1
290
     0
176
     1
290
     0
176
     1
290
     0
176
     1
 90
       50
176
     1
 40
0.0
176
     1
 40
1.0
176
     1
 90
        0
176
     1
 62
    18
420
        0
176
     1
 90
       50
176
     1
 90
        3
176
     1
 62
     5
420
      255
176
     1
290
     0
176
     1
 90
       50
176
     1
 90
       50
176
     1
 90
       50
176
     1
290
     0
176
     1
 90
       50
176
     1
 62
   256
176
     0
 40
1.0
176
     0
 90
        2
176
     1
  1
strokes_ogs.tif
176
     1
290
     0
176
     1
 40
1.0
176
     1
 40
1.0
176
     1
  0
DICTIONARYVAR
  5
10000EB
102
{ACAD_REACTORS
330
10000E7
102
}
330
10000E7
100
DictionaryVariables
280
     0
  1
1:1
  0
DICTIONARYVAR
  5
10000E9
102
{ACAD_REACTORS
330
10000E7
102
}
330
10000E7
100
DictionaryVariables
280
     0
  1
Standard
  0
DICTIONARYVAR
  5
10000E8
102
{ACAD_REACTORS
330
10000E7
102
}
330
10000E7
100
DictionaryVariables
280
     0
  1
Standard
  0
DICTIONARYVAR
  5
10000EA
102
{ACAD_REACTORS
330
10000E7
102
}
330
10000E7
100
DictionaryVariables
280
     0
  1
0
  0
ENDSEC
  0
SECTION
  2
ACDSDATA
 70
     2
 71
     2
  0
ACDSSCHEMA
 90
        0
  1
AcDb3DSolid_ASM_Data
  2
AcDbDs::ID
280
    10
 91
        0
  2
ASM_Data
280
    15
 91
        0
101
ACDSRECORD
 95
        0
 90
        1
  2
AcDbDs::TreatedAsObjectData
280
     1
291
     1
101
ACDSRECORD
 95
        0
 90
        2
  2
AcDbDs::Legacy
280
     1
291
     1
101
ACDSRECORD
  1
AcDbDs::ID
 90
        3
  2
AcDs:Indexable
280
     1
291
     1
101
ACDSRECORD
  1
AcDbDs::ID
 90
        4
  2
AcDbDs::HandleAttribute
280
     7
282
     1
  0
ACDSSCHEMA
 90
        1
  1
AcDbDs::TreatedAsObjectDataSchema
  2
AcDbDs::TreatedAsObjectData
280
     1
 91
        0
  0
ACDSSCHEMA
 90
        2
  1
AcDbDs::LegacySchema
  2
AcDbDs::Legacy
280
     1
 91
        0
  0
ACDSSCHEMA
 90
        3
  1
AcDbDs::IndexedPropertySchema
  2
AcDs:Indexable
280
     1
 91
        0
  0
ACDSSCHEMA
 90
        4
  1
AcDbDs::HandleAttributeSchema
  2
AcDbDs::HandleAttribute
280
     7
 91
        8
  0
ENDSEC
  0
EOF
