  0
SECTION
  2
HEADER
  9
$ACADVER
  1
AC1018
  9
$HANDSEED
  5
FFFFFF
  9
$EXTMAX
 10
7568435.54999999981
 20
5715754.0
 30
1000000.00
  9
$EXTMIN
 10
7567996.28000000026
 20
5715565.73000000045
 30
0.00
  9
$LIMMIN
 10
7567996.28000000026
 20
5715565.73000000045
  9
$LIMMAX
 10
7568435.54999999981
 20
5715754.0
  9
$DIMASZ
 40
2.5
  9
$DIMGAP
 40
0.625
  9
$INSUNITS
 70
6
  9
$DIMEXO
 40
0.625
  9
$DIMTXT
 40
2.5
  9
$DIMSTYLE
  2
Standard
  9
$PLIMMIN
 10
0.0
 20
0.0
  9
$PLIMMAX
 10
210.0
 20
297.0
  9
$DIMEXE
 40
1.25
  9
$TEXTSIZE
 40
2.5
  9
$TEXTSTYLE
  7
Standard
  9
$LWDISPLAY
290
1
  9
$TDCREATE
 40
44776.630385845
  9
$TDUCREATE
 40
44776.547052512
  9
$TDUPDATE
 40
44776.630385845
  9
$TDUUPDATE
 40
44776.547052512
  9
$TDINDWG
 40
0.0
  9
$TDUSRTIMER
 40
0.0
  9
$USRTIMER
 70
1
  0
ENDSEC
  0
SECTION
  2
TABLES
  0
TABLE
  2
VPORT
  5
1
100
AcDbSymbolTable
 70
1
  0
VPORT
  5
2
100
AcDbSymbolTableRecord
100
AcDbViewportTableRecord
  2
*ACTIVE
 70
0
 10
0.0
 20
0.0
 11
1.0
 21
1.0
 12
7568215.92
 22
5715659.87
 13
0.0
 23
0.0
 14
1.0
 24
1.0
 15
0.0
 25
0.0
 16
0.0
 26
0.0
 36
1.0
 17
0.0
 27
0.0
 37
0.0
 40
188.27
 41
2.33
 42
50.0
 43
0.0
 44
0.0
 50
0.0
 51
0.0
 71
0
 72
100
 73
1
 74
1
 75
0
 76
0
 77
0
 78
0
  0
ENDTAB
  0
TABLE
  2
LTYPE
  5
3
100
AcDbSymbolTable
 70
3
  0
LTYPE
  5
4
100
AcDbSymbolTableRecord
100
AcDbLinetypeTableRecord
  2
ByBlock
 70
0
  3

 72
65
 73
0
 40
0.0
  0
LTYPE
  5
5
100
AcDbSymbolTableRecord
100
AcDbLinetypeTableRecord
  2
ByLayer
 70
0
  3

 72
65
 73
0
 40
0.0
  0
LTYPE
  5
6
100
AcDbSymbolTableRecord
100
AcDbLinetypeTableRecord
  2
CONTINUOUS
 70
0
  3
Solid line
 72
65
 73
0
 40
0.0
  0
LTYPE
  5
8
100
AcDbSymbolTableRecord
100
AcDbLinetypeTableRecord
  2
L_0_02
 70
0
  3
Dzialka_ewidencyjna (MLineStyle)
 72
65
 73
0
 40
0.0
  0
LTYPE
  5
9
100
AcDbSymbolTableRecord
100
AcDbLinetypeTableRecord
  2
L_0_03
 70
0
  3
Uzytek_gruntowy
 72
65
 73
2
 40
1.0
 49
0.5
 74
0
 49
-0.5
 74
0
  0
LTYPE
  5
A
100
AcDbSymbolTableRecord
100
AcDbLinetypeTableRecord
  2
L_0_06
 70
0
  3
Granica_konturu_klasyfikacyjnego_Krawedz_chodnika
 72
65
 73
2
 40
2.0
 49
1.5
 74
0
 49
-0.5
 74
0
  0
ENDTAB
  0
TABLE
  2
LAYER
  5
B
100
AcDbSymbolTable
 70
2
  0
LAYER
  5
C
100
AcDbSymbolTableRecord
100
AcDbLayerTableRecord
  2
0
 70
0
420
0
  6
CONTINUOUS
370
18
390
D
  0
LAYER
  5
E
100
AcDbSymbolTableRecord
100
AcDbLayerTableRecord
  2
Dzialki
 70
0
420
0
  6
L_0_02
370
18
390
D
  0
ENDTAB
  0
TABLE
  2
STYLE
  5
F
100
AcDbSymbolTable
 70
2
  0
STYLE
  5
10
100
AcDbSymbolTableRecord
100
AcDbTextStyleTableRecord
  2
STANDARD
 70
0
 40
0.0
 41
1.0
 50
0.0
 71
0
  3
simplex.shx
  4

  0
STYLE
  5
11
100
AcDbSymbolTableRecord
100
AcDbTextStyleTableRecord
  2
STANDARD_ITALIC
 70
0
 40
0.0
 41
1.0
 50
15.0
 71
0
  3
simplex.shx
  4

  0
ENDTAB
  0
TABLE
  2
VIEW
  5
12
100
AcDbSymbolTable
 70
0
  0
ENDTAB
  0
TABLE
  2
UCS
  5
13
100
AcDbSymbolTable
 70
0
  0
ENDTAB
  0
TABLE
  2
APPID
  5
14
100
AcDbSymbolTable
 70
1
  0
APPID
  5
15
100
AcDbSymbolTableRecord
100
AcDbRegAppTableRecord
  2
ACAD
 70
0
  0
ENDTAB
  0
TABLE
  2
DIMSTYLE
  5
16
100
AcDbSymbolTable
 70
1
100
AcDbDimStyleTable
  0
DIMSTYLE
105
17
100
AcDbSymbolTableRecord
100
AcDbDimStyleTableRecord
  2
Standard
 70
0
340
10
  0
ENDTAB
  0
TABLE
  2
BLOCK_RECORD
  5
18
100
AcDbSymbolTable
 70
5
  0
BLOCK_RECORD
  5
19
100
AcDbSymbolTableRecord
100
AcDbBlockTableRecord
  2
*Model_Space
340
1A
  0
BLOCK_RECORD
  5
1B
100
AcDbSymbolTableRecord
100
AcDbBlockTableRecord
  2
*Paper_Space
340
1C
  0
BLOCK_RECORD
  5
1D
100
AcDbSymbolTableRecord
100
AcDbBlockTableRecord
  2
EGPG_N
340
1E
  0
BLOCK_RECORD
  5
1F
100
AcDbSymbolTableRecord
100
AcDbBlockTableRecord
  2
L_0_02_1
340
20
  0
BLOCK_RECORD
  5
21
100
AcDbSymbolTableRecord
100
AcDbBlockTableRecord
  2
L_0_02_2
340
22
  0
ENDTAB
  0
ENDSEC
  0
SECTION
  2
BLOCKS
  0
BLOCK
  5
23
100
AcDbEntity
  8
0
100
AcDbBlockBegin
  2
*Model_Space
 70
0
 10
0.0
 20
0.0
 30
0.0
  3
*Model_Space
  1

  0
ENDBLK
  5
24
100
AcDbEntity
  8
0
100
AcDbBlockEnd
  0
BLOCK
  5
25
100
AcDbEntity
 67
1
  8
0
100
AcDbBlockBegin
  2
*Paper_Space
 70
0
 10
0.0
 20
0.0
 30
0.0
  3
*Paper_Space
  1

  0
ENDBLK
  5
26
100
AcDbEntity
 67
1
  8
0
100
AcDbBlockEnd
  0
BLOCK
  5
1E
100
AcDbEntity
  8
0
100
AcDbBlockBegin
 62
0
370
13
  2
EGPG_N
 70
0
 10
0
 20
0
 30
0
  3
EGPG.N
  0
HATCH
  5
27
100
AcDbEntity
  8
0
  6
CONTINUOUS
420
16777215
370
13
100
AcDbHatch
 10
0.0
 20
0.0
 30
0.0
210
0.0
220
0.0
230
1.0
  2
SOLID
 70
1
 71
1
 91
1
 92
3
 72
1
 73
1
 93
2
 10
0.0
 20
-0.5
 42
1.0
 10
0.0
 20
0.5
 42
1.0
 97
0
 75
0
 76
1
 98
0
  0
HATCH
  5
28
100
AcDbEntity
  8
0
  6
CONTINUOUS
 62
0
370
13
100
AcDbHatch
 10
0.0
 20
0.0
 30
0.0
210
0.0
220
0.0
230
1.0
  2
SOLID
 70
1
 71
1
 91
1
 92
3
 72
1
 73
1
 93
2
 10
0.0
 20
-0.1
 42
1.0
 10
0.0
 20
0.1
 42
1.0
 97
0
 75
0
 76
1
 98
0
  0
CIRCLE
  5
29
100
AcDbEntity
  8
0
  6
CONTINUOUS
 62
0
370
13
100
AcDbCircle
 10
0.0
 20
-0.0
 40
0.1
  0
ENDBLK
  5
2A
100
AcDbEntity
  8
0
100
AcDbBlockEnd
  0
BLOCK
  5
20
100
AcDbEntity
  8
0
100
AcDbBlockBegin
 62
0
370
13
  2
L_0_02_1
 70
0
 10
0
 20
0
 30
0
  3
L_0_02_1
  0
POINT
  5
2B
100
AcDbEntity
  8
0
100
AcDbPoint
 62
0
 10
0.0
 20
0.0
 30
0.000
  0
ENDBLK
  5
2C
100
AcDbEntity
  8
0
100
AcDbBlockEnd
  0
BLOCK
  5
22
100
AcDbEntity
  8
0
100
AcDbBlockBegin
 62
0
370
13
  2
L_0_02_2
 70
0
 10
0
 20
0
 30
0
  3
L_0_02_2
  0
POINT
  5
2D
100
AcDbEntity
  8
0
100
AcDbPoint
 62
0
 10
-0.0
 20
-0.0
 30
0.000
  0
ENDBLK
  5
2E
100
AcDbEntity
  8
0
100
AcDbBlockEnd
  0
ENDSEC
  0
SECTION
  2
ENTITIES
  0
INSERT
  5
2F
100
AcDbEntity
  8
Dzialki
  6
CONTINUOUS
100
AcDbBlockReference
 66
0
  2
L_0_02_1
 10
7568055.11000000034
 20
5715754.0
 41
0.50
 42
0.50
 43
0.50
 50
214.72
  0
INSERT
  5
30
100
AcDbEntity
  8
Dzialki
  6
CONTINUOUS
100
AcDbBlockReference
 66
0
  2
L_0_02_2
 10
7568039.34999999963
 20
5715743.08000000007
 41
0.50
 42
0.50
 43
0.50
 50
34.72
  0
MLINE
  5
31
100
AcDbEntity
  8
Dzialki
  6
L_0_02
370
18
100
AcDbMline
  2
L_0_02
340
7
 40
1.0
 70
1
 71
1
 72
2
 73
1
 10
7568055.11000000034
 20
5715754.0
210
0.0
220
0.0
230
1.0
 11
7568055.11000000034
 21
5715754.0
 12
-0.821966816545
 22
-0.569535383008
 13
0.569535383008
 23
-0.821966816545
 74
3
 41
0.0
 41
0.25
 41
18.923523411744
 75
0
 11
7568039.34999999963
 21
5715743.08000000007
 12
-0.821966816545
 22
-0.569535383008
 13
0.569535383008
 23
-0.821966816545
 74
0
 75
0
  0
INSERT
  5
32
100
AcDbEntity
  8
Dzialki
  6
CONTINUOUS
100
AcDbBlockReference
 66
0
  2
L_0_02_1
 10
7568039.34999999963
 20
5715743.08000000007
 41
0.50
 42
0.50
 43
0.50
 50
341.90
  0
INSERT
  5
33
100
AcDbEntity
  8
Dzialki
  6
CONTINUOUS
100
AcDbBlockReference
 66
0
  2
L_0_02_2
 10
7568366.08999999985
 20
5715636.26999999862
 41
0.50
 42
0.50
 43
0.50
 50
161.90
  0
MLINE
  5
34
100
AcDbEntity
  8
Dzialki
  6
L_0_02
370
18
100
AcDbMline
  2
L_0_02
340
7
 40
1.0
 70
1
 71
1
 72
2
 73
1
 10
7568039.34999999963
 20
5715743.08000000007
210
0.0
220
0.0
230
1.0
 11
7568039.34999999963
 21
5715743.08000000007
 12
0.950502925548
 22
-0.310715607147
 13
0.310715607147
 23
0.950502925548
 74
3
 41
0.0
 41
0.25
 41
343.504859893582
 75
0
 11
7568366.08999999985
 21
5715636.26999999862
 12
0.950502925548
 22
-0.310715607147
 13
0.310715607147
 23
0.950502925548
 74
0
 75
0
  0
INSERT
  5
35
100
AcDbEntity
  8
Dzialki
  6
CONTINUOUS
100
AcDbBlockReference
 66
0
  2
L_0_02_1
 10
7568366.08999999985
 20
5715636.26999999862
 41
0.50
 42
0.50
 43
0.50
 50
341.89
  0
INSERT
  5
36
100
AcDbEntity
  8
Dzialki
  6
CONTINUOUS
100
AcDbBlockReference
 66
0
  2
L_0_02_2
 10
7568400.16000000015
 20
5715625.12999999989
 41
0.50
 42
0.50
 43
0.50
 50
161.89
  0
MLINE
  5
37
100
AcDbEntity
  8
Dzialki
  6
L_0_02
370
18
100
AcDbMline
  2
L_0_02
340
7
 40
1.0
 70
1
 71
1
 72
2
 73
1
 10
7568366.08999999985
 20
5715636.26999999862
210
0.0
220
0.0
230
1.0
 11
7568366.08999999985
 21
5715636.26999999862
 12
0.950481062987
 22
-0.310782478438
 13
0.310782478438
 23
0.950481062987
 74
3
 41
0.0
 41
0.25
 41
35.595006625639
 75
0
 11
7568400.16000000015
 21
5715625.12999999989
 12
0.950481062987
 22
-0.310782478438
 13
0.310782478438
 23
0.950481062987
 74
0
 75
0
  0
INSERT
  5
38
100
AcDbEntity
  8
Dzialki
  6
CONTINUOUS
100
AcDbBlockReference
 66
0
  2
L_0_02_1
 10
7568400.16000000015
 20
5715625.12999999989
 41
0.50
 42
0.50
 43
0.50
 50
102.16
  0
INSERT
  5
39
100
AcDbEntity
  8
Dzialki
  6
CONTINUOUS
100
AcDbBlockReference
 66
0
  2
L_0_02_2
 10
7568397.71999999974
 20
5715636.45000000019
 41
0.50
 42
0.50
 43
0.50
 50
282.16
  0
MLINE
  5
3A
100
AcDbEntity
  8
Dzialki
  6
L_0_02
370
18
100
AcDbMline
  2
L_0_02
340
7
 40
1.0
 70
1
 71
1
 72
2
 73
1
 10
7568400.16000000015
 20
5715625.12999999989
210
0.0
220
0.0
230
1.0
 11
7568400.16000000015
 21
5715625.12999999989
 12
-0.210708431737
 22
0.977548953657
 13
-0.977548953657
 23
-0.210708431737
 74
3
 41
0.0
 41
0.25
 41
11.329982729208
 75
0
 11
7568397.71999999974
 21
5715636.45000000019
 12
-0.210708431737
 22
0.977548953657
 13
-0.977548953657
 23
-0.210708431737
 74
0
 75
0
  0
INSERT
  5
3B
100
AcDbEntity
  8
Dzialki
  6
CONTINUOUS
100
AcDbBlockReference
 66
0
  2
L_0_02_1
 10
7568039.34999999963
 20
5715743.08000000007
 41
0.50
 42
0.50
 43
0.50
 50
214.73
  0
INSERT
  5
3C
100
AcDbEntity
  8
Dzialki
  6
CONTINUOUS
100
AcDbBlockReference
 66
0
  2
L_0_02_2
 10
7568038.46999999974
 20
5715742.46999999974
 41
0.50
 42
0.50
 43
0.50
 50
34.73
  0
MLINE
  5
3D
100
AcDbEntity
  8
Dzialki
  6
L_0_02
370
18
100
AcDbMline
  2
L_0_02
340
7
 40
1.0
 70
1
 71
1
 72
2
 73
1
 10
7568039.34999999963
 20
5715743.08000000007
210
0.0
220
0.0
230
1.0
 11
7568039.34999999963
 21
5715743.08000000007
 12
-0.821855834286
 22
-0.569695521879
 13
0.569695521879
 23
-0.821855834286
 74
3
 41
0.0
 41
0.25
 41
0.820747402618
 75
0
 11
7568038.46999999974
 21
5715742.46999999974
 12
-0.821855834286
 22
-0.569695521879
 13
0.569695521879
 23
-0.821855834286
 74
0
 75
0
  0
INSERT
  5
3E
100
AcDbEntity
  8
Dzialki
  6
CONTINUOUS
100
AcDbBlockReference
 66
0
  2
L_0_02_1
 10
7568038.46999999974
 20
5715742.46999999974
 41
0.50
 42
0.50
 43
0.50
 50
215.67
  0
INSERT
  5
3F
100
AcDbEntity
  8
Dzialki
  6
CONTINUOUS
100
AcDbBlockReference
 66
0
  2
L_0_02_2
 10
7568033.96999999974
 20
5715739.24000000022
 41
0.50
 42
0.50
 43
0.50
 50
35.67
  0
MLINE
  5
40
100
AcDbEntity
  8
Dzialki
  6
L_0_02
370
18
100
AcDbMline
  2
L_0_02
340
7
 40
1.0
 70
1
 71
1
 72
2
 73
1
 10
7568038.46999999974
 20
5715742.46999999974
210
0.0
220
0.0
230
1.0
 11
7568038.46999999974
 21
5715742.46999999974
 12
-0.812389518505
 22
-0.583115143195
 13
0.583115143195
 23
-0.812389518505
 74
3
 41
0.0
 41
0.25
 41
5.28921474551
 75
0
 11
7568033.96999999974
 21
5715739.24000000022
 12
-0.812389518505
 22
-0.583115143195
 13
0.583115143195
 23
-0.812389518505
 74
0
 75
0
  0
INSERT
  5
41
100
AcDbEntity
  8
Dzialki
  6
CONTINUOUS
100
AcDbBlockReference
 66
0
  2
L_0_02_1
 10
7568033.96999999974
 20
5715739.24000000022
 41
0.50
 42
0.50
 43
0.50
 50
341.67
  0
INSERT
  5
42
100
AcDbEntity
  8
Dzialki
  6
CONTINUOUS
100
AcDbBlockReference
 66
0
  2
L_0_02_2
 10
7568364.95999999996
 20
5715629.55999999959
 41
0.50
 42
0.50
 43
0.50
 50
161.67
  0
MLINE
  5
43
100
AcDbEntity
  8
Dzialki
  6
L_0_02
370
18
100
AcDbMline
  2
L_0_02
340
7
 40
1.0
 70
1
 71
1
 72
2
 73
1
 10
7568033.96999999974
 20
5715739.24000000022
210
0.0
220
0.0
230
1.0
 11
7568033.96999999974
 21
5715739.24000000022
 12
0.949241052017
 22
-0.314549559158
 13
0.314549559158
 23
0.949241052017
 74
3
 41
0.0
 41
0.25
 41
348.439091455822
 75
0
 11
7568364.95999999996
 21
5715629.55999999959
 12
0.949241052017
 22
-0.314549559158
 13
0.314549559158
 23
0.949241052017
 74
0
 75
0
  0
INSERT
  5
44
100
AcDbEntity
  8
Dzialki
  6
CONTINUOUS
100
AcDbBlockReference
 66
0
  2
L_0_02_1
 10
7568364.95999999996
 20
5715629.55999999959
 41
0.50
 42
0.50
 43
0.50
 50
341.66
  0
INSERT
  5
45
100
AcDbEntity
  8
Dzialki
  6
CONTINUOUS
100
AcDbBlockReference
 66
0
  2
L_0_02_2
 10
7568402.75999999978
 20
5715617.03000000026
 41
0.50
 42
0.50
 43
0.50
 50
161.66
  0
MLINE
  5
46
100
AcDbEntity
  8
Dzialki
  6
L_0_02
370
18
100
AcDbMline
  2
L_0_02
340
7
 40
1.0
 70
1
 71
1
 72
2
 73
1
 10
7568364.95999999996
 20
5715629.55999999959
210
0.0
220
0.0
230
1.0
 11
7568364.95999999996
 21
5715629.55999999959
 12
0.949209317487
 22
-0.314645310781
 13
0.314645310781
 23
0.949209317487
 74
3
 41
0.0
 41
0.25
 41
39.572617944695
 75
0
 11
7568402.75999999978
 21
5715617.03000000026
 12
0.949209317487
 22
-0.314645310781
 13
0.314645310781
 23
0.949209317487
 74
0
 75
0
  0
INSERT
  5
47
100
AcDbEntity
  8
Dzialki
  6
CONTINUOUS
100
AcDbBlockReference
 66
0
  2
L_0_02_1
 10
7568402.75999999978
 20
5715617.03000000026
 41
0.50
 42
0.50
 43
0.50
 50
109.78
  0
INSERT
  5
48
100
AcDbEntity
  8
Dzialki
  6
CONTINUOUS
100
AcDbBlockReference
 66
0
  2
L_0_02_2
 10
7568400.62000000011
 20
5715622.98000000045
 41
0.50
 42
0.50
 43
0.50
 50
289.78
  0
MLINE
  5
49
100
AcDbEntity
  8
Dzialki
  6
L_0_02
370
18
100
AcDbMline
  2
L_0_02
340
7
 40
1.0
 70
1
 71
1
 72
2
 73
1
 10
7568402.75999999978
 20
5715617.03000000026
210
0.0
220
0.0
230
1.0
 11
7568402.75999999978
 21
5715617.03000000026
 12
-0.338439443881
 22
0.940988173584
 13
-0.940988173584
 23
-0.338439443881
 74
3
 41
0.0
 41
0.25
 41
6.073140042794
 75
0
 11
7568400.62000000011
 21
5715622.98000000045
 12
-0.338439443881
 22
0.940988173584
 13
-0.940988173584
 23
-0.338439443881
 74
0
 75
0
  0
INSERT
  5
4A
100
AcDbEntity
  8
Dzialki
  6
CONTINUOUS
100
AcDbBlockReference
 66
0
  2
L_0_02_1
 10
7568400.62000000011
 20
5715622.98000000045
 41
0.50
 42
0.50
 43
0.50
 50
102.08
  0
INSERT
  5
4B
100
AcDbEntity
  8
Dzialki
  6
CONTINUOUS
100
AcDbBlockReference
 66
0
  2
L_0_02_2
 10
7568400.16000000015
 20
5715625.12999999989
 41
0.50
 42
0.50
 43
0.50
 50
282.08
  0
MLINE
  5
4C
100
AcDbEntity
  8
Dzialki
  6
L_0_02
370
18
100
AcDbMline
  2
L_0_02
340
7
 40
1.0
 70
1
 71
1
 72
2
 73
1
 10
7568400.62000000011
 20
5715622.98000000045
210
0.0
220
0.0
230
1.0
 11
7568400.62000000011
 21
5715622.98000000045
 12
-0.209218467533
 22
0.977868924163
 13
-0.977868924163
 23
-0.209218467533
 74
3
 41
0.0
 41
0.25
 41
1.948658681461
 75
0
 11
7568400.16000000015
 21
5715625.12999999989
 12
-0.209218467533
 22
0.977868924163
 13
-0.977868924163
 23
-0.209218467533
 74
0
 75
0
  0
INSERT
  5
4D
100
AcDbEntity
  8
Dzialki
  6
CONTINUOUS
100
AcDbBlockReference
 66
0
  2
L_0_02_1
 10
7568033.96999999974
 20
5715739.24000000022
 41
0.50
 42
0.50
 43
0.50
 50
215.61
  0
INSERT
  5
4E
100
AcDbEntity
  8
Dzialki
  6
CONTINUOUS
100
AcDbBlockReference
 66
0
  2
L_0_02_2
 10
7568027.30999999959
 20
5715734.46999999974
 41
0.50
 42
0.50
 43
0.50
 50
35.61
  0
MLINE
  5
4F
100
AcDbEntity
  8
Dzialki
  6
L_0_02
370
18
100
AcDbMline
  2
L_0_02
340
7
 40
1.0
 70
1
 71
1
 72
2
 73
1
 10
7568033.96999999974
 20
5715739.24000000022
210
0.0
220
0.0
230
1.0
 11
7568033.96999999974
 21
5715739.24000000022
 12
-0.812990486071
 22
-0.582276969799
 13
0.582276969799
 23
-0.812990486071
 74
3
 41
0.0
 41
0.25
 41
7.941977783576
 75
0
 11
7568027.30999999959
 21
5715734.46999999974
 12
-0.812990486071
 22
-0.582276969799
 13
0.582276969799
 23
-0.812990486071
 74
0
 75
0
  0
INSERT
  5
50
100
AcDbEntity
  8
Dzialki
  6
CONTINUOUS
100
AcDbBlockReference
 66
0
  2
L_0_02_1
 10
7568027.30999999959
 20
5715734.46999999974
 41
0.50
 42
0.50
 43
0.50
 50
341.75
  0
INSERT
  5
51
100
AcDbEntity
  8
Dzialki
  6
CONTINUOUS
100
AcDbBlockReference
 66
0
  2
L_0_02_2
 10
7568363.94000000041
 20
5715623.45000000019
 41
0.50
 42
0.50
 43
0.50
 50
161.75
  0
MLINE
  5
52
100
AcDbEntity
  8
Dzialki
  6
L_0_02
370
18
100
AcDbMline
  2
L_0_02
340
7
 40
1.0
 70
1
 71
1
 72
2
 73
1
 10
7568027.30999999959
 20
5715734.46999999974
210
0.0
220
0.0
230
1.0
 11
7568027.30999999959
 21
5715734.46999999974
 12
0.949685639105
 22
-0.313204704431
 13
0.313204704431
 23
0.949685639105
 74
3
 41
0.0
 41
0.25
 41
354.214662978487
 75
0
 11
7568363.94000000041
 21
5715623.45000000019
 12
0.949685639105
 22
-0.313204704431
 13
0.313204704431
 23
0.949685639105
 74
0
 75
0
  0
INSERT
  5
53
100
AcDbEntity
  8
Dzialki
  6
CONTINUOUS
100
AcDbBlockReference
 66
0
  2
L_0_02_1
 10
7568363.94000000041
 20
5715623.45000000019
 41
0.50
 42
0.50
 43
0.50
 50
342.03
  0
INSERT
  5
54
100
AcDbEntity
  8
Dzialki
  6
CONTINUOUS
100
AcDbBlockReference
 66
0
  2
L_0_02_2
 10
7568409.58999999985
 20
5715608.63999999966
 41
0.50
 42
0.50
 43
0.50
 50
162.03
  0
MLINE
  5
55
100
AcDbEntity
  8
Dzialki
  6
L_0_02
370
18
100
AcDbMline
  2
L_0_02
340
7
 40
1.0
 70
1
 71
1
 72
2
 73
1
 10
7568363.94000000041
 20
5715623.45000000019
210
0.0
220
0.0
230
1.0
 11
7568363.94000000041
 21
5715623.45000000019
 12
0.951194720592
 22
-0.308591321197
 13
0.308591321197
 23
0.951194720592
 74
3
 41
0.0
 41
0.25
 41
47.742276461577
 75
0
 11
7568409.58999999985
 21
5715608.63999999966
 12
0.951194720592
 22
-0.308591321197
 13
0.308591321197
 23
0.951194720592
 74
0
 75
0
  0
INSERT
  5
56
100
AcDbEntity
  8
Dzialki
  6
CONTINUOUS
100
AcDbBlockReference
 66
0
  2
L_0_02_1
 10
7568409.58999999985
 20
5715608.63999999966
 41
0.50
 42
0.50
 43
0.50
 50
132.59
  0
INSERT
  5
57
100
AcDbEntity
  8
Dzialki
  6
CONTINUOUS
100
AcDbBlockReference
 66
0
  2
L_0_02_2
 10
7568403.33000000007
 20
5715615.45000000019
 41
0.50
 42
0.50
 43
0.50
 50
312.59
  0
MLINE
  5
58
100
AcDbEntity
  8
Dzialki
  6
L_0_02
370
18
100
AcDbMline
  2
L_0_02
340
7
 40
1.0
 70
1
 71
1
 72
2
 73
1
 10
7568409.58999999985
 20
5715608.63999999966
210
0.0
220
0.0
230
1.0
 11
7568409.58999999985
 21
5715608.63999999966
 12
-0.676752011064
 22
0.736211053653
 13
-0.736211053653
 23
-0.676752011064
 74
3
 41
0.0
 41
0.25
 41
9.00006486487
 75
0
 11
7568403.33000000007
 21
5715615.45000000019
 12
-0.676752011064
 22
0.736211053653
 13
-0.736211053653
 23
-0.676752011064
 74
0
 75
0
  0
INSERT
  5
59
100
AcDbEntity
  8
Dzialki
  6
CONTINUOUS
100
AcDbBlockReference
 66
0
  2
L_0_02_1
 10
7568403.33000000007
 20
5715615.45000000019
 41
0.50
 42
0.50
 43
0.50
 50
109.84
  0
INSERT
  5
5A
100
AcDbEntity
  8
Dzialki
  6
CONTINUOUS
100
AcDbBlockReference
 66
0
  2
L_0_02_2
 10
7568402.75999999978
 20
5715617.03000000026
 41
0.50
 42
0.50
 43
0.50
 50
289.84
  0
MLINE
  5
5B
100
AcDbEntity
  8
Dzialki
  6
L_0_02
370
18
100
AcDbMline
  2
L_0_02
340
7
 40
1.0
 70
1
 71
1
 72
2
 73
1
 10
7568403.33000000007
 20
5715615.45000000019
210
0.0
220
0.0
230
1.0
 11
7568403.33000000007
 21
5715615.45000000019
 12
-0.339351850237
 22
0.940659514245
 13
-0.940659514245
 23
-0.339351850237
 74
3
 41
0.0
 41
0.25
 41
1.429672587314
 75
0
 11
7568402.75999999978
 21
5715617.03000000026
 12
-0.339351850237
 22
0.940659514245
 13
-0.940659514245
 23
-0.339351850237
 74
0
 75
0
  0
INSERT
  5
5C
100
AcDbEntity
  8
Dzialki
  6
CONTINUOUS
100
AcDbBlockReference
 66
0
  2
L_0_02_1
 10
7568027.30999999959
 20
5715734.46999999974
 41
0.50
 42
0.50
 43
0.50
 50
215.63
  0
INSERT
  5
5D
100
AcDbEntity
  8
Dzialki
  6
CONTINUOUS
100
AcDbBlockReference
 66
0
  2
L_0_02_2
 10
7568015.87000000011
 20
5715726.26999999862
 41
0.50
 42
0.50
 43
0.50
 50
35.63
  0
MLINE
  5
5E
100
AcDbEntity
  8
Dzialki
  6
L_0_02
370
18
100
AcDbMline
  2
L_0_02
340
7
 40
1.0
 70
1
 71
1
 72
2
 73
1
 10
7568027.30999999959
 20
5715734.46999999974
210
0.0
220
0.0
230
1.0
 11
7568027.30999999959
 21
5715734.46999999974
 12
-0.812772272838
 22
-0.582581524343
 13
0.582581524343
 23
-0.812772272838
 74
3
 41
0.0
 41
0.25
 41
13.825283301106
 75
0
 11
7568015.87000000011
 21
5715726.26999999862
 12
-0.812772272838
 22
-0.582581524343
 13
0.582581524343
 23
-0.812772272838
 74
0
 75
0
  0
INSERT
  5
5F
100
AcDbEntity
  8
Dzialki
  6
CONTINUOUS
100
AcDbBlockReference
 66
0
  2
L_0_02_1
 10
7568015.87000000011
 20
5715726.26999999862
 41
0.50
 42
0.50
 43
0.50
 50
341.62
  0
INSERT
  5
60
100
AcDbEntity
  8
Dzialki
  6
CONTINUOUS
100
AcDbBlockReference
 66
0
  2
L_0_02_2
 10
7568361.91000000015
 20
5715611.3200000003
 41
0.50
 42
0.50
 43
0.50
 50
161.62
  0
MLINE
  5
61
100
AcDbEntity
  8
Dzialki
  6
L_0_02
370
18
100
AcDbMline
  2
L_0_02
340
7
 40
1.0
 70
1
 71
1
 72
2
 73
1
 10
7568015.87000000011
 20
5715726.26999999862
210
0.0
220
0.0
230
1.0
 11
7568015.87000000011
 21
5715726.26999999862
 12
0.949009148431
 22
-0.315248530836
 13
0.315248530836
 23
0.949009148431
 74
3
 41
0.0
 41
0.25
 41
364.38294434217
 75
0
 11
7568361.91000000015
 21
5715611.3200000003
 12
0.949009148431
 22
-0.315248530836
 13
0.315248530836
 23
0.949009148431
 74
0
 75
0
  0
INSERT
  5
62
100
AcDbEntity
  8
Dzialki
  6
CONTINUOUS
100
AcDbBlockReference
 66
0
  2
L_0_02_1
 10
7568361.91000000015
 20
5715611.3200000003
 41
0.50
 42
0.50
 43
0.50
 50
341.58
  0
INSERT
  5
63
100
AcDbEntity
  8
Dzialki
  6
CONTINUOUS
100
AcDbBlockReference
 66
0
  2
L_0_02_2
 10
7568420.24000000022
 20
5715591.88999999966
 41
0.50
 42
0.50
 43
0.50
 50
161.58
  0
MLINE
  5
64
100
AcDbEntity
  8
Dzialki
  6
L_0_02
370
18
100
AcDbMline
  2
L_0_02
340
7
 40
1.0
 70
1
 71
1
 72
2
 73
1
 10
7568361.91000000015
 20
5715611.3200000003
210
0.0
220
0.0
230
1.0
 11
7568361.91000000015
 21
5715611.3200000003
 12
0.948748338716
 22
-0.316032577093
 13
0.316032577093
 23
0.948748338716
 74
3
 41
0.0
 41
0.25
 41
61.231003570479
 75
0
 11
7568420.24000000022
 21
5715591.88999999966
 12
0.948748338716
 22
-0.316032577093
 13
0.316032577093
 23
0.948748338716
 74
0
 75
0
  0
INSERT
  5
65
100
AcDbEntity
  8
Dzialki
  6
CONTINUOUS
100
AcDbBlockReference
 66
0
  2
L_0_02_1
 10
7568420.24000000022
 20
5715591.88999999966
 41
0.50
 42
0.50
 43
0.50
 50
113.25
  0
INSERT
  5
66
100
AcDbEntity
  8
Dzialki
  6
CONTINUOUS
100
AcDbBlockReference
 66
0
  2
L_0_02_2
 10
7568416.08999999985
 20
5715601.54999999981
 41
0.50
 42
0.50
 43
0.50
 50
293.25
  0
MLINE
  5
67
100
AcDbEntity
  8
Dzialki
  6
L_0_02
370
18
100
AcDbMline
  2
L_0_02
340
7
 40
1.0
 70
1
 71
1
 72
2
 73
1
 10
7568420.24000000022
 20
5715591.88999999966
210
0.0
220
0.0
230
1.0
 11
7568420.24000000022
 21
5715591.88999999966
 12
-0.394722696559
 22
0.918800300839
 13
-0.918800300839
 23
-0.394722696559
 74
3
 41
0.0
 41
0.25
 41
10.263710097105
 75
0
 11
7568416.08999999985
 21
5715601.54999999981
 12
-0.394722696559
 22
0.918800300839
 13
-0.918800300839
 23
-0.394722696559
 74
0
 75
0
  0
INSERT
  5
68
100
AcDbEntity
  8
Dzialki
  6
CONTINUOUS
100
AcDbBlockReference
 66
0
  2
L_0_02_1
 10
7568416.08999999985
 20
5715601.54999999981
 41
0.50
 42
0.50
 43
0.50
 50
132.51
  0
INSERT
  5
69
100
AcDbEntity
  8
Dzialki
  6
CONTINUOUS
100
AcDbBlockReference
 66
0
  2
L_0_02_2
 10
7568409.58999999985
 20
5715608.63999999966
 41
0.50
 42
0.50
 43
0.50
 50
312.51
  0
MLINE
  5
6A
100
AcDbEntity
  8
Dzialki
  6
L_0_02
370
18
100
AcDbMline
  2
L_0_02
340
7
 40
1.0
 70
1
 71
1
 72
2
 73
1
 10
7568416.08999999985
 20
5715601.54999999981
210
0.0
220
0.0
230
1.0
 11
7568416.08999999985
 21
5715601.54999999981
 12
-0.675771705582
 22
0.737110983458
 13
-0.737110983458
 23
-0.675771705582
 74
3
 41
0.0
 41
0.25
 41
9.368632958892
 75
0
 11
7568409.58999999985
 21
5715608.63999999966
 12
-0.675771705582
 22
0.737110983458
 13
-0.737110983458
 23
-0.675771705582
 74
0
 75
0
  0
INSERT
  5
6B
100
AcDbEntity
  8
Dzialki
  6
CONTINUOUS
100
AcDbBlockReference
 66
0
  2
L_0_02_1
 10
7568015.87000000011
 20
5715726.26999999862
 41
0.50
 42
0.50
 43
0.50
 50
215.64
  0
INSERT
  5
6C
100
AcDbEntity
  8
Dzialki
  6
CONTINUOUS
100
AcDbBlockReference
 66
0
  2
L_0_02_2
 10
7568005.91000000015
 20
5715719.12999999989
 41
0.50
 42
0.50
 43
0.50
 50
35.64
  0
MLINE
  5
6D
100
AcDbEntity
  8
Dzialki
  6
L_0_02
370
18
100
AcDbMline
  2
L_0_02
340
7
 40
1.0
 70
1
 71
1
 72
2
 73
1
 10
7568015.87000000011
 20
5715726.26999999862
210
0.0
220
0.0
230
1.0
 11
7568015.87000000011
 21
5715726.26999999862
 12
-0.812739847945
 22
-0.582626758365
 13
0.582626758365
 23
-0.812739847945
 74
3
 41
0.0
 41
0.25
 41
12.004843939487
 75
0
 11
7568005.91000000015
 21
5715719.12999999989
 12
-0.812739847945
 22
-0.582626758365
 13
0.582626758365
 23
-0.812739847945
 74
0
 75
0
  0
INSERT
  5
6E
100
AcDbEntity
  8
Dzialki
  6
CONTINUOUS
100
AcDbBlockReference
 66
0
  2
L_0_02_1
 10
7568005.91000000015
 20
5715719.12999999989
 41
0.50
 42
0.50
 43
0.50
 50
341.46
  0
INSERT
  5
6F
100
AcDbEntity
  8
Dzialki
  6
CONTINUOUS
100
AcDbBlockReference
 66
0
  2
L_0_02_2
 10
7568360.0700000003
 20
5715600.37999999989
 41
0.50
 42
0.50
 43
0.50
 50
161.46
  0
MLINE
  5
70
100
AcDbEntity
  8
Dzialki
  6
L_0_02
370
18
100
AcDbMline
  2
L_0_02
340
7
 40
1.0
 70
1
 71
1
 72
2
 73
1
 10
7568005.91000000015
 20
5715719.12999999989
210
0.0
220
0.0
230
1.0
 11
7568005.91000000015
 21
5715719.12999999989
 12
0.948122298861
 22
-0.317905813728
 13
0.317905813728
 23
0.948122298861
 74
3
 41
0.0
 41
0.25
 41
373.288308745041
 75
0
 11
7568360.0700000003
 21
5715600.37999999989
 12
0.948122298861
 22
-0.317905813728
 13
0.317905813728
 23
0.948122298861
 74
0
 75
0
  0
INSERT
  5
71
100
AcDbEntity
  8
Dzialki
  6
CONTINUOUS
100
AcDbBlockReference
 66
0
  2
L_0_02_1
 10
7568360.0700000003
 20
5715600.37999999989
 41
0.50
 42
0.50
 43
0.50
 50
341.81
  0
INSERT
  5
72
100
AcDbEntity
  8
Dzialki
  6
CONTINUOUS
100
AcDbBlockReference
 66
0
  2
L_0_02_2
 10
7568427.01999999955
 20
5715578.37999999989
 41
0.50
 42
0.50
 43
0.50
 50
161.81
  0
MLINE
  5
73
100
AcDbEntity
  8
Dzialki
  6
L_0_02
370
18
100
AcDbMline
  2
L_0_02
340
7
 40
1.0
 70
1
 71
1
 72
2
 73
1
 10
7568360.0700000003
 20
5715600.37999999989
210
0.0
220
0.0
230
1.0
 11
7568360.0700000003
 21
5715600.37999999989
 12
0.950022731215
 22
-0.312180733189
 13
0.312180733189
 23
0.950022731215
 74
3
 41
0.0
 41
0.25
 41
70.221997984307
 75
0
 11
7568427.01999999955
 21
5715578.37999999989
 12
0.950022731215
 22
-0.312180733189
 13
0.312180733189
 23
0.950022731215
 74
0
 75
0
  0
INSERT
  5
74
100
AcDbEntity
  8
Dzialki
  6
CONTINUOUS
100
AcDbBlockReference
 66
0
  2
L_0_02_1
 10
7568427.01999999955
 20
5715578.37999999989
 41
0.50
 42
0.50
 43
0.50
 50
123.96
  0
INSERT
  5
75
100
AcDbEntity
  8
Dzialki
  6
CONTINUOUS
100
AcDbBlockReference
 66
0
  2
L_0_02_2
 10
7568424.33999999985
 20
5715582.36000000034
 41
0.50
 42
0.50
 43
0.50
 50
303.96
  0
MLINE
  5
76
100
AcDbEntity
  8
Dzialki
  6
L_0_02
370
18
100
AcDbMline
  2
L_0_02
340
7
 40
1.0
 70
1
 71
1
 72
2
 73
1
 10
7568427.01999999955
 20
5715578.37999999989
210
0.0
220
0.0
230
1.0
 11
7568427.01999999955
 21
5715578.37999999989
 12
-0.558541855677
 22
0.829476338094
 13
-0.829476338094
 23
-0.558541855677
 74
3
 41
0.0
 41
0.25
 41
4.548207999031
 75
0
 11
7568424.33999999985
 21
5715582.36000000034
 12
-0.558541855677
 22
0.829476338094
 13
-0.829476338094
 23
-0.558541855677
 74
0
 75
0
  0
INSERT
  5
77
100
AcDbEntity
  8
Dzialki
  6
CONTINUOUS
100
AcDbBlockReference
 66
0
  2
L_0_02_1
 10
7568424.33999999985
 20
5715582.36000000034
 41
0.50
 42
0.50
 43
0.50
 50
113.28
  0
INSERT
  5
78
100
AcDbEntity
  8
Dzialki
  6
CONTINUOUS
100
AcDbBlockReference
 66
0
  2
L_0_02_2
 10
7568420.24000000022
 20
5715591.88999999966
 41
0.50
 42
0.50
 43
0.50
 50
293.28
  0
MLINE
  5
79
100
AcDbEntity
  8
Dzialki
  6
L_0_02
370
18
100
AcDbMline
  2
L_0_02
340
7
 40
1.0
 70
1
 71
1
 72
2
 73
1
 10
7568424.33999999985
 20
5715582.36000000034
210
0.0
220
0.0
230
1.0
 11
7568424.33999999985
 21
5715582.36000000034
 12
-0.395198575777
 22
0.918595713959
 13
-0.918595713959
 23
-0.395198575777
 74
3
 41
0.0
 41
0.25
 41
10.124531313952
 75
0
 11
7568420.24000000022
 21
5715591.88999999966
 12
-0.395198575777
 22
0.918595713959
 13
-0.918595713959
 23
-0.395198575777
 74
0
 75
0
  0
INSERT
  5
7A
100
AcDbEntity
  8
Dzialki
  6
CONTINUOUS
100
AcDbBlockReference
 66
0
  2
L_0_02_1
 10
7568005.91000000015
 20
5715719.12999999989
 41
0.50
 42
0.50
 43
0.50
 50
215.62
  0
INSERT
  5
7B
100
AcDbEntity
  8
Dzialki
  6
CONTINUOUS
100
AcDbBlockReference
 66
0
  2
L_0_02_2
 10
7567996.28000000026
 20
5715712.23000000045
 41
0.50
 42
0.50
 43
0.50
 50
35.62
  0
MLINE
  5
7C
100
AcDbEntity
  8
Dzialki
  6
L_0_02
370
18
100
AcDbMline
  2
L_0_02
340
7
 40
1.0
 70
1
 71
1
 72
2
 73
1
 10
7568005.91000000015
 20
5715719.12999999989
210
0.0
220
0.0
230
1.0
 11
7568005.91000000015
 21
5715719.12999999989
 12
-0.81287707378
 22
-0.582435286468
 13
0.582435286468
 23
-0.81287707378
 74
3
 41
0.0
 41
0.25
 41
11.596809696713
 75
0
 11
7567996.28000000026
 21
5715712.23000000045
 12
-0.81287707378
 22
-0.582435286468
 13
0.582435286468
 23
-0.81287707378
 74
0
 75
0
  0
INSERT
  5
7D
100
AcDbEntity
  8
Dzialki
  6
CONTINUOUS
100
AcDbBlockReference
 66
0
  2
L_0_02_1
 10
7568435.54999999981
 20
5715565.73000000045
 41
0.50
 42
0.50
 43
0.50
 50
123.99
  0
INSERT
  5
7E
100
AcDbEntity
  8
Dzialki
  6
CONTINUOUS
100
AcDbBlockReference
 66
0
  2
L_0_02_2
 10
7568427.01999999955
 20
5715578.37999999989
 41
0.50
 42
0.50
 43
0.50
 50
303.99
  0
MLINE
  5
7F
100
AcDbEntity
  8
Dzialki
  6
L_0_02
370
18
100
AcDbMline
  2
L_0_02
340
7
 40
1.0
 70
1
 71
1
 72
2
 73
1
 10
7568435.54999999981
 20
5715565.73000000045
210
0.0
220
0.0
230
1.0
 11
7568435.54999999981
 21
5715565.73000000045
 12
-0.559078804232
 22
0.829114522041
 13
-0.829114522041
 23
-0.559078804232
 74
3
 41
0.0
 41
0.25
 41
15.007240903594
 75
0
 11
7568427.01999999955
 21
5715578.37999999989
 12
-0.559078804232
 22
0.829114522041
 13
-0.829114522041
 23
-0.559078804232
 74
0
 75
0
  0
ENDSEC
  0
SECTION
  2
OBJECTS
  0
DICTIONARY
  5
80
330
0
100
AcDbDictionary
280
0
281
1
  3
ACAD_GROUP
350
81
  3
ACAD_LAYOUT
350
82
  3
ACAD_MLINESTYLE
350
83
  3
ACAD_PLOTSETTINGS
350
84
  3
ACAD_PLOTSTYLENAME
350
85
  0
DICTIONARY
  5
81
102
{ACAD_REACTORS
330
80
102
}
330
80
100
AcDbDictionary
280
0
281
1
  0
DICTIONARY
  5
82
102
{ACAD_REACTORS
330
80
102
}
330
80
100
AcDbDictionary
280
0
281
1
  3
Layout
350
1C
  3
Model
350
1A
  0
DICTIONARY
  5
83
102
{ACAD_REACTORS
330
80
102
}
330
80
100
AcDbDictionary
280
0
281
1
  3
Standard
350
86
  3
L_0_02
350
7
  0
DICTIONARY
  5
84
102
{ACAD_REACTORS
330
80
102
}
330
80
100
AcDbDictionary
280
0
281
1
  0
ACDBDICTIONARYWDFLT
  5
85
102
{ACAD_REACTORS
330
80
102
}
330
80
100
AcDbDictionary
281
1
  3
Normal
350
D
100
AcDbDictionaryWithDefault
340
D
  0
LAYOUT
  5
1C
100
AcDbPlotSettings
  1

  2

  4

  6

 40
0.0
 41
0.0
 42
0.0
 43
0.0
 44
0.0
 45
0.0
 46
0.0
 47
0.0
 48
0.0
 49
0.0
140
0.0
141
0.0
142
1.0
143
1.0
 70
688
 72
1
 73
0
 74
5
  7

 75
0
147
1.0
148
0.0
149
0.0
100
AcDbLayout
  1
Layout
 70
1
 71
1
 10
0.0
 20
0.0
 11
420.0
 21
297.0
 12
0.0
 22
0.0
 32
0.0
 14
100000000000000000000.0
 24
100000000000000000000.0
 34
100000000000000000000.0
 15
-100000000000000000000.0
 25
-100000000000000000000.0
 35
-100000000000000000000.0
146
0.0
 13
0.0
 23
0.0
 33
0.0
 16
1.0
 26
0.0
 36
0.0
 17
0.0
 27
1.0
 37
0.0
 76
0
330
1B
  0
LAYOUT
  5
1A
100
AcDbPlotSettings
  1

  2

  4

  6

 40
0.0
 41
0.0
 42
0.0
 43
0.0
 44
0.0
 45
0.0
 46
0.0
 47
0.0
 48
0.0
 49
0.0
140
0.0
141
0.0
142
1.0
143
1.0
 70
1712
 72
1
 73
0
 74
0
  7

 75
0
147
1.0
148
0.0
149
0.0
100
AcDbLayout
  1
Model
 70
1
 71
0
 10
0.0
 20
0.0
 11
12.0
 21
9.0
 12
0.0
 22
0.0
 32
0.0
 14
0.0
 24
0.0
 34
0.0
 15
0.0
 25
0.0
 35
0.0
146
0.0
 13
0.0
 23
0.0
 33
0.0
 16
1.0
 26
0.0
 36
0.0
 17
0.0
 27
1.0
 37
0.0
 76
0
330
19
  0
MLINESTYLE
  5
86
102
{ACAD_REACTORS
330
83
102
}
330
83
100
AcDbMlineStyle
  2
Standard
 70
0
  3

 62
256
 51
90.0
 52
90.0
  2
Standard
 71
2
 49
0.5
 62
256
  6
ByLayer
 49
-0.5
 62
256
  6
ByLayer
  0
MLINESTYLE
  5
7
100
AcDbMlineStyle
  2
L_0_02
 70
0
  3

 51
90.0
 52
90.0
 71
1
 49
0.0
 62
256
  6
CONTINUOUS
  0
ACDBPLACEHOLDER
  5
D
  0
ENDSEC
  0
EOF
