  0
SECTION
  2
HEADER
  9
$ACADVER
  1
AC1018
  9
$HANDSEED
  5
FFFFFF
  9
$EXTMAX
 10
7569873.68800000008
 20
5715723.43300000019
 30
1000000.00
  9
$EXTMIN
 10
7569251.72200000007
 20
5715569.69299999997
 30
0.00
  9
$LIMMIN
 10
7569251.72200000007
 20
5715569.69299999997
  9
$LIMMAX
 10
7569873.68800000008
 20
5715723.43300000019
  9
$DIMASZ
 40
2.5
  9
$DIMGAP
 40
0.625
  9
$INSUNITS
 70
6
  9
$DIMEXO
 40
0.625
  9
$DIMTXT
 40
2.5
  9
$DIMSTYLE
  2
Standard
  9
$PLIMMIN
 10
0.0
 20
0.0
  9
$PLIMMAX
 10
210.0
 20
297.0
  9
$DIMEXE
 40
1.25
  9
$TEXTSIZE
 40
2.5
  9
$TEXTSTYLE
  7
Standard
  9
$LWDISPLAY
290
1
  9
$TDCREATE
 40
43925.760166285
  9
$TDUCREATE
 40
43925.676832951
  9
$TDUPDATE
 40
43925.760166285
  9
$TDUUPDATE
 40
43925.676832951
  9
$TDINDWG
 40
0.0
  9
$TDUSRTIMER
 40
0.0
  9
$USRTIMER
 70
1
  0
ENDSEC
  0
SECTION
  2
TABLES
  0
TABLE
  2
VPORT
  5
1
100
AcDbSymbolTable
 70
1
  0
VPORT
  5
2
100
AcDbSymbolTableRecord
100
AcDbViewportTableRecord
  2
*ACTIVE
 70
0
 10
0.0
 20
0.0
 11
1.0
 21
1.0
 12
7569562.705
 22
5715646.563
 13
0.0
 23
0.0
 14
1.0
 24
1.0
 15
0.0
 25
0.0
 16
0.0
 26
0.0
 36
1.0
 17
0.0
 27
0.0
 37
0.0
 40
153.740
 41
4.046
 42
50.0
 43
0.0
 44
0.0
 50
0.0
 51
0.0
 71
0
 72
100
 73
1
 74
1
 75
0
 76
0
 77
0
 78
0
  0
ENDTAB
  0
TABLE
  2
LTYPE
  5
3
100
AcDbSymbolTable
 70
3
  0
LTYPE
  5
4
100
AcDbSymbolTableRecord
100
AcDbLinetypeTableRecord
  2
ByBlock
 70
0
  3

 72
65
 73
0
 40
0.0
  0
LTYPE
  5
5
100
AcDbSymbolTableRecord
100
AcDbLinetypeTableRecord
  2
ByLayer
 70
0
  3

 72
65
 73
0
 40
0.0
  0
LTYPE
  5
6
100
AcDbSymbolTableRecord
100
AcDbLinetypeTableRecord
  2
CONTINUOUS
 70
0
  3
Solid line
 72
65
 73
0
 40
0.0
  0
LTYPE
  5
8
100
AcDbSymbolTableRecord
100
AcDbLinetypeTableRecord
  2
L_0_02
 70
0
  3
Dzialka_ewidencyjna (MLineStyle)
 72
65
 73
0
 40
0.0
  0
LTYPE
  5
9
100
AcDbSymbolTableRecord
100
AcDbLinetypeTableRecord
  2
L_0_03
 70
0
  3
Uzytek_gruntowy
 72
65
 73
3
 40
1.0
 49
-0.25
 74
0
 49
0.5
 74
0
 49
-0.25
 74
0
  0
LTYPE
  5
A
100
AcDbSymbolTableRecord
100
AcDbLinetypeTableRecord
  2
L_0_04
 70
0
  3
Budynek_projektowany
 72
65
 73
2
 40
1.5
 49
1.0
 74
0
 49
-0.5
 74
0
  0
LTYPE
  5
B
100
AcDbSymbolTableRecord
100
AcDbLinetypeTableRecord
  2
L_0_05
 70
0
  3
Szczyt_skarpy_nie_umocnionej_Podnoze_skarpy
 72
65
 73
3
 40
1.75
 49
-0.25
 74
0
 49
1.25
 74
0
 49
-0.25
 74
0
  0
LTYPE
  5
C
100
AcDbSymbolTableRecord
100
AcDbLinetypeTableRecord
  2
L_0_06
 70
0
  3
Granica_konturu_klasyfikacyjnego_Krawedz_chodnika
 72
65
 73
3
 40
2.0
 49
-0.25
 74
0
 49
1.5
 74
0
 49
-0.25
 74
0
  0
LTYPE
  5
D
100
AcDbSymbolTableRecord
100
AcDbLinetypeTableRecord
  2
L_0_0C
 70
0
  3
Budynek_w_ruinie_Warstwica_pomocnicza
 72
65
 73
2
 40
3.0
 49
2.0
 74
0
 49
-1.0
 74
0
  0
LTYPE
  5
E
100
AcDbSymbolTableRecord
100
AcDbLinetypeTableRecord
  2
L_0_15_SHX
 70
0
  3
Ogrodzenie_trwale
 72
65
 73
12
 40
7.5
 49
0.0
 74
0
 49
-0.375
 74
0
 49
-0.75
 74
0
 49
-0.75
 74
0
 49
-0.75
 74
0
 49
-0.75
 74
0
 49
-0.75
 74
4
 75
1
340
F
 46
0.05
 50
0.0
 44
0.0
 45
0.0
 49
-0.75
 74
0
 49
-0.75
 74
0
 49
-0.75
 74
0
 49
-0.75
 74
0
 49
-0.375
 74
0
  0
LTYPE
  5
11
100
AcDbSymbolTableRecord
100
AcDbLinetypeTableRecord
  2
L_0_15
 70
0
  3
Ogrodzenie_trwale (MLineStyle)
 72
65
 73
0
 40
0.0
  0
ENDTAB
  0
TABLE
  2
LAYER
  5
12
100
AcDbSymbolTable
 70
6
  0
LAYER
  5
13
100
AcDbSymbolTableRecord
100
AcDbLayerTableRecord
  2
0
 70
0
420
6908265
  6
CONTINUOUS
370
18
390
14
  0
LAYER
  5
15
100
AcDbSymbolTableRecord
100
AcDbLayerTableRecord
  2
budynek
 70
0
420
3355443
  6
CONTINUOUS
370
35
390
14
  0
LAYER
  5
16
100
AcDbSymbolTableRecord
100
AcDbLayerTableRecord
  2
projek_ks
 70
0
420
8401664
  6
L_0_03
370
25
390
14
  0
LAYER
  5
17
100
AcDbSymbolTableRecord
100
AcDbLayerTableRecord
  2
projekt_en
 70
0
420
16711680
  6
L_0_03
370
35
390
14
  0
LAYER
  5
18
100
AcDbSymbolTableRecord
100
AcDbLayerTableRecord
  2
projekt_woda
 70
0
420
255
  6
L_0_03
370
25
390
14
  0
LAYER
  5
19
100
AcDbSymbolTableRecord
100
AcDbLayerTableRecord
  2
proj_osie
 70
0
420
16711680
  6
CONTINUOUS
370
18
390
14
  0
ENDTAB
  0
TABLE
  2
STYLE
  5
1A
100
AcDbSymbolTable
 70
3
  0
STYLE
  5
1B
100
AcDbSymbolTableRecord
100
AcDbTextStyleTableRecord
  2
STANDARD
 70
0
 40
0.0
 41
1.0
 50
0.0
 71
0
  3
simplex.shx
  4

  0
STYLE
  5
1C
100
AcDbSymbolTableRecord
100
AcDbTextStyleTableRecord
  2
STANDARD_ITALIC
 70
0
 40
0.0
 41
1.0
 50
15.0
 71
0
  3
simplex.shx
  4

  0
STYLE
  5
F
100
AcDbSymbolTableRecord
100
AcDbTextStyleTableRecord
  2

 70
1
 40
0.0
 41
0.050
 50
0.0
 71
0
  3
strz732_proj_osie_zagos.shx
  4

  0
ENDTAB
  0
TABLE
  2
VIEW
  5
1D
100
AcDbSymbolTable
 70
0
  0
ENDTAB
  0
TABLE
  2
UCS
  5
1E
100
AcDbSymbolTable
 70
0
  0
ENDTAB
  0
TABLE
  2
APPID
  5
1F
100
AcDbSymbolTable
 70
1
  0
APPID
  5
20
100
AcDbSymbolTableRecord
100
AcDbRegAppTableRecord
  2
ACAD
 70
0
  0
ENDTAB
  0
TABLE
  2
DIMSTYLE
  5
21
100
AcDbSymbolTable
 70
1
100
AcDbDimStyleTable
  0
DIMSTYLE
105
22
100
AcDbSymbolTableRecord
100
AcDbDimStyleTableRecord
  2
Standard
 70
0
340
1B
  0
ENDTAB
  0
TABLE
  2
BLOCK_RECORD
  5
23
100
AcDbSymbolTable
 70
14
  0
BLOCK_RECORD
  5
24
100
AcDbSymbolTableRecord
100
AcDbBlockTableRecord
  2
*Model_Space
340
25
  0
BLOCK_RECORD
  5
26
100
AcDbSymbolTableRecord
100
AcDbBlockTableRecord
  2
*Paper_Space
340
27
  0
BLOCK_RECORD
  5
28
100
AcDbSymbolTableRecord
100
AcDbBlockTableRecord
  2
STD
340
29
  0
BLOCK_RECORD
  5
2A
100
AcDbSymbolTableRecord
100
AcDbBlockTableRecord
  2
BGB
340
2B
  0
BLOCK_RECORD
  5
2C
100
AcDbSymbolTableRecord
100
AcDbBlockTableRecord
  2
ZAS
340
2D
  0
BLOCK_RECORD
  5
2E
100
AcDbSymbolTableRecord
100
AcDbBlockTableRecord
  2
SLS
340
2F
  0
BLOCK_RECORD
  5
30
100
AcDbSymbolTableRecord
100
AcDbBlockTableRecord
  2
LAT
340
31
  0
BLOCK_RECORD
  5
32
100
AcDbSymbolTableRecord
100
AcDbBlockTableRecord
  2
WSP
340
33
  0
BLOCK_RECORD
  5
34
100
AcDbSymbolTableRecord
100
AcDbBlockTableRecord
  2
DIG
340
35
  0
BLOCK_RECORD
  5
36
100
AcDbSymbolTableRecord
100
AcDbBlockTableRecord
  2
DLI
340
37
  0
BLOCK_RECORD
  5
38
100
AcDbSymbolTableRecord
100
AcDbBlockTableRecord
  2
PRH
340
39
  0
BLOCK_RECORD
  5
3A
100
AcDbSymbolTableRecord
100
AcDbBlockTableRecord
  2
PNN
340
3B
  0
BLOCK_RECORD
  5
3C
100
AcDbSymbolTableRecord
100
AcDbBlockTableRecord
  2
L_0_02_1
340
3D
  0
BLOCK_RECORD
  5
3E
100
AcDbSymbolTableRecord
100
AcDbBlockTableRecord
  2
L_0_02_2
340
3F
  0
ENDTAB
  0
ENDSEC
  0
SECTION
  2
BLOCKS
  0
BLOCK
  5
40
100
AcDbEntity
  8
0
100
AcDbBlockBegin
  2
*Model_Space
 70
0
 10
0.0
 20
0.0
 30
0.0
  3
*Model_Space
  1

  0
ENDBLK
  5
41
100
AcDbEntity
  8
0
100
AcDbBlockEnd
  0
BLOCK
  5
42
100
AcDbEntity
 67
1
  8
0
100
AcDbBlockBegin
  2
*Paper_Space
 70
0
 10
0.0
 20
0.0
 30
0.0
  3
*Paper_Space
  1

  0
ENDBLK
  5
43
100
AcDbEntity
 67
1
  8
0
100
AcDbBlockEnd
  0
BLOCK
  5
29
100
AcDbEntity
  8
0
100
AcDbBlockBegin
 62
0
370
13
  2
STD
 70
0
 10
0
 20
0
 30
0
  3
STD
  0
HATCH
  5
44
100
AcDbEntity
  8
0
  6
CONTINUOUS
420
16777215
370
18
100
AcDbHatch
 10
0.0
 20
0.0
 30
0.0
210
0.0
220
0.0
230
1.0
  2
SOLID
 70
1
 71
1
 91
1
 92
3
 72
1
 73
1
 93
2
 10
0.0
 20
-1.5
 42
1.0
 10
0.0
 20
1.5
 42
1.0
 97
0
 75
0
 76
1
 98
0
  0
CIRCLE
  5
45
100
AcDbEntity
  8
0
  6
CONTINUOUS
 62
0
370
18
100
AcDbCircle
 10
0.0
 20
-0.0
 40
1.5
  0
CIRCLE
  5
46
100
AcDbEntity
  8
0
  6
CONTINUOUS
 62
0
370
18
100
AcDbCircle
 10
0.0
 20
-0.0
 40
0.5
  0
ENDBLK
  5
47
100
AcDbEntity
  8
0
100
AcDbBlockEnd
  0
BLOCK
  5
2B
100
AcDbEntity
  8
0
100
AcDbBlockBegin
 62
0
370
13
  2
BGB
 70
0
 10
0
 20
0
 30
0
  3
BGB
  0
ARC
  5
48
100
AcDbEntity
  8
0
  6
CONTINUOUS
 62
0
370
35
100
AcDbCircle
 10
3.0000000000
 20
-0.0000000000
 30
0
 40
2.9954579942
100
AcDbArc
 50
119.9816393688
 51
180.0000000000
  0
ARC
  5
49
100
AcDbEntity
  8
0
  6
CONTINUOUS
 62
0
370
35
100
AcDbCircle
 10
-3.0000000000
 20
-0.0000000000
 30
0
 40
2.9954579942
100
AcDbArc
 50
0.0000000000
 51
60.0183606312
  0
ENDBLK
  5
4A
100
AcDbEntity
  8
0
100
AcDbBlockEnd
  0
BLOCK
  5
2D
100
AcDbEntity
  8
0
100
AcDbBlockBegin
 62
0
370
13
  2
ZAS
 70
0
 10
0
 20
0
 30
0
  3
ZAS
  0
HATCH
  5
4B
100
AcDbEntity
  8
0
  6
CONTINUOUS
420
16777215
370
18
100
AcDbHatch
 10
0.0
 20
0.0
 30
0.0
210
0.0
220
0.0
230
1.0
  2
SOLID
 70
1
 71
1
 91
1
 92
3
 72
0
 73
1
 93
5
 10
-0.4
 20
0.4
 10
-0.4
 20
-0.4
 10
0.4
 20
-0.4
 10
0.4
 20
0.4
 10
-0.4
 20
0.4
 97
0
 75
0
 76
1
 98
0
  0
POLYLINE
  5
4C
100
AcDbEntity
  8
0
  6
CONTINUOUS
 62
0
370
18
100
AcDb2dPolyline
 66
1
 70
129
  0
VERTEX
  5
4D
100
AcDbEntity
  8
0
100
AcDbVertex
100
AcDb2dVertex
 10
-0.4
 20
0.4
  0
VERTEX
  5
4E
100
AcDbEntity
  8
0
100
AcDbVertex
100
AcDb2dVertex
 10
-0.4
 20
-0.4
  0
VERTEX
  5
4F
100
AcDbEntity
  8
0
100
AcDbVertex
100
AcDb2dVertex
 10
0.4
 20
-0.4
  0
VERTEX
  5
50
100
AcDbEntity
  8
0
100
AcDbVertex
100
AcDb2dVertex
 10
0.4
 20
0.4
  0
VERTEX
  5
51
100
AcDbEntity
  8
0
100
AcDbVertex
100
AcDb2dVertex
 10
-0.4
 20
0.4
  0
SEQEND
  5
52
100
AcDbEntity
  8
0
  0
ENDBLK
  5
53
100
AcDbEntity
  8
0
100
AcDbBlockEnd
  0
BLOCK
  5
2F
100
AcDbEntity
  8
0
100
AcDbBlockBegin
 62
0
370
13
  2
SLS
 70
0
 10
0
 20
0
 30
0
  3
SLS
  0
HATCH
  5
54
100
AcDbEntity
  8
0
  6
CONTINUOUS
420
16777215
370
18
100
AcDbHatch
 10
0.0
 20
0.0
 30
0.0
210
0.0
220
0.0
230
1.0
  2
SOLID
 70
1
 71
1
 91
1
 92
3
 72
1
 73
1
 93
2
 10
0.0
 20
-0.5
 42
1.0
 10
0.0
 20
0.5
 42
1.0
 97
0
 75
0
 76
1
 98
0
  0
CIRCLE
  5
55
100
AcDbEntity
  8
0
  6
CONTINUOUS
 62
0
370
18
100
AcDbCircle
 10
0.0
 20
-0.0
 40
0.5
  0
ENDBLK
  5
56
100
AcDbEntity
  8
0
100
AcDbBlockEnd
  0
BLOCK
  5
31
100
AcDbEntity
  8
0
100
AcDbBlockBegin
 62
0
370
13
  2
LAT
 70
0
 10
0
 20
0
 30
0
  3
LAT
  0
POLYLINE
  5
57
100
AcDbEntity
  8
0
  6
CONTINUOUS
 62
0
370
18
100
AcDb2dPolyline
 66
1
 70
128
  0
VERTEX
  5
58
100
AcDbEntity
  8
0
100
AcDbVertex
100
AcDb2dVertex
 10
0.0
 20
2.5
  0
VERTEX
  5
59
100
AcDbEntity
  8
0
100
AcDbVertex
100
AcDb2dVertex
 10
0.0
 20
1.5
  0
SEQEND
  5
5A
100
AcDbEntity
  8
0
  0
POLYLINE
  5
5B
100
AcDbEntity
  8
0
  6
CONTINUOUS
 62
0
370
18
100
AcDb2dPolyline
 66
1
 70
128
  0
VERTEX
  5
5C
100
AcDbEntity
  8
0
100
AcDbVertex
100
AcDb2dVertex
 10
0.0
 20
-1.5
  0
VERTEX
  5
5D
100
AcDbEntity
  8
0
100
AcDbVertex
100
AcDb2dVertex
 10
0.0
 20
-2.5
  0
SEQEND
  5
5E
100
AcDbEntity
  8
0
  0
POLYLINE
  5
5F
100
AcDbEntity
  8
0
  6
CONTINUOUS
 62
0
370
18
100
AcDb2dPolyline
 66
1
 70
128
  0
VERTEX
  5
60
100
AcDbEntity
  8
0
100
AcDbVertex
100
AcDb2dVertex
 10
1.5
 20
-0.0
  0
VERTEX
  5
61
100
AcDbEntity
  8
0
100
AcDbVertex
100
AcDb2dVertex
 10
2.5
 20
-0.0
  0
SEQEND
  5
62
100
AcDbEntity
  8
0
  0
POLYLINE
  5
63
100
AcDbEntity
  8
0
  6
CONTINUOUS
 62
0
370
18
100
AcDb2dPolyline
 66
1
 70
128
  0
VERTEX
  5
64
100
AcDbEntity
  8
0
100
AcDbVertex
100
AcDb2dVertex
 10
-1.5
 20
-0.0
  0
VERTEX
  5
65
100
AcDbEntity
  8
0
100
AcDbVertex
100
AcDb2dVertex
 10
-2.5
 20
-0.0
  0
SEQEND
  5
66
100
AcDbEntity
  8
0
  0
ENDBLK
  5
67
100
AcDbEntity
  8
0
100
AcDbBlockEnd
  0
BLOCK
  5
33
100
AcDbEntity
  8
0
100
AcDbBlockBegin
 62
0
370
13
  2
WSP
 70
0
 10
0
 20
0
 30
0
  3
WSP
  0
HATCH
  5
68
100
AcDbEntity
  8
0
  6
CONTINUOUS
 62
0
370
13
100
AcDbHatch
 10
0.0
 20
0.0
 30
0.0
210
0.0
220
0.0
230
1.0
  2
SOLID
 70
1
 71
1
 91
1
 92
3
 72
1
 73
1
 93
2
 10
0.0
 20
-0.1
 42
1.0
 10
0.0
 20
0.1
 42
1.0
 97
0
 75
0
 76
1
 98
0
  0
CIRCLE
  5
69
100
AcDbEntity
  8
0
  6
CONTINUOUS
 62
0
370
13
100
AcDbCircle
 10
0.0
 20
-0.0
 40
0.1
  0
ENDBLK
  5
6A
100
AcDbEntity
  8
0
100
AcDbBlockEnd
  0
BLOCK
  5
35
100
AcDbEntity
  8
0
100
AcDbBlockBegin
 62
0
370
13
  2
DIG
 70
0
 10
0
 20
0
 30
0
  3
DIG
  0
POLYLINE
  5
6B
100
AcDbEntity
  8
0
  6
CONTINUOUS
 62
0
370
18
100
AcDb2dPolyline
 66
1
 70
128
  0
VERTEX
  5
6C
100
AcDbEntity
  8
0
100
AcDbVertex
100
AcDb2dVertex
 10
0.0
 20
-1.74
  0
VERTEX
  5
6D
100
AcDbEntity
  8
0
100
AcDbVertex
100
AcDb2dVertex
 10
-0.35
 20
-0.48
  0
VERTEX
  5
6E
100
AcDbEntity
  8
0
100
AcDbVertex
100
AcDb2dVertex
 10
-1.65
 20
-0.54
  0
VERTEX
  5
6F
100
AcDbEntity
  8
0
100
AcDbVertex
100
AcDb2dVertex
 10
-0.57
 20
0.18
  0
VERTEX
  5
70
100
AcDbEntity
  8
0
100
AcDbVertex
100
AcDb2dVertex
 10
-1.02
 20
1.4
  0
VERTEX
  5
71
100
AcDbEntity
  8
0
100
AcDbVertex
100
AcDb2dVertex
 10
0.0
 20
0.6
  0
VERTEX
  5
72
100
AcDbEntity
  8
0
100
AcDbVertex
100
AcDb2dVertex
 10
1.02
 20
1.4
  0
VERTEX
  5
73
100
AcDbEntity
  8
0
100
AcDbVertex
100
AcDb2dVertex
 10
0.57
 20
0.18
  0
VERTEX
  5
74
100
AcDbEntity
  8
0
100
AcDbVertex
100
AcDb2dVertex
 10
1.65
 20
-0.54
  0
VERTEX
  5
75
100
AcDbEntity
  8
0
100
AcDbVertex
100
AcDb2dVertex
 10
0.35
 20
-0.48
  0
VERTEX
  5
76
100
AcDbEntity
  8
0
100
AcDbVertex
100
AcDb2dVertex
 10
0.0
 20
-1.74
  0
SEQEND
  5
77
100
AcDbEntity
  8
0
  0
HATCH
  5
78
100
AcDbEntity
  8
0
  6
CONTINUOUS
 62
0
370
18
100
AcDbHatch
 10
0.0
 20
0.0
 30
0.0
210
0.0
220
0.0
230
1.0
  2
SOLID
 70
1
 71
1
 91
1
 92
3
 72
1
 73
1
 93
2
 10
0.0
 20
-0.1
 42
1.0
 10
0.0
 20
0.1
 42
1.0
 97
0
 75
0
 76
1
 98
0
  0
CIRCLE
  5
79
100
AcDbEntity
  8
0
  6
CONTINUOUS
 62
0
370
18
100
AcDbCircle
 10
0.0
 20
-0.0
 40
0.1
  0
ENDBLK
  5
7A
100
AcDbEntity
  8
0
100
AcDbBlockEnd
  0
BLOCK
  5
37
100
AcDbEntity
  8
0
100
AcDbBlockBegin
 62
0
370
13
  2
DLI
 70
0
 10
0
 20
0
 30
0
  3
DLI
  0
ARC
  5
7B
100
AcDbEntity
  8
0
  6
CONTINUOUS
 62
0
370
18
100
AcDbCircle
 10
0.0000000000
 20
0.8000000000
 30
0
 40
0.7000000000
100
AcDbArc
 50
29.8459319497
 51
150.1540680503
  0
ARC
  5
7C
100
AcDbEntity
  8
0
  6
CONTINUOUS
 62
0
370
18
100
AcDbCircle
 10
0.7700000000
 20
0.2500000000
 30
0
 40
0.7000000000
100
AcDbArc
 50
317.3373058591
 51
78.3663660011
  0
ARC
  5
7D
100
AcDbEntity
  8
0
  6
CONTINUOUS
 62
0
370
18
100
AcDbCircle
 10
0.4600000000
 20
-0.6400000000
 30
0
 40
0.7100000000
100
AcDbArc
 50
247.4427533653
 51
5.6306827576
  0
ARC
  5
7E
100
AcDbEntity
  8
0
  6
CONTINUOUS
 62
0
370
18
100
AcDbCircle
 10
-0.4600000000
 20
-0.6400000000
 30
0
 40
0.7100000000
100
AcDbArc
 50
174.3693172424
 51
292.5572466347
  0
ARC
  5
7F
100
AcDbEntity
  8
0
  6
CONTINUOUS
 62
0
370
18
100
AcDbCircle
 10
-0.7700000000
 20
0.2500000000
 30
0
 40
0.7000000000
100
AcDbArc
 50
101.6336339989
 51
222.6626941409
  0
HATCH
  5
80
100
AcDbEntity
  8
0
  6
CONTINUOUS
 62
0
370
18
100
AcDbHatch
 10
0.0
 20
0.0
 30
0.0
210
0.0
220
0.0
230
1.0
  2
SOLID
 70
1
 71
1
 91
1
 92
3
 72
1
 73
1
 93
2
 10
0.0
 20
-0.1
 42
1.0
 10
0.0
 20
0.1
 42
1.0
 97
0
 75
0
 76
1
 98
0
  0
CIRCLE
  5
81
100
AcDbEntity
  8
0
  6
CONTINUOUS
 62
0
370
18
100
AcDbCircle
 10
0.0
 20
-0.0
 40
0.1
  0
ENDBLK
  5
82
100
AcDbEntity
  8
0
100
AcDbBlockEnd
  0
BLOCK
  5
39
100
AcDbEntity
  8
0
100
AcDbBlockBegin
 62
0
370
13
  2
PRH
 70
0
 10
0
 20
0
 30
0
  3
PRH
  0
POLYLINE
  5
83
100
AcDbEntity
  8
0
  6
CONTINUOUS
 62
0
370
18
100
AcDb2dPolyline
 66
1
 70
128
  0
VERTEX
  5
84
100
AcDbEntity
  8
0
100
AcDbVertex
100
AcDb2dVertex
 10
-0.8
 20
1.0
  0
VERTEX
  5
85
100
AcDbEntity
  8
0
100
AcDbVertex
100
AcDb2dVertex
 10
0.7
 20
1.0
  0
VERTEX
  5
86
100
AcDbEntity
  8
0
100
AcDbVertex
100
AcDb2dVertex
 10
-0.8
 20
-1.0
  0
VERTEX
  5
87
100
AcDbEntity
  8
0
100
AcDbVertex
100
AcDb2dVertex
 10
0.8
 20
-1.0
  0
SEQEND
  5
88
100
AcDbEntity
  8
0
  0
ENDBLK
  5
89
100
AcDbEntity
  8
0
100
AcDbBlockEnd
  0
BLOCK
  5
3B
100
AcDbEntity
  8
0
100
AcDbBlockBegin
 62
0
370
13
  2
PNN
 70
0
 10
0
 20
0
 30
0
  3
PNN
  0
POLYLINE
  5
8A
100
AcDbEntity
  8
0
  6
CONTINUOUS
 62
0
370
18
100
AcDb2dPolyline
 66
1
 70
128
  0
VERTEX
  5
8B
100
AcDbEntity
  8
0
100
AcDbVertex
100
AcDb2dVertex
 10
0.5
 20
-0.0
  0
VERTEX
  5
8C
100
AcDbEntity
  8
0
100
AcDbVertex
100
AcDb2dVertex
 10
10.0
 20
-0.0
  0
SEQEND
  5
8D
100
AcDbEntity
  8
0
  0
POLYLINE
  5
8E
100
AcDbEntity
  8
0
  6
CONTINUOUS
 62
0
370
18
100
AcDb2dPolyline
 66
1
 70
128
  0
VERTEX
  5
8F
100
AcDbEntity
  8
0
100
AcDbVertex
100
AcDb2dVertex
 10
9.0
 20
-0.0
  0
VERTEX
  5
90
100
AcDbEntity
  8
0
100
AcDbVertex
100
AcDb2dVertex
 10
7.4
 20
0.9
  0
SEQEND
  5
91
100
AcDbEntity
  8
0
  0
POLYLINE
  5
92
100
AcDbEntity
  8
0
  6
CONTINUOUS
 62
0
370
18
100
AcDb2dPolyline
 66
1
 70
128
  0
VERTEX
  5
93
100
AcDbEntity
  8
0
100
AcDbVertex
100
AcDb2dVertex
 10
9.0
 20
-0.0
  0
VERTEX
  5
94
100
AcDbEntity
  8
0
100
AcDbVertex
100
AcDb2dVertex
 10
7.4
 20
-0.9
  0
SEQEND
  5
95
100
AcDbEntity
  8
0
  0
ENDBLK
  5
96
100
AcDbEntity
  8
0
100
AcDbBlockEnd
  0
BLOCK
  5
3D
100
AcDbEntity
  8
0
100
AcDbBlockBegin
 62
0
370
13
  2
L_0_02_1
 70
0
 10
0
 20
0
 30
0
  3
L_0_02_1
  0
POINT
  5
97
100
AcDbEntity
  8
0
100
AcDbPoint
 62
0
 10
0.0
 20
0.0
 30
0.000
  0
ENDBLK
  5
98
100
AcDbEntity
  8
0
100
AcDbBlockEnd
  0
BLOCK
  5
3F
100
AcDbEntity
  8
0
100
AcDbBlockBegin
 62
0
370
13
  2
L_0_02_2
 70
0
 10
0
 20
0
 30
0
  3
L_0_02_2
  0
POINT
  5
99
100
AcDbEntity
  8
0
100
AcDbPoint
 62
0
 10
-0.0
 20
-0.0
 30
0.000
  0
ENDBLK
  5
9A
100
AcDbEntity
  8
0
100
AcDbBlockEnd
  0
ENDSEC
  0
SECTION
  2
ENTITIES
  0
POLYLINE
  5
9B
100
AcDbEntity
  8
budynek
  6
CONTINUOUS
420
3355443
370
25
100
AcDb3dPolyline
 66
1
 70
136
  0
VERTEX
  5
9C
100
AcDbEntity
  8
budynek
100
AcDbVertex
100
AcDb3dPolylineVertex
 10
7569868.3443702748
 20
5715583.08050556853
 30
0.000
 70
32
  0
VERTEX
  5
9D
100
AcDbEntity
  8
budynek
100
AcDbVertex
100
AcDb3dPolylineVertex
 10
7569867.60664272867
 20
5715583.13868597429
 30
0.000
 70
32
  0
SEQEND
  5
9E
100
AcDbEntity
  8
budynek
  0
POLYLINE
  5
9F
100
AcDbEntity
  8
budynek
  6
CONTINUOUS
420
3355443
370
25
100
AcDb3dPolyline
 66
1
 70
136
  0
VERTEX
  5
A0
100
AcDbEntity
  8
budynek
100
AcDbVertex
100
AcDb3dPolylineVertex
 10
7569867.60664272867
 20
5715583.13868597429
 30
0.000
 70
32
  0
VERTEX
  5
A1
100
AcDbEntity
  8
budynek
100
AcDbVertex
100
AcDb3dPolylineVertex
 10
7569867.63966322876
 20
5715583.55738592241
 30
0.000
 70
32
  0
SEQEND
  5
A2
100
AcDbEntity
  8
budynek
  0
POLYLINE
  5
A3
100
AcDbEntity
  8
budynek
  6
CONTINUOUS
420
3355443
370
25
100
AcDb3dPolyline
 66
1
 70
136
  0
VERTEX
  5
A4
100
AcDbEntity
  8
budynek
100
AcDbVertex
100
AcDb3dPolylineVertex
 10
7569867.63966322876
 20
5715583.55738592241
 30
0.000
 70
32
  0
VERTEX
  5
A5
100
AcDbEntity
  8
budynek
100
AcDbVertex
100
AcDb3dPolylineVertex
 10
7569868.37739077583
 20
5715583.49920551665
 30
0.000
 70
32
  0
SEQEND
  5
A6
100
AcDbEntity
  8
budynek
  0
POLYLINE
  5
A7
100
AcDbEntity
  8
budynek
  6
CONTINUOUS
420
3355443
370
13
100
AcDb3dPolyline
 66
1
 70
136
  0
VERTEX
  5
A8
100
AcDbEntity
  8
budynek
100
AcDbVertex
100
AcDb3dPolylineVertex
 10
7569852.66999999993
 20
5715582.08999999985
 30
0.000
 70
32
  0
VERTEX
  5
A9
100
AcDbEntity
  8
budynek
100
AcDbVertex
100
AcDb3dPolylineVertex
 10
7569852.87000000011
 20
5715584.70999999996
 30
0.000
 70
32
  0
VERTEX
  5
AA
100
AcDbEntity
  8
budynek
100
AcDbVertex
100
AcDb3dPolylineVertex
 10
7569862.03000000026
 20
5715583.98000000045
 30
0.000
 70
32
  0
VERTEX
  5
AB
100
AcDbEntity
  8
budynek
100
AcDbVertex
100
AcDb3dPolylineVertex
 10
7569862.1799999997
 20
5715585.99000000022
 30
0.000
 70
32
  0
VERTEX
  5
AC
100
AcDbEntity
  8
budynek
100
AcDbVertex
100
AcDb3dPolylineVertex
 10
7569859.04999999981
 20
5715586.24000000022
 30
0.000
 70
32
  0
VERTEX
  5
AD
100
AcDbEntity
  8
budynek
100
AcDbVertex
100
AcDb3dPolylineVertex
 10
7569859.1799999997
 20
5715587.90000000037
 30
0.000
 70
32
  0
VERTEX
  5
AE
100
AcDbEntity
  8
budynek
100
AcDbVertex
100
AcDb3dPolylineVertex
 10
7569852.08999999985
 20
5715588.45999999996
 30
0.000
 70
32
  0
VERTEX
  5
AF
100
AcDbEntity
  8
budynek
100
AcDbVertex
100
AcDb3dPolylineVertex
 10
7569851.58999999985
 20
5715582.16999999993
 30
0.000
 70
32
  0
SEQEND
  5
B0
100
AcDbEntity
  8
budynek
  0
POLYLINE
  5
B1
100
AcDbEntity
  8
budynek
  6
CONTINUOUS
420
3355443
370
13
100
AcDb3dPolyline
 66
1
 70
136
  0
VERTEX
  5
B2
100
AcDbEntity
  8
budynek
100
AcDbVertex
100
AcDb3dPolylineVertex
 10
7569852.08999999985
 20
5715588.45999999996
 30
0.000
 70
32
  0
VERTEX
  5
B3
100
AcDbEntity
  8
budynek
100
AcDbVertex
100
AcDb3dPolylineVertex
 10
7569859.1799999997
 20
5715587.90000000037
 30
0.000
 70
32
  0
VERTEX
  5
B4
100
AcDbEntity
  8
budynek
100
AcDbVertex
100
AcDb3dPolylineVertex
 10
7569859.20999999996
 20
5715588.24000000022
 30
0.000
 70
32
  0
VERTEX
  5
B5
100
AcDbEntity
  8
budynek
100
AcDbVertex
100
AcDb3dPolylineVertex
 10
7569852.11000000034
 20
5715588.79999999981
 30
0.000
 70
32
  0
SEQEND
  5
B6
100
AcDbEntity
  8
budynek
  0
POLYLINE
  5
B7
100
AcDbEntity
  8
budynek
  6
CONTINUOUS
420
3355443
370
13
100
AcDb3dPolyline
 66
1
 70
136
  0
VERTEX
  5
B8
100
AcDbEntity
  8
budynek
100
AcDbVertex
100
AcDb3dPolylineVertex
 10
7569860.1297502676
 20
5715572.53369482048
 30
0.000
 70
32
  0
VERTEX
  5
B9
100
AcDbEntity
  8
budynek
100
AcDbVertex
100
AcDb3dPolylineVertex
 10
7569860.09122635052
 20
5715572.04521155637
 30
0.000
 70
32
  0
SEQEND
  5
BA
100
AcDbEntity
  8
budynek
  0
POLYLINE
  5
BB
100
AcDbEntity
  8
budynek
  6
CONTINUOUS
420
3355443
370
13
100
AcDb3dPolyline
 66
1
 70
136
  0
VERTEX
  5
BC
100
AcDbEntity
  8
budynek
100
AcDbVertex
100
AcDb3dPolylineVertex
 10
7569859.96216336731
 20
5715571.93501745723
 30
0.000
 70
32
  0
VERTEX
  5
BD
100
AcDbEntity
  8
budynek
100
AcDbVertex
100
AcDb3dPolylineVertex
 10
7569860.01955614146
 20
5715572.66275783442
 30
0.000
 70
32
  0
SEQEND
  5
BE
100
AcDbEntity
  8
budynek
  0
POLYLINE
  5
BF
100
AcDbEntity
  8
budynek
  6
CONTINUOUS
420
3355443
370
13
100
AcDb3dPolyline
 66
1
 70
136
  0
VERTEX
  5
C0
100
AcDbEntity
  8
budynek
100
AcDbVertex
100
AcDb3dPolylineVertex
 10
7569862.0135447951
 20
5715572.50550272409
 30
0.000
 70
32
  0
VERTEX
  5
C1
100
AcDbEntity
  8
budynek
100
AcDbVertex
100
AcDb3dPolylineVertex
 10
7569861.95615202095
 20
5715571.77776234597
 30
0.000
 70
32
  0
SEQEND
  5
C2
100
AcDbEntity
  8
budynek
  0
POLYLINE
  5
C3
100
AcDbEntity
  8
budynek
  6
CONTINUOUS
420
3355443
370
13
100
AcDb3dPolyline
 66
1
 70
136
  0
VERTEX
  5
C4
100
AcDbEntity
  8
budynek
100
AcDbVertex
100
AcDb3dPolylineVertex
 10
7569861.84595789574
 20
5715571.90682536084
 30
0.000
 70
32
  0
VERTEX
  5
C5
100
AcDbEntity
  8
budynek
100
AcDbVertex
100
AcDb3dPolylineVertex
 10
7569861.88448181283
 20
5715572.39530862495
 30
0.000
 70
32
  0
SEQEND
  5
C6
100
AcDbEntity
  8
budynek
  0
POLYLINE
  5
C7
100
AcDbEntity
  8
budynek
  6
CONTINUOUS
420
3355443
370
13
100
AcDb3dPolyline
 66
1
 70
136
  0
VERTEX
  5
C8
100
AcDbEntity
  8
budynek
100
AcDbVertex
100
AcDb3dPolylineVertex
 10
7569861.95615202095
 20
5715571.77776234597
 30
0.000
 70
32
  0
VERTEX
  5
C9
100
AcDbEntity
  8
budynek
100
AcDbVertex
100
AcDb3dPolylineVertex
 10
7569859.96216336731
 20
5715571.93501745723
 30
0.000
 70
32
  0
SEQEND
  5
CA
100
AcDbEntity
  8
budynek
  0
POLYLINE
  5
CB
100
AcDbEntity
  8
budynek
  6
CONTINUOUS
420
3355443
370
13
100
AcDb3dPolyline
 66
1
 70
136
  0
VERTEX
  5
CC
100
AcDbEntity
  8
budynek
100
AcDbVertex
100
AcDb3dPolylineVertex
 10
7569860.09122635052
 20
5715572.04521155637
 30
0.000
 70
32
  0
VERTEX
  5
CD
100
AcDbEntity
  8
budynek
100
AcDbVertex
100
AcDb3dPolylineVertex
 10
7569861.84595789574
 20
5715571.90682536084
 30
0.000
 70
32
  0
SEQEND
  5
CE
100
AcDbEntity
  8
budynek
  0
POLYLINE
  5
CF
100
AcDbEntity
  8
budynek
  6
CONTINUOUS
420
3355443
370
13
100
AcDb3dPolyline
 66
1
 70
136
  0
VERTEX
  5
D0
100
AcDbEntity
  8
budynek
100
AcDbVertex
100
AcDb3dPolylineVertex
 10
7569860.01955614146
 20
5715572.66275783442
 30
0.000
 70
32
  0
VERTEX
  5
D1
100
AcDbEntity
  8
budynek
100
AcDbVertex
100
AcDb3dPolylineVertex
 10
7569862.0135447951
 20
5715572.50550272409
 30
0.000
 70
32
  0
SEQEND
  5
D2
100
AcDbEntity
  8
budynek
  0
POLYLINE
  5
D3
100
AcDbEntity
  8
budynek
  6
CONTINUOUS
420
3355443
370
13
100
AcDb3dPolyline
 66
1
 70
136
  0
VERTEX
  5
D4
100
AcDbEntity
  8
budynek
100
AcDbVertex
100
AcDb3dPolylineVertex
 10
7569861.88448181283
 20
5715572.39530862495
 30
0.000
 70
32
  0
VERTEX
  5
D5
100
AcDbEntity
  8
budynek
100
AcDbVertex
100
AcDb3dPolylineVertex
 10
7569860.1297502676
 20
5715572.53369482048
 30
0.000
 70
32
  0
SEQEND
  5
D6
100
AcDbEntity
  8
budynek
  0
POLYLINE
  5
D7
100
AcDbEntity
  8
budynek
  6
CONTINUOUS
420
3355443
370
13
100
AcDb3dPolyline
 66
1
 70
136
  0
VERTEX
  5
D8
100
AcDbEntity
  8
budynek
100
AcDbVertex
100
AcDb3dPolylineVertex
 10
7569860.95664647501
 20
5715572.58885394689
 30
0.000
 70
32
  0
VERTEX
  5
D9
100
AcDbEntity
  8
budynek
100
AcDbVertex
100
AcDb3dPolylineVertex
 10
7569862.0135447951
 20
5715572.50550272409
 30
0.000
 70
32
  0
SEQEND
  5
DA
100
AcDbEntity
  8
budynek
  0
POLYLINE
  5
DB
100
AcDbEntity
  8
budynek
  6
CONTINUOUS
420
3355443
370
13
100
AcDb3dPolyline
 66
1
 70
136
  0
VERTEX
  5
DC
100
AcDbEntity
  8
budynek
100
AcDbVertex
100
AcDb3dPolylineVertex
 10
7569862.09198379889
 20
5715573.50239841919
 30
0.000
 70
32
  0
VERTEX
  5
DD
100
AcDbEntity
  8
budynek
100
AcDbVertex
100
AcDb3dPolylineVertex
 10
7569862.0135447951
 20
5715572.50550272409
 30
0.000
 70
32
  0
SEQEND
  5
DE
100
AcDbEntity
  8
budynek
  0
POLYLINE
  5
DF
100
AcDbEntity
  8
budynek
  6
CONTINUOUS
420
3355443
370
25
100
AcDb3dPolyline
 66
1
 70
136
  0
VERTEX
  5
E0
100
AcDbEntity
  8
budynek
100
AcDbVertex
100
AcDb3dPolylineVertex
 10
7569868.37739077583
 20
5715583.49920551665
 30
0.000
 70
32
  0
VERTEX
  5
E1
100
AcDbEntity
  8
budynek
100
AcDbVertex
100
AcDb3dPolylineVertex
 10
7569868.3443702748
 20
5715583.08050556853
 30
0.000
 70
32
  0
SEQEND
  5
E2
100
AcDbEntity
  8
budynek
  0
POLYLINE
  5
E3
100
AcDbEntity
  8
budynek
  6
CONTINUOUS
420
15540004
370
35
100
AcDb3dPolyline
 66
1
 70
136
  0
VERTEX
  5
E4
100
AcDbEntity
  8
budynek
100
AcDbVertex
100
AcDb3dPolylineVertex
 10
7569789.35252573527
 20
5715628.0571976332
 30
0.000
 70
32
  0
VERTEX
  5
E5
100
AcDbEntity
  8
budynek
100
AcDbVertex
100
AcDb3dPolylineVertex
 10
7569790.06161677558
 20
5715627.28705321066
 30
0.000
 70
32
  0
SEQEND
  5
E6
100
AcDbEntity
  8
budynek
  0
POLYLINE
  5
E7
100
AcDbEntity
  8
budynek
  6
CONTINUOUS
420
15540004
370
35
100
AcDb3dPolyline
 66
1
 70
136
  0
VERTEX
  5
E8
100
AcDbEntity
  8
budynek
100
AcDbVertex
100
AcDb3dPolylineVertex
 10
7569790.06161677558
 20
5715628.0571976332
 30
0.000
 70
32
  0
VERTEX
  5
E9
100
AcDbEntity
  8
budynek
100
AcDbVertex
100
AcDb3dPolylineVertex
 10
7569789.35252573527
 20
5715627.28705321066
 30
0.000
 70
32
  0
SEQEND
  5
EA
100
AcDbEntity
  8
budynek
  0
POLYLINE
  5
EB
100
AcDbEntity
  8
budynek
  6
CONTINUOUS
420
15540004
370
35
100
AcDb3dPolyline
 66
1
 70
136
  0
VERTEX
  5
EC
100
AcDbEntity
  8
budynek
100
AcDbVertex
100
AcDb3dPolylineVertex
 10
7569787.75445665047
 20
5715626.53086888231
 30
0.000
 70
32
  0
VERTEX
  5
ED
100
AcDbEntity
  8
budynek
100
AcDbVertex
100
AcDb3dPolylineVertex
 10
7569788.46354769077
 20
5715625.76072445977
 30
0.000
 70
32
  0
SEQEND
  5
EE
100
AcDbEntity
  8
budynek
  0
POLYLINE
  5
EF
100
AcDbEntity
  8
budynek
  6
CONTINUOUS
420
15540004
370
35
100
AcDb3dPolyline
 66
1
 70
136
  0
VERTEX
  5
F0
100
AcDbEntity
  8
budynek
100
AcDbVertex
100
AcDb3dPolylineVertex
 10
7569788.46354769077
 20
5715626.53086888231
 30
0.000
 70
32
  0
VERTEX
  5
F1
100
AcDbEntity
  8
budynek
100
AcDbVertex
100
AcDb3dPolylineVertex
 10
7569787.75445665047
 20
5715625.76072445977
 30
0.000
 70
32
  0
SEQEND
  5
F2
100
AcDbEntity
  8
budynek
  0
POLYLINE
  5
F3
100
AcDbEntity
  8
budynek
  6
CONTINUOUS
420
3355443
370
13
100
AcDb3dPolyline
 66
1
 70
137
  0
VERTEX
  5
F4
100
AcDbEntity
  8
budynek
100
AcDbVertex
100
AcDb3dPolylineVertex
 10
7569857.2565398002
 20
5715572.86059914902
 30
0.000
 70
32
  0
VERTEX
  5
F5
100
AcDbEntity
  8
budynek
100
AcDbVertex
100
AcDb3dPolylineVertex
 10
7569857.19836079236
 20
5715572.12288974039
 30
0.000
 70
32
  0
VERTEX
  5
F6
100
AcDbEntity
  8
budynek
100
AcDbVertex
100
AcDb3dPolylineVertex
 10
7569859.9598047547
 20
5715571.90511024836
 30
0.000
 70
32
  0
VERTEX
  5
F7
100
AcDbEntity
  8
budynek
100
AcDbVertex
100
AcDb3dPolylineVertex
 10
7569860.01798372995
 20
5715572.64281965885
 30
0.000
 70
32
  0
SEQEND
  5
F8
100
AcDbEntity
  8
budynek
  0
POLYLINE
  5
F9
100
AcDbEntity
  8
budynek
  6
CONTINUOUS
420
3355443
370
13
100
AcDb3dPolyline
 66
1
 70
137
  0
VERTEX
  5
FA
100
AcDbEntity
  8
budynek
100
AcDbVertex
100
AcDb3dPolylineVertex
 10
7569862.45046249591
 20
5715584.78917495627
 30
0.000
 70
32
  0
VERTEX
  5
FB
100
AcDbEntity
  8
budynek
100
AcDbVertex
100
AcDb3dPolylineVertex
 10
7569862.29086340964
 20
5715582.76545854378
 30
0.000
 70
32
  0
VERTEX
  5
FC
100
AcDbEntity
  8
budynek
100
AcDbVertex
100
AcDb3dPolylineVertex
 10
7569862.8890061928
 20
5715582.71828640066
 30
0.000
 70
32
  0
VERTEX
  5
FD
100
AcDbEntity
  8
budynek
100
AcDbVertex
100
AcDb3dPolylineVertex
 10
7569862.8890061928
 20
5715582.71828640066
 30
0.000
 70
32
  0
VERTEX
  5
FE
100
AcDbEntity
  8
budynek
100
AcDbVertex
100
AcDb3dPolylineVertex
 10
7569863.78622036707
 20
5715582.64752818458
 30
0.000
 70
32
  0
VERTEX
  5
FF
100
AcDbEntity
  8
budynek
100
AcDbVertex
100
AcDb3dPolylineVertex
 10
7569863.78622036707
 20
5715582.64752818458
 30
0.000
 70
32
  0
VERTEX
  5
100
100
AcDbEntity
  8
budynek
100
AcDbVertex
100
AcDb3dPolylineVertex
 10
7569868.30141218193
 20
5715582.28140952252
 30
0.000
 70
32
  0
VERTEX
  5
101
100
AcDbEntity
  8
budynek
100
AcDbVertex
100
AcDb3dPolylineVertex
 10
7569868.46179746464
 20
5715584.31509491149
 30
0.000
 70
32
  0
SEQEND
  5
102
100
AcDbEntity
  8
budynek
  0
POLYLINE
  5
103
100
AcDbEntity
  8
budynek
  6
CONTINUOUS
420
3355443
370
13
100
AcDb3dPolyline
 66
1
 70
137
  0
VERTEX
  5
104
100
AcDbEntity
  8
budynek
100
AcDbVertex
100
AcDb3dPolylineVertex
 10
7569857.09052527044
 20
5715572.28185985703
 30
0.000
 70
32
  0
VERTEX
  5
105
100
AcDbEntity
  8
budynek
100
AcDbVertex
100
AcDb3dPolylineVertex
 10
7569855.83442542609
 20
5715572.38092135917
 30
0.000
 70
32
  0
VERTEX
  5
106
100
AcDbEntity
  8
budynek
100
AcDbVertex
100
AcDb3dPolylineVertex
 10
7569855.8808113588
 20
5715572.96909505967
 30
0.000
 70
32
  0
VERTEX
  5
107
100
AcDbEntity
  8
budynek
100
AcDbVertex
100
AcDb3dPolylineVertex
 10
7569857.13691117428
 20
5715572.87003355939
 30
0.000
 70
32
  0
SEQEND
  5
108
100
AcDbEntity
  8
budynek
  0
POLYLINE
  5
109
100
AcDbEntity
  8
budynek
  6
CONTINUOUS
420
3355443
370
13
100
AcDb3dPolyline
 66
1
 70
137
  0
VERTEX
  5
10A
100
AcDbEntity
  8
budynek
100
AcDbVertex
100
AcDb3dPolylineVertex
 10
7569855.91293798666
 20
5715574.90255403426
 30
0.000
 70
32
  0
VERTEX
  5
10B
100
AcDbEntity
  8
budynek
100
AcDbVertex
100
AcDb3dPolylineVertex
 10
7569855.70538055897
 20
5715572.27072585095
 30
0.000
 70
32
  0
VERTEX
  5
10C
100
AcDbEntity
  8
budynek
100
AcDbVertex
100
AcDb3dPolylineVertex
 10
7569857.20071943477
 20
5715572.15279691759
 30
0.000
 70
32
  0
VERTEX
  5
10D
100
AcDbEntity
  8
budynek
100
AcDbVertex
100
AcDb3dPolylineVertex
 10
7569857.2565398002
 20
5715572.86059914902
 30
0.000
 70
32
  0
VERTEX
  5
10E
100
AcDbEntity
  8
budynek
100
AcDbVertex
100
AcDb3dPolylineVertex
 10
7569860.01798372995
 20
5715572.64281965885
 30
0.000
 70
32
  0
VERTEX
  5
10F
100
AcDbEntity
  8
budynek
100
AcDbVertex
100
AcDb3dPolylineVertex
 10
7569860.01955614146
 20
5715572.66275783442
 30
0.000
 70
32
  0
VERTEX
  5
110
100
AcDbEntity
  8
budynek
100
AcDbVertex
100
AcDb3dPolylineVertex
 10
7569860.95664647501
 20
5715572.58885394689
 30
0.000
 70
32
  0
VERTEX
  5
111
100
AcDbEntity
  8
budynek
100
AcDbVertex
100
AcDb3dPolylineVertex
 10
7569861.03526673466
 20
5715573.58575936686
 30
0.000
 70
32
  0
VERTEX
  5
112
100
AcDbEntity
  8
budynek
100
AcDbVertex
100
AcDb3dPolylineVertex
 10
7569861.01532864198
 20
5715573.58733177092
 30
0.000
 70
32
  0
VERTEX
  5
113
100
AcDbEntity
  8
budynek
100
AcDbVertex
100
AcDb3dPolylineVertex
 10
7569861.09684210923
 20
5715574.49372878484
 30
0.000
 70
32
  0
SEQEND
  5
114
100
AcDbEntity
  8
budynek
  0
POLYLINE
  5
115
100
AcDbEntity
  8
budynek
  6
CONTINUOUS
420
3355443
370
13
100
AcDb3dPolyline
 66
1
 70
137
  0
VERTEX
  5
116
100
AcDbEntity
  8
budynek
100
AcDbVertex
100
AcDb3dPolylineVertex
 10
7569855.83442542609
 20
5715572.38092135917
 30
0.000
 70
32
  0
VERTEX
  5
117
100
AcDbEntity
  8
budynek
100
AcDbVertex
100
AcDb3dPolylineVertex
 10
7569855.8808113588
 20
5715572.96909505967
 30
0.000
 70
32
  0
VERTEX
  5
118
100
AcDbEntity
  8
budynek
100
AcDbVertex
100
AcDb3dPolylineVertex
 10
7569857.13691117428
 20
5715572.87003355939
 30
0.000
 70
32
  0
VERTEX
  5
119
100
AcDbEntity
  8
budynek
100
AcDbVertex
100
AcDb3dPolylineVertex
 10
7569857.09052527044
 20
5715572.28185985703
 30
0.000
 70
32
  0
SEQEND
  5
11A
100
AcDbEntity
  8
budynek
  0
POLYLINE
  5
11B
100
AcDbEntity
  8
budynek
  6
CONTINUOUS
420
3355443
370
13
100
AcDb3dPolyline
 66
1
 70
137
  0
VERTEX
  5
11C
100
AcDbEntity
  8
budynek
100
AcDbVertex
100
AcDb3dPolylineVertex
 10
7569862.1799999997
 20
5715585.99000000022
 30
0.000
 70
32
  0
VERTEX
  5
11D
100
AcDbEntity
  8
budynek
100
AcDbVertex
100
AcDb3dPolylineVertex
 10
7569862.03000000026
 20
5715583.98000000045
 30
0.000
 70
32
  0
VERTEX
  5
11E
100
AcDbEntity
  8
budynek
100
AcDbVertex
100
AcDb3dPolylineVertex
 10
7569862.38999999966
 20
5715583.95999999996
 30
0.000
 70
32
  0
VERTEX
  5
11F
100
AcDbEntity
  8
budynek
100
AcDbVertex
100
AcDb3dPolylineVertex
 10
7569862.53000000026
 20
5715585.96999999974
 30
0.000
 70
32
  0
SEQEND
  5
120
100
AcDbEntity
  8
budynek
  0
POLYLINE
  5
121
100
AcDbEntity
  8
budynek
  6
CONTINUOUS
420
16711935
370
35
100
AcDb3dPolyline
 66
1
 70
137
  0
VERTEX
  5
122
100
AcDbEntity
  8
budynek
100
AcDbVertex
100
AcDb3dPolylineVertex
 10
7569852.87000000011
 20
5715584.70999999996
 30
0.000
 70
32
  0
VERTEX
  5
123
100
AcDbEntity
  8
budynek
100
AcDbVertex
100
AcDb3dPolylineVertex
 10
7569862.38999999966
 20
5715583.95999999996
 30
0.000
 70
32
  0
VERTEX
  5
124
100
AcDbEntity
  8
budynek
100
AcDbVertex
100
AcDb3dPolylineVertex
 10
7569862.29000000004
 20
5715582.76999999955
 30
0.000
 70
32
  0
VERTEX
  5
125
100
AcDbEntity
  8
budynek
100
AcDbVertex
100
AcDb3dPolylineVertex
 10
7569868.26999999955
 20
5715582.29000000004
 30
0.000
 70
32
  0
VERTEX
  5
126
100
AcDbEntity
  8
budynek
100
AcDbVertex
100
AcDb3dPolylineVertex
 10
7569867.54999999981
 20
5715573.08000000007
 30
0.000
 70
32
  0
VERTEX
  5
127
100
AcDbEntity
  8
budynek
100
AcDbVertex
100
AcDb3dPolylineVertex
 10
7569861.03000000026
 20
5715573.59999999963
 30
0.000
 70
32
  0
VERTEX
  5
128
100
AcDbEntity
  8
budynek
100
AcDbVertex
100
AcDb3dPolylineVertex
 10
7569861.09999999963
 20
5715574.49000000022
 30
0.000
 70
32
  0
VERTEX
  5
129
100
AcDbEntity
  8
budynek
100
AcDbVertex
100
AcDb3dPolylineVertex
 10
7569852.12000000011
 20
5715575.20000000019
 30
0.000
 70
32
  0
VERTEX
  5
12A
100
AcDbEntity
  8
budynek
100
AcDbVertex
100
AcDb3dPolylineVertex
 10
7569852.37999999989
 20
5715578.41999999993
 30
0.000
 70
32
  0
VERTEX
  5
12B
100
AcDbEntity
  8
budynek
100
AcDbVertex
100
AcDb3dPolylineVertex
 10
7569851.29999999981
 20
5715578.50999999978
 30
0.000
 70
32
  0
VERTEX
  5
12C
100
AcDbEntity
  8
budynek
100
AcDbVertex
100
AcDb3dPolylineVertex
 10
7569851.58999999985
 20
5715582.16999999993
 30
0.000
 70
32
  0
VERTEX
  5
12D
100
AcDbEntity
  8
budynek
100
AcDbVertex
100
AcDb3dPolylineVertex
 10
7569852.66999999993
 20
5715582.08999999985
 30
0.000
 70
32
  0
SEQEND
  5
12E
100
AcDbEntity
  8
budynek
  0
POLYLINE
  5
12F
100
AcDbEntity
  8
budynek
  6
CONTINUOUS
420
3355443
370
13
100
AcDb3dPolyline
 66
1
 70
137
  0
VERTEX
  5
130
100
AcDbEntity
  8
budynek
100
AcDbVertex
100
AcDb3dPolylineVertex
 10
7569853.74747166969
 20
5715585.85671059322
 30
0.000
 70
32
  0
VERTEX
  5
131
100
AcDbEntity
  8
budynek
100
AcDbVertex
100
AcDb3dPolylineVertex
 10
7569853.00974412262
 20
5715585.91489099897
 30
0.000
 70
32
  0
VERTEX
  5
132
100
AcDbEntity
  8
budynek
100
AcDbVertex
100
AcDb3dPolylineVertex
 10
7569852.97672362253
 20
5715585.49619105086
 30
0.000
 70
32
  0
VERTEX
  5
133
100
AcDbEntity
  8
budynek
100
AcDbVertex
100
AcDb3dPolylineVertex
 10
7569853.7144511696
 20
5715585.4380106451
 30
0.000
 70
32
  0
SEQEND
  5
134
100
AcDbEntity
  8
budynek
  0
POLYLINE
  5
135
100
AcDbEntity
  8
budynek
  6
CONTINUOUS
420
3355443
370
13
100
AcDb3dPolyline
 66
1
 70
137
  0
VERTEX
  5
136
100
AcDbEntity
  8
budynek
100
AcDbVertex
100
AcDb3dPolylineVertex
 10
7569858.99119006749
 20
5715585.44316813257
 30
0.000
 70
32
  0
VERTEX
  5
137
100
AcDbEntity
  8
budynek
100
AcDbVertex
100
AcDb3dPolylineVertex
 10
7569858.25346252043
 20
5715585.50134853832
 30
0.000
 70
32
  0
VERTEX
  5
138
100
AcDbEntity
  8
budynek
100
AcDbVertex
100
AcDb3dPolylineVertex
 10
7569858.22044202033
 20
5715585.08264859021
 30
0.000
 70
32
  0
VERTEX
  5
139
100
AcDbEntity
  8
budynek
100
AcDbVertex
100
AcDb3dPolylineVertex
 10
7569858.95816956647
 20
5715585.02446818445
 30
0.000
 70
32
  0
SEQEND
  5
13A
100
AcDbEntity
  8
budynek
  0
CIRCLE
  5
13B
100
AcDbEntity
  8
projek_ks
  6
ByLayer
370
25
100
AcDbCircle
 10
7569868.28005908802
 20
5715565.31911867205
 40
0.603098417632
  0
CIRCLE
  5
13C
100
AcDbEntity
  8
projek_ks
  6
ByLayer
370
25
100
AcDbCircle
 10
7569862.49543324485
 20
5715570.73212730885
 40
0.299999999814
  0
POLYLINE
  5
13D
100
AcDbEntity
  8
projek_ks
  6
ByLayer
370
25
100
AcDb3dPolyline
 66
1
 70
136
  0
VERTEX
  5
13E
100
AcDbEntity
  8
projek_ks
100
AcDbVertex
100
AcDb3dPolylineVertex
 10
7569862.70999999996
 20
5715573.45999999996
 30
0.000
 70
32
  0
VERTEX
  5
13F
100
AcDbEntity
  8
projek_ks
100
AcDbVertex
100
AcDb3dPolylineVertex
 10
7569862.49000000022
 20
5715570.74000000022
 70
32
  0
VERTEX
  5
140
100
AcDbEntity
  8
projek_ks
100
AcDbVertex
100
AcDb3dPolylineVertex
 10
7569867.83999999985
 20
5715565.73000000045
 30
0.000
 70
32
  0
SEQEND
  5
141
100
AcDbEntity
  8
projek_ks
  0
POLYLINE
  5
142
100
AcDbEntity
  8
projekt_en
  6
ByLayer
370
35
100
AcDb3dPolyline
 66
1
 70
136
  0
VERTEX
  5
143
100
AcDbEntity
  8
projekt_en
100
AcDbVertex
100
AcDb3dPolylineVertex
 10
7569851.79999999981
 20
5715550.54999999981
 30
0.000
 70
32
  0
VERTEX
  5
144
100
AcDbEntity
  8
projekt_en
100
AcDbVertex
100
AcDb3dPolylineVertex
 10
7569852.38999999966
 20
5715552.36000000034
 30
0.000
 70
32
  0
VERTEX
  5
145
100
AcDbEntity
  8
projekt_en
100
AcDbVertex
100
AcDb3dPolylineVertex
 10
7569859.0700000003
 20
5715554.37000000011
 30
0.000
 70
32
  0
VERTEX
  5
146
100
AcDbEntity
  8
projekt_en
100
AcDbVertex
100
AcDb3dPolylineVertex
 10
7569859.91999999993
 20
5715574.58999999985
 30
0.000
 70
32
  0
SEQEND
  5
147
100
AcDbEntity
  8
projekt_en
  0
POLYLINE
  5
148
100
AcDbEntity
  8
projekt_woda
  6
ByLayer
370
25
100
AcDb3dPolyline
 66
1
 70
136
  0
VERTEX
  5
149
100
AcDbEntity
  8
projekt_woda
100
AcDbVertex
100
AcDb3dPolylineVertex
 10
7569861.50999999978
 20
5715573.55999999959
 30
0.000
 70
32
  0
VERTEX
  5
14A
100
AcDbEntity
  8
projekt_woda
100
AcDbVertex
100
AcDb3dPolylineVertex
 10
7569861.29999999981
 20
5715570.83000000007
 30
0.000
 70
32
  0
VERTEX
  5
14B
100
AcDbEntity
  8
projekt_woda
100
AcDbVertex
100
AcDb3dPolylineVertex
 10
7569847.95999999996
 20
5715571.87999999989
 30
0.000
 70
32
  0
SEQEND
  5
14C
100
AcDbEntity
  8
projekt_woda
  0
POLYLINE
  5
14D
100
AcDbEntity
  8
proj_osie
  6
CONTINUOUS
370
18
100
AcDb3dPolyline
 66
1
 70
136
  0
VERTEX
  5
14E
100
AcDbEntity
  8
proj_osie
100
AcDbVertex
100
AcDb3dPolylineVertex
 10
7569868.13958225679
 20
5715584.46734541841
 70
32
  0
VERTEX
  5
14F
100
AcDbEntity
  8
proj_osie
100
AcDbVertex
100
AcDb3dPolylineVertex
 10
7569868.04570337571
 20
5715583.2708649803
 70
32
  0
VERTEX
  5
150
100
AcDbEntity
  8
proj_osie
100
AcDbVertex
100
AcDb3dPolylineVertex
 10
7569867.95242999773
 20
5715582.07464999892
 70
32
  0
VERTEX
  5
151
100
AcDbEntity
  8
proj_osie
100
AcDbVertex
100
AcDb3dPolylineVertex
 10
7569867.83940325119
 20
5715580.64947398193
 30
0.000
 70
32
  0
VERTEX
  5
152
100
AcDbEntity
  8
proj_osie
100
AcDbVertex
100
AcDb3dPolylineVertex
 10
7569867.59538750537
 20
5715577.51920257322
 30
0.000
 70
32
  0
VERTEX
  5
153
100
AcDbEntity
  8
proj_osie
100
AcDbVertex
100
AcDb3dPolylineVertex
 10
7569867.34404605441
 20
5715574.29927006643
 30
0.000
 70
32
  0
VERTEX
  5
154
100
AcDbEntity
  8
proj_osie
100
AcDbVertex
100
AcDb3dPolylineVertex
 10
7569867.27426486462
 20
5715573.40209658444
 70
32
  0
SEQEND
  5
155
100
AcDbEntity
  8
proj_osie
  0
POLYLINE
  5
156
100
AcDbEntity
  8
proj_osie
  6
CONTINUOUS
370
18
100
AcDb3dPolyline
 66
1
 70
136
  0
VERTEX
  5
157
100
AcDbEntity
  8
proj_osie
100
AcDbVertex
100
AcDb3dPolylineVertex
 10
7569852.10858225636
 20
5715585.72134541906
 70
32
  0
VERTEX
  5
158
100
AcDbEntity
  8
proj_osie
100
AcDbVertex
100
AcDb3dPolylineVertex
 10
7569852.01479729638
 20
5715584.52493606415
 70
32
  0
VERTEX
  5
159
100
AcDbEntity
  8
proj_osie
100
AcDbVertex
100
AcDb3dPolylineVertex
 10
7569851.92141774297
 20
5715583.32865458168
 70
32
  0
VERTEX
  5
15A
100
AcDbEntity
  8
proj_osie
100
AcDbVertex
100
AcDb3dPolylineVertex
 10
7569851.80886366032
 20
5715581.90343799163
 30
0.000
 70
32
  0
VERTEX
  5
15B
100
AcDbEntity
  8
proj_osie
100
AcDbVertex
100
AcDb3dPolylineVertex
 10
7569851.56376604456
 20
5715578.77317301277
 30
0.000
 70
32
  0
VERTEX
  5
15C
100
AcDbEntity
  8
proj_osie
100
AcDbVertex
100
AcDb3dPolylineVertex
 10
7569851.3121499978
 20
5715575.55324999895
 70
32
  0
VERTEX
  5
15D
100
AcDbEntity
  8
proj_osie
100
AcDbVertex
100
AcDb3dPolylineVertex
 10
7569851.24265537504
 20
5715574.65606610291
 70
32
  0
SEQEND
  5
15E
100
AcDbEntity
  8
proj_osie
  0
POLYLINE
  5
15F
100
AcDbEntity
  8
proj_osie
  6
CONTINUOUS
370
18
100
AcDb3dPolyline
 66
1
 70
136
  0
VERTEX
  5
160
100
AcDbEntity
  8
proj_osie
100
AcDbVertex
100
AcDb3dPolylineVertex
 10
7569867.27434868459
 20
5715573.40209002234
 30
0.000
 70
32
  0
VERTEX
  5
161
100
AcDbEntity
  8
proj_osie
100
AcDbVertex
100
AcDb3dPolylineVertex
 10
7569861.2924078498
 20
5715573.87008539401
 30
0.000
 70
32
  0
VERTEX
  5
162
100
AcDbEntity
  8
proj_osie
100
AcDbVertex
100
AcDb3dPolylineVertex
 10
7569857.70340189338
 20
5715574.1510858601
 30
0.000
 70
32
  0
VERTEX
  5
163
100
AcDbEntity
  8
proj_osie
100
AcDbVertex
100
AcDb3dPolylineVertex
 10
7569852.31935724244
 20
5715574.57208935171
 30
0.000
 70
32
  0
VERTEX
  5
164
100
AcDbEntity
  8
proj_osie
100
AcDbVertex
100
AcDb3dPolylineVertex
 10
7569851.24238384236
 20
5715574.65608727653
 30
0.000
 70
32
  0
SEQEND
  5
165
100
AcDbEntity
  8
proj_osie
  0
POLYLINE
  5
166
100
AcDbEntity
  8
proj_osie
  6
CONTINUOUS
370
18
100
AcDb3dPolyline
 66
1
 70
136
  0
VERTEX
  5
167
100
AcDbEntity
  8
proj_osie
100
AcDbVertex
100
AcDb3dPolylineVertex
 10
7569867.34404605441
 20
5715574.29927006643
 30
0.000
 70
32
  0
VERTEX
  5
168
100
AcDbEntity
  8
proj_osie
100
AcDbVertex
100
AcDb3dPolylineVertex
 10
7569851.3121515289
 20
5715575.55326183047
 30
0.000
 70
32
  0
SEQEND
  5
169
100
AcDbEntity
  8
proj_osie
  0
POLYLINE
  5
16A
100
AcDbEntity
  8
proj_osie
  6
CONTINUOUS
370
18
100
AcDb3dPolyline
 66
1
 70
136
  0
VERTEX
  5
16B
100
AcDbEntity
  8
proj_osie
100
AcDbVertex
100
AcDb3dPolylineVertex
 10
7569867.59538750537
 20
5715577.51920257322
 30
0.000
 70
32
  0
VERTEX
  5
16C
100
AcDbEntity
  8
proj_osie
100
AcDbVertex
100
AcDb3dPolylineVertex
 10
7569851.56376604456
 20
5715578.77317301277
 30
0.000
 70
32
  0
SEQEND
  5
16D
100
AcDbEntity
  8
proj_osie
  0
POLYLINE
  5
16E
100
AcDbEntity
  8
proj_osie
  6
CONTINUOUS
370
18
100
AcDb3dPolyline
 66
1
 70
136
  0
VERTEX
  5
16F
100
AcDbEntity
  8
proj_osie
100
AcDbVertex
100
AcDb3dPolylineVertex
 10
7569867.83940325119
 20
5715580.64947398193
 30
0.000
 70
32
  0
VERTEX
  5
170
100
AcDbEntity
  8
proj_osie
100
AcDbVertex
100
AcDb3dPolylineVertex
 10
7569851.80886366032
 20
5715581.90343799163
 30
0.000
 70
32
  0
SEQEND
  5
171
100
AcDbEntity
  8
proj_osie
  0
POLYLINE
  5
172
100
AcDbEntity
  8
proj_osie
  6
CONTINUOUS
370
18
100
AcDb3dPolyline
 66
1
 70
136
  0
VERTEX
  5
173
100
AcDbEntity
  8
proj_osie
100
AcDbVertex
100
AcDb3dPolylineVertex
 10
7569868.04570337571
 20
5715583.2708649803
 70
32
  0
VERTEX
  5
174
100
AcDbEntity
  8
proj_osie
100
AcDbVertex
100
AcDb3dPolylineVertex
 10
7569852.01479729638
 20
5715584.52493606415
 70
32
  0
SEQEND
  5
175
100
AcDbEntity
  8
proj_osie
  0
POLYLINE
  5
176
100
AcDbEntity
  8
proj_osie
  6
CONTINUOUS
370
18
100
AcDb3dPolyline
 66
1
 70
136
  0
VERTEX
  5
177
100
AcDbEntity
  8
proj_osie
100
AcDbVertex
100
AcDb3dPolylineVertex
 10
7569862.15781119745
 20
5715584.93526014034
 70
32
  0
VERTEX
  5
178
100
AcDbEntity
  8
proj_osie
100
AcDbVertex
100
AcDb3dPolylineVertex
 10
7569862.06425571442
 20
5715583.73869145382
 70
32
  0
VERTEX
  5
179
100
AcDbEntity
  8
proj_osie
100
AcDbVertex
100
AcDb3dPolylineVertex
 10
7569861.26925571449
 20
5715573.57069145422
 30
0.000
 70
32
  0
SEQEND
  5
17A
100
AcDbEntity
  8
proj_osie
  0
POLYLINE
  5
17B
100
AcDbEntity
  8
proj_osie
  6
CONTINUOUS
370
18
100
AcDb3dPolyline
 66
1
 70
136
  0
VERTEX
  5
17C
100
AcDbEntity
  8
proj_osie
100
AcDbVertex
100
AcDb3dPolylineVertex
 10
7569858.56849628035
 20
5715585.21602870803
 70
32
  0
VERTEX
  5
17D
100
AcDbEntity
  8
proj_osie
100
AcDbVertex
100
AcDb3dPolylineVertex
 10
7569858.47495342884
 20
5715584.01961487252
 70
32
  0
VERTEX
  5
17E
100
AcDbEntity
  8
proj_osie
100
AcDbVertex
100
AcDb3dPolylineVertex
 10
7569857.67995342892
 20
5715573.85161487292
 30
0.000
 70
32
  0
SEQEND
  5
17F
100
AcDbEntity
  8
proj_osie
  0
POLYLINE
  5
180
100
AcDbEntity
  8
proj_osie
  6
CONTINUOUS
370
18
100
AcDb3dPolyline
 66
1
 70
136
  0
VERTEX
  5
181
100
AcDbEntity
  8
proj_osie
100
AcDbVertex
100
AcDb3dPolylineVertex
 10
7569853.18495806493
 20
5715585.63714759797
 70
32
  0
VERTEX
  5
182
100
AcDbEntity
  8
proj_osie
100
AcDbVertex
100
AcDb3dPolylineVertex
 10
7569853.09143014252
 20
5715584.44092230871
 70
32
  0
VERTEX
  5
183
100
AcDbEntity
  8
proj_osie
100
AcDbVertex
100
AcDb3dPolylineVertex
 10
7569852.2964301426
 20
5715574.27292230912
 30
0.000
 70
32
  0
SEQEND
  5
184
100
AcDbEntity
  8
proj_osie
  0
POLYLINE
  5
185
100
AcDbEntity
  8
proj_osie
  6
CONTINUOUS
370
18
100
AcDb3dPolyline
 66
1
 70
136
  0
VERTEX
  5
186
100
AcDbEntity
  8
proj_osie
100
AcDbVertex
100
AcDb3dPolylineVertex
 10
7569868.13958225679
 20
5715584.46734541841
 70
32
  0
VERTEX
  5
187
100
AcDbEntity
  8
proj_osie
100
AcDbVertex
100
AcDb3dPolylineVertex
 10
7569852.10858225636
 20
5715585.72134541906
 70
32
  0
SEQEND
  5
188
100
AcDbEntity
  8
proj_osie
  0
POLYLINE
  5
189
100
AcDbEntity
  8
proj_osie
  6
CONTINUOUS
370
18
100
AcDb3dPolyline
 66
1
 70
136
  0
VERTEX
  5
18A
100
AcDbEntity
  8
proj_osie
100
AcDbVertex
100
AcDb3dPolylineVertex
 10
7569867.95241774339
 20
5715582.07465458102
 70
32
  0
VERTEX
  5
18B
100
AcDbEntity
  8
proj_osie
100
AcDbVertex
100
AcDb3dPolylineVertex
 10
7569851.92141774297
 20
5715583.32865458168
 70
32
  0
SEQEND
  5
18C
100
AcDbEntity
  8
proj_osie
  0
POINT
  5
18D
100
AcDbEntity
  8
budynek
100
AcDbPoint
 62
0
 10
7569251.72249791212
 20
5715723.43253684975
 30
0.000
  0
POINT
  5
18E
100
AcDbEntity
  8
proj_osie
100
AcDbPoint
 62
0
 10
7569852.01479729638
 20
5715584.52493606415
  0
POINT
  5
18F
100
AcDbEntity
  8
proj_osie
100
AcDbPoint
 62
0
 10
7569868.04570337571
 20
5715583.2708649803
  0
POINT
  5
190
100
AcDbEntity
  8
proj_osie
100
AcDbPoint
 62
0
 10
7569867.27426486462
 20
5715573.40209658444
  0
POINT
  5
191
100
AcDbEntity
  8
proj_osie
100
AcDbPoint
 62
0
 10
7569851.24265537504
 20
5715574.65606610291
  0
TEXT
  5
192
100
AcDbEntity
  8
projek_ks
370
15
100
AcDbText
 39
0.15
 10
7569868.34558506124
 20
5715566.0065432135
 40
0.75
  1
kl
 50
0.00
 41
0.66
  7
STANDARD
 72
0
 11
7569868.34558506124
 21
5715566.7565432135
100
AcDbText
 73
3
  0
TEXT
  5
193
100
AcDbEntity
  8
proj_osie
370
5
100
AcDbText
 39
0.05
 10
7569863.85043181945
 20
5715573.71648436785
 40
0.25
  1
-6.000-
 50
-4.00
 41
0.66
  7
STANDARD
 72
1
 11
7569864.28105305135
 21
5715573.60283557326
100
AcDbText
 73
1
  0
TEXT
  5
194
100
AcDbEntity
  8
proj_osie
370
5
100
AcDbText
 39
0.05
 10
7569859.06495842338
 20
5715574.09098228626
 40
0.25
  1
-3.600-
 50
-4.00
 41
0.66
  7
STANDARD
 72
1
 11
7569859.49557965528
 21
5715573.97733349167
100
AcDbText
 73
1
  0
TEXT
  5
195
100
AcDbEntity
  8
proj_osie
370
5
100
AcDbText
 39
0.05
 10
7569854.57843311969
 20
5715574.44198426604
 40
0.25
  1
-5.400-
 50
-4.00
 41
0.66
  7
STANDARD
 72
1
 11
7569855.0090543516
 21
5715574.32833547145
100
AcDbText
 73
1
  0
TEXT
  5
196
100
AcDbEntity
  8
proj_osie
370
5
100
AcDbText
 39
0.05
 10
7569851.34792409372
 20
5715574.69448497333
 40
0.25
  1
-1.080-
 50
-4.00
 41
0.66
  7
STANDARD
 72
1
 11
7569851.77854532562
 21
5715574.58083617873
100
AcDbText
 73
1
  0
TEXT
  5
197
100
AcDbEntity
  8
proj_osie
370
5
100
AcDbText
 39
0.05
 10
7569864.62202666234
 20
5715583.58531879261
 40
0.25
  1
-6.000-
 50
-4.00
 41
0.66
  7
STANDARD
 72
1
 11
7569865.05264789425
 21
5715583.47166999802
100
AcDbText
 73
1
  0
TEXT
  5
198
100
AcDbEntity
  8
proj_osie
370
5
100
AcDbText
 39
0.05
 10
7569859.83674379718
 20
5715583.95988006331
 40
0.25
  1
-3.600-
 50
-4.00
 41
0.66
  7
STANDARD
 72
1
 11
7569860.26736502908
 21
5715583.84623126872
100
AcDbText
 73
1
  0
TEXT
  5
199
100
AcDbEntity
  8
proj_osie
370
5
100
AcDbText
 39
0.05
 10
7569855.3503374448
 20
5715584.31085157581
 40
0.25
  1
-5.400-
 50
-4.00
 41
0.66
  7
STANDARD
 72
1
 11
7569855.78095867671
 21
5715584.19720278122
100
AcDbText
 73
1
  0
TEXT
  5
19A
100
AcDbEntity
  8
proj_osie
370
5
100
AcDbText
 39
0.05
 10
7569852.12016727123
 20
5715584.56332584657
 40
0.25
  1
-1.079-
 50
-4.00
 41
0.66
  7
STANDARD
 72
1
 11
7569852.55078850314
 21
5715584.44967705198
100
AcDbText
 73
1
  0
TEXT
  5
19B
100
AcDbEntity
  8
proj_osie
370
5
100
AcDbText
 39
0.05
 10
7569864.17175952625
 20
5715577.8335743174
 40
0.25
  1
-5.999-
 50
-4.00
 41
0.66
  7
STANDARD
 72
1
 11
7569864.60238075815
 21
5715577.7199255228
100
AcDbText
 73
1
  0
TEXT
  5
19C
100
AcDbEntity
  8
proj_osie
370
5
100
AcDbText
 39
0.05
 10
7569859.38654594403
 20
5715578.20805191249
 40
0.25
  1
-3.600-
 50
-4.00
 41
0.66
  7
STANDARD
 72
1
 11
7569859.81716717593
 21
5715578.0944031179
100
AcDbText
 73
1
  0
TEXT
  5
19D
100
AcDbEntity
  8
proj_osie
370
5
100
AcDbText
 39
0.05
 10
7569854.89977355953
 20
5715578.55907321442
 40
0.25
  1
-5.401-
 50
-4.00
 41
0.66
  7
STANDARD
 72
1
 11
7569855.33039479144
 21
5715578.44542441983
100
AcDbText
 73
1
  0
TEXT
  5
19E
100
AcDbEntity
  8
proj_osie
370
5
100
AcDbText
 39
0.05
 10
7569851.66917640995
 20
5715578.81158083957
 40
0.25
  1
-1.079-
 50
-4.00
 41
0.66
  7
STANDARD
 72
1
 11
7569852.09979764186
 21
5715578.69793204498
100
AcDbText
 73
1
  0
TEXT
  5
19F
100
AcDbEntity
  8
proj_osie
370
5
100
AcDbText
 39
0.05
 10
7569864.41626639571
 20
5715580.96384641714
 40
0.25
  1
-5.998-
 50
-4.00
 41
0.66
  7
STANDARD
 72
1
 11
7569864.84688762762
 21
5715580.85019762255
100
AcDbText
 73
1
  0
TEXT
  5
1A0
100
AcDbEntity
  8
proj_osie
370
5
100
AcDbText
 39
0.05
 10
7569859.63152336143
 20
5715581.3383263126
 40
0.25
  1
-3.600-
 50
-4.00
 41
0.66
  7
STANDARD
 72
1
 11
7569860.06214459334
 21
5715581.22467751801
100
AcDbText
 73
1
  0
TEXT
  5
1A1
100
AcDbEntity
  8
proj_osie
370
5
100
AcDbText
 39
0.05
 10
7569855.14429348428
 20
5715581.68934429064
 40
0.25
  1
-5.401-
 50
-4.00
 41
0.66
  7
STANDARD
 72
1
 11
7569855.57491471618
 21
5715581.57569549605
100
AcDbText
 73
1
  0
TEXT
  5
1A2
100
AcDbEntity
  8
proj_osie
370
5
100
AcDbText
 39
0.05
 10
7569851.9137667222
 20
5715581.94184639957
 40
0.25
  1
-1.079-
 50
-4.00
 41
0.66
  7
STANDARD
 72
1
 11
7569852.3443879541
 21
5715581.82819760498
100
AcDbText
 73
1
  0
TEXT
  5
1A3
100
AcDbEntity
  8
proj_osie
370
18
100
AcDbText
 39
0.18
 10
7569850.58999999613
 20
5715585.41999999713
 40
0.90
  1
A
 50
0.00
 41
0.66
 51
15.00
  7
STANDARD
 72
0
 11
7569850.58999999613
 21
5715586.3199999975
100
AcDbText
 73
3
  0
TEXT
  5
1A4
100
AcDbEntity
  8
proj_osie
370
18
100
AcDbText
 39
0.18
 10
7569869.10999999661
 20
5715584.11999999639
 40
0.90
  1
A
 50
0.00
 41
0.66
 51
15.00
  7
STANDARD
 72
0
 11
7569869.10999999661
 21
5715585.01999999676
100
AcDbText
 73
3
  0
TEXT
  5
1A5
100
AcDbEntity
  8
proj_osie
370
15
100
AcDbText
 39
0.15
 10
7569850.50999999605
 20
5715584.24999999721
 40
0.75
  1
B
 50
0.00
 41
0.66
 51
15.00
  7
STANDARD
 72
0
 11
7569850.50999999605
 21
5715584.99999999721
100
AcDbText
 73
3
  0
TEXT
  5
1A6
100
AcDbEntity
  8
proj_osie
370
15
100
AcDbText
 39
0.15
 10
7569868.94999999646
 20
5715582.87999999709
 40
0.75
  1
B
 50
0.00
 41
0.66
 51
15.00
  7
STANDARD
 72
0
 11
7569868.94999999646
 21
5715583.62999999709
100
AcDbText
 73
3
  0
TEXT
  5
1A7
100
AcDbEntity
  8
proj_osie
370
15
100
AcDbText
 39
0.15
 10
7569850.35999999661
 20
5715581.66999999713
 40
0.75
  1
C'
 50
0.00
 41
0.66
 51
15.00
  7
STANDARD
 72
0
 11
7569850.35999999661
 21
5715582.41999999713
100
AcDbText
 73
3
  0
TEXT
  5
1A8
100
AcDbEntity
  8
proj_osie
370
15
100
AcDbText
 39
0.15
 10
7569868.36999999639
 20
5715580.20999999717
 40
0.75
  1
C'
 50
0.00
 41
0.66
 51
15.00
  7
STANDARD
 72
0
 11
7569868.36999999639
 21
5715580.95999999717
100
AcDbText
 73
3
  0
TEXT
  5
1A9
100
AcDbEntity
  8
proj_osie
370
15
100
AcDbText
 39
0.15
 10
7569850.33999999613
 20
5715578.63999999687
 40
0.75
  1
D'
 50
0.00
 41
0.66
 51
15.00
  7
STANDARD
 72
0
 11
7569850.33999999613
 21
5715579.38999999687
100
AcDbText
 73
3
  0
TEXT
  5
1AA
100
AcDbEntity
  8
proj_osie
370
15
100
AcDbText
 39
0.15
 10
7569868.24999999628
 20
5715577.26999999676
 40
0.75
  1
D'
 50
0.00
 41
0.66
 51
15.00
  7
STANDARD
 72
0
 11
7569868.24999999628
 21
5715578.01999999676
100
AcDbText
 73
3
  0
TEXT
  5
1AB
100
AcDbEntity
  8
proj_osie
370
15
100
AcDbText
 39
0.15
 10
7569849.81999999657
 20
5715575.41999999713
 40
0.75
  1
D
 50
0.00
 41
0.66
 51
15.00
  7
STANDARD
 72
0
 11
7569849.81999999657
 21
5715576.16999999713
100
AcDbText
 73
3
  0
TEXT
  5
1AC
100
AcDbEntity
  8
proj_osie
370
15
100
AcDbText
 39
0.15
 10
7569868.0999999959
 20
5715574.04999999702
 40
0.75
  1
D
 50
0.00
 41
0.66
 51
15.00
  7
STANDARD
 72
0
 11
7569868.0999999959
 21
5715574.79999999702
100
AcDbText
 73
3
  0
TEXT
  5
1AD
100
AcDbEntity
  8
proj_osie
370
15
100
AcDbText
 39
0.15
 10
7569849.71999999601
 20
5715574.47999999672
 40
0.75
  1
E
 50
0.00
 41
0.66
 51
15.00
  7
STANDARD
 72
0
 11
7569849.71999999601
 21
5715575.22999999672
100
AcDbText
 73
3
  0
TEXT
  5
1AE
100
AcDbEntity
  8
proj_osie
370
15
100
AcDbText
 39
0.15
 10
7569868.00999999605
 20
5715573.0599999968
 40
0.75
  1
E
 50
0.00
 41
0.66
 51
15.00
  7
STANDARD
 72
0
 11
7569868.00999999605
 21
5715573.8099999968
100
AcDbText
 73
3
  0
TEXT
  5
1AF
100
AcDbEntity
  8
proj_osie
370
15
100
AcDbText
 39
0.15
 10
7569867.88999999594
 20
5715585.13999999687
 40
0.75
  1
1
 50
0.00
 41
0.66
 51
15.00
  7
STANDARD
 72
0
 11
7569867.88999999594
 21
5715585.88999999687
100
AcDbText
 73
3
  0
TEXT
  5
1B0
100
AcDbEntity
  8
proj_osie
370
15
100
AcDbText
 39
0.15
 10
7569866.87999999616
 20
5715571.68999999668
 40
0.75
  1
1
 50
0.00
 41
0.66
 51
15.00
  7
STANDARD
 72
0
 11
7569866.87999999616
 21
5715572.43999999668
100
AcDbText
 73
3
  0
TEXT
  5
1B1
100
AcDbEntity
  8
proj_osie
370
15
100
AcDbText
 39
0.15
 10
7569861.86999999639
 20
5715585.8099999968
 40
0.75
  1
2
 50
0.00
 41
0.66
 51
15.00
  7
STANDARD
 72
0
 11
7569861.86999999639
 21
5715586.5599999968
100
AcDbText
 73
3
  0
TEXT
  5
1B2
100
AcDbEntity
  8
proj_osie
370
15
100
AcDbText
 39
0.15
 10
7569860.63999999594
 20
5715572.02999999747
 40
0.75
  1
2
 50
0.00
 41
0.66
 51
15.00
  7
STANDARD
 72
0
 11
7569860.63999999594
 21
5715572.77999999747
100
AcDbText
 73
3
  0
TEXT
  5
1B3
100
AcDbEntity
  8
proj_osie
370
15
100
AcDbText
 39
0.15
 10
7569858.49999999628
 20
5715586.04999999702
 40
0.75
  1
3
 50
0.00
 41
0.66
 51
15.00
  7
STANDARD
 72
0
 11
7569858.49999999628
 21
5715586.79999999702
100
AcDbText
 73
3
  0
TEXT
  5
1B4
100
AcDbEntity
  8
proj_osie
370
15
100
AcDbText
 39
0.15
 10
7569857.31999999657
 20
5715572.40999999736
 40
0.75
  1
3
 50
0.00
 41
0.66
 51
15.00
  7
STANDARD
 72
0
 11
7569857.31999999657
 21
5715573.15999999736
100
AcDbText
 73
3
  0
TEXT
  5
1B5
100
AcDbEntity
  8
proj_osie
370
15
100
AcDbText
 39
0.15
 10
7569852.86999999639
 20
5715586.38999999687
 40
0.75
  1
4
 50
0.00
 41
0.66
 51
15.00
  7
STANDARD
 72
0
 11
7569852.86999999639
 21
5715587.13999999687
100
AcDbText
 73
3
  0
TEXT
  5
1B6
100
AcDbEntity
  8
proj_osie
370
15
100
AcDbText
 39
0.15
 10
7569851.80999999586
 20
5715572.62999999709
 40
0.75
  1
4
 50
0.00
 41
0.66
 51
15.00
  7
STANDARD
 72
0
 11
7569851.80999999586
 21
5715573.37999999709
100
AcDbText
 73
3
  0
TEXT
  5
1B7
100
AcDbEntity
  8
proj_osie
370
15
100
AcDbText
 39
0.15
 10
7569847.75053938013
 20
5715577.91927006654
 40
0.75
  1
-3.974-
 50
-3.90
 41
0.66
  7
STANDARD
 72
1
 11
7569849.04299617279
 21
5715577.58057892788
100
AcDbText
 73
1
  0
TEXT
  5
1B8
100
AcDbEntity
  8
proj_osie
370
15
100
AcDbText
 39
0.15
 10
7569847.84069718048
 20
5715582.74155536946
 40
0.75
  1
-4.019-
 50
-4.00
 41
0.66
  7
STANDARD
 72
1
 11
7569849.13256087806
 21
5715582.40060898475
100
AcDbText
 73
1
  0
TEXT
  5
1B9
100
AcDbEntity
  8
proj_osie
370
15
100
AcDbText
 39
0.15
 10
7569868.24350849632
 20
5715573.18711656611
 40
0.75
  1
-3.996-
 50
-3.60
 41
0.66
  7
STANDARD
 72
1
 11
7569869.53772094753
 21
5715572.85519732721
100
AcDbText
 73
1
  0
TEXT
  5
1BA
100
AcDbEntity
  8
proj_osie
370
15
100
AcDbText
 39
0.15
 10
7569868.96820420679
 20
5715582.38153990079
 40
0.75
  1
-4.002-
 50
-4.70
 41
0.66
  7
STANDARD
 72
1
 11
7569870.25580614991
 21
5715582.02483626176
100
AcDbText
 73
1
  0
TEXT
  5
1BB
100
AcDbEntity
  8
proj_osie
370
5
100
AcDbText
 39
0.05
 10
7569851.88771086
 20
5715583.49384887423
 40
0.25
  1
-1.200-
 50
-274.00
 41
0.66
  7
STANDARD
 72
1
 11
7569852.00135965459
 21
5715583.92447010614
100
AcDbText
 73
1
  0
TEXT
  5
1BC
100
AcDbEntity
  8
proj_osie
370
5
100
AcDbText
 39
0.05
 10
7569851.78474404197
 20
5715582.1830998389
 40
0.25
  1
-1.430-
 50
-274.00
 41
0.66
  7
STANDARD
 72
1
 11
7569851.89839283656
 21
5715582.61372107081
100
AcDbText
 73
1
  0
TEXT
  5
1BD
100
AcDbEntity
  8
proj_osie
370
5
100
AcDbText
 39
0.05
 10
7569851.60591819324
 20
5715579.90535905398
 40
0.25
  1
-3.140-
 50
-274.00
 41
0.66
  7
STANDARD
 72
1
 11
7569851.71956698783
 21
5715580.33598028589
100
AcDbText
 73
1
  0
TEXT
  5
1BE
100
AcDbEntity
  8
proj_osie
370
5
100
AcDbText
 39
0.05
 10
7569851.35756136104
 20
5715576.73026505765
 40
0.25
  1
-3.230-
 50
-274.00
 41
0.66
  7
STANDARD
 72
1
 11
7569851.47121015564
 21
5715577.16088628955
100
AcDbText
 73
1
  0
TEXT
  5
1BF
100
AcDbEntity
  8
proj_osie
370
5
100
AcDbText
 39
0.05
 10
7569851.19700602628
 20
5715574.67171160225
 40
0.25
  1
-0.900-
 50
-274.00
 41
0.66
  7
STANDARD
 72
1
 11
7569851.31065482087
 21
5715575.10233283415
100
AcDbText
 73
1
  0
TEXT
  5
1C0
100
AcDbEntity
  8
proj_osie
370
5
100
AcDbText
 39
0.05
 10
7569851.9812931167
 20
5715584.69019429293
 40
0.25
  1
-1.200-
 50
-274.00
 41
0.66
  7
STANDARD
 72
1
 11
7569852.09494191129
 21
5715585.12081552483
100
AcDbText
 73
1
  0
TEXT
  5
1C1
100
AcDbEntity
  8
proj_osie
370
5
100
AcDbText
 39
0.05
 10
7569851.88771086
 20
5715583.49384887423
 40
0.25
  1
-1.200-
 50
-274.00
 41
0.66
  7
STANDARD
 72
1
 11
7569852.00135965459
 21
5715583.92447010614
100
AcDbText
 73
1
  0
TEXT
  5
1C2
100
AcDbEntity
  8
proj_osie
370
5
100
AcDbText
 39
0.05
 10
7569851.78474404197
 20
5715582.1830998389
 40
0.25
  1
-1.430-
 50
-274.00
 41
0.66
  7
STANDARD
 72
1
 11
7569851.89839283656
 21
5715582.61372107081
100
AcDbText
 73
1
  0
TEXT
  5
1C3
100
AcDbEntity
  8
proj_osie
370
5
100
AcDbText
 39
0.05
 10
7569851.60591819324
 20
5715579.90535905398
 40
0.25
  1
-3.140-
 50
-274.00
 41
0.66
  7
STANDARD
 72
1
 11
7569851.71956698783
 21
5715580.33598028589
100
AcDbText
 73
1
  0
TEXT
  5
1C4
100
AcDbEntity
  8
proj_osie
370
5
100
AcDbText
 39
0.05
 10
7569851.35756136104
 20
5715576.73026505765
 40
0.25
  1
-3.230-
 50
-274.00
 41
0.66
  7
STANDARD
 72
1
 11
7569851.47121015564
 21
5715577.16088628955
100
AcDbText
 73
1
  0
TEXT
  5
1C5
100
AcDbEntity
  8
proj_osie
370
5
100
AcDbText
 39
0.05
 10
7569851.19700602628
 20
5715574.67171160225
 40
0.25
  1
-0.900-
 50
-274.00
 41
0.66
  7
STANDARD
 72
1
 11
7569851.31065482087
 21
5715575.10233283415
100
AcDbText
 73
1
  0
TEXT
  5
1C6
100
AcDbEntity
  8
proj_osie
370
5
100
AcDbText
 39
0.05
 10
7569868.01224615611
 20
5715583.43615875114
 40
0.25
  1
-1.200-
 50
-274.00
 41
0.66
  7
STANDARD
 72
1
 11
7569868.1258949507
 21
5715583.86677998304
100
AcDbText
 73
1
  0
TEXT
  5
1C7
100
AcDbEntity
  8
proj_osie
370
5
100
AcDbText
 39
0.05
 10
7569867.91867002659
 20
5715582.23981104139
 40
0.25
  1
-1.200-
 50
-274.00
 41
0.66
  7
STANDARD
 72
1
 11
7569868.03231882118
 21
5715582.6704322733
100
AcDbText
 73
1
  0
TEXT
  5
1C8
100
AcDbEntity
  8
proj_osie
370
5
100
AcDbText
 39
0.05
 10
7569867.80797625147
 20
5715580.93058459647
 40
0.25
  1
-1.430-
 50
-275.00
 41
0.66
  7
STANDARD
 72
1
 11
7569867.92912311386
 21
5715581.35915679857
100
AcDbText
 73
1
  0
TEXT
  5
1C9
100
AcDbEntity
  8
proj_osie
370
5
100
AcDbText
 39
0.05
 10
7569867.6369987186
 20
5715578.65139182936
 40
0.25
  1
-3.139-
 50
-274.00
 41
0.66
  7
STANDARD
 72
1
 11
7569867.7506475132
 21
5715579.08201306127
100
AcDbText
 73
1
  0
TEXT
  5
1CA
100
AcDbEntity
  8
proj_osie
370
5
100
AcDbText
 39
0.05
 10
7569867.38932012022
 20
5715575.47628987115
 40
0.25
  1
-3.230-
 50
-274.00
 41
0.66
  7
STANDARD
 72
1
 11
7569867.50296891481
 21
5715575.90691110306
100
AcDbText
 73
1
  0
TEXT
  5
1CB
100
AcDbEntity
  8
proj_osie
370
5
100
AcDbText
 39
0.05
 10
7569867.22875879984
 20
5715573.41773687769
 40
0.25
  1
-0.900-
 50
-274.00
 41
0.66
  7
STANDARD
 72
1
 11
7569867.34240759444
 21
5715573.84835810959
100
AcDbText
 73
1
  0
ENDSEC
  0
SECTION
  2
OBJECTS
  0
DICTIONARY
  5
1CC
330
0
100
AcDbDictionary
280
0
281
1
  3
ACAD_GROUP
350
1CD
  3
ACAD_LAYOUT
350
1CE
  3
ACAD_MLINESTYLE
350
1CF
  3
ACAD_PLOTSETTINGS
350
1D0
  3
ACAD_PLOTSTYLENAME
350
1D1
  0
DICTIONARY
  5
1CD
102
{ACAD_REACTORS
330
1CC
102
}
330
1CC
100
AcDbDictionary
280
0
281
1
  0
DICTIONARY
  5
1CE
102
{ACAD_REACTORS
330
1CC
102
}
330
1CC
100
AcDbDictionary
280
0
281
1
  3
Layout
350
27
  3
Model
350
25
  0
DICTIONARY
  5
1CF
102
{ACAD_REACTORS
330
1CC
102
}
330
1CC
100
AcDbDictionary
280
0
281
1
  3
Standard
350
1D2
  3
L_0_02
350
7
  3
L_0_15
350
10
  0
DICTIONARY
  5
1D0
102
{ACAD_REACTORS
330
1CC
102
}
330
1CC
100
AcDbDictionary
280
0
281
1
  0
ACDBDICTIONARYWDFLT
  5
1D1
102
{ACAD_REACTORS
330
1CC
102
}
330
1CC
100
AcDbDictionary
281
1
  3
Normal
350
14
100
AcDbDictionaryWithDefault
340
14
  0
LAYOUT
  5
27
100
AcDbPlotSettings
  1

  2

  4

  6

 40
0.0
 41
0.0
 42
0.0
 43
0.0
 44
0.0
 45
0.0
 46
0.0
 47
0.0
 48
0.0
 49
0.0
140
0.0
141
0.0
142
1.0
143
1.0
 70
688
 72
1
 73
0
 74
5
  7

 75
0
147
1.0
148
0.0
149
0.0
100
AcDbLayout
  1
Layout
 70
1
 71
1
 10
0.0
 20
0.0
 11
420.0
 21
297.0
 12
0.0
 22
0.0
 32
0.0
 14
100000000000000000000.0
 24
100000000000000000000.0
 34
100000000000000000000.0
 15
-100000000000000000000.0
 25
-100000000000000000000.0
 35
-100000000000000000000.0
146
0.0
 13
0.0
 23
0.0
 33
0.0
 16
1.0
 26
0.0
 36
0.0
 17
0.0
 27
1.0
 37
0.0
 76
0
330
26
  0
LAYOUT
  5
25
100
AcDbPlotSettings
  1

  2

  4

  6

 40
0.0
 41
0.0
 42
0.0
 43
0.0
 44
0.0
 45
0.0
 46
0.0
 47
0.0
 48
0.0
 49
0.0
140
0.0
141
0.0
142
1.0
143
1.0
 70
1712
 72
1
 73
0
 74
0
  7

 75
0
147
1.0
148
0.0
149
0.0
100
AcDbLayout
  1
Model
 70
1
 71
0
 10
0.0
 20
0.0
 11
12.0
 21
9.0
 12
0.0
 22
0.0
 32
0.0
 14
0.0
 24
0.0
 34
0.0
 15
0.0
 25
0.0
 35
0.0
146
0.0
 13
0.0
 23
0.0
 33
0.0
 16
1.0
 26
0.0
 36
0.0
 17
0.0
 27
1.0
 37
0.0
 76
0
330
24
  0
MLINESTYLE
  5
1D2
102
{ACAD_REACTORS
330
1CF
102
}
330
1CF
100
AcDbMlineStyle
  2
Standard
 70
0
  3

 62
256
 51
90.0
 52
90.0
  2
Standard
 71
2
 49
0.5
 62
256
  6
ByLayer
 49
-0.5
 62
256
  6
ByLayer
  0
MLINESTYLE
  5
7
100
AcDbMlineStyle
  2
L_0_02
 70
0
  3

 51
90.0
 52
90.0
 71
1
 49
0.0
 62
256
  6
CONTINUOUS
  0
MLINESTYLE
  5
10
100
AcDbMlineStyle
  2
L_0_15
 70
0
  3

 51
90.0
 52
90.0
 71
2
 49
0.0
 62
256
  6
L_0_15_SHX
 49
0.0
 62
256
  6
CONTINUOUS
  0
ACDBPLACEHOLDER
  5
14
  0
ENDSEC
  0
EOF
