  0
SECTION
  2
HEADER
  9
$ACADVER
  1
AC1027
  9
$ACADMAINTVER
 70
     8
  9
$DWGCODEPAGE
  3
ANSI_1250
  9
$REQUIREDVERSIONS
160
                 0
  9
$INSBASE
 10
0.0
 20
0.0
 30
0.0
  9
$EXTMIN
 10
7570462.62
 20
5714974.4
 30
0.0
  9
$EXTMAX
 10
7571224.58
 20
5715680.2
 30
0.0
  9
$LIMMIN
 10
7570462.62
 20
5714974.4
  9
$LIMMAX
 10
7571224.58
 20
5715680.2
  9
$ORTHOMODE
 70
     0
  9
$REGENMODE
 70
     1
  9
$FILLMODE
 70
     1
  9
$QTEXTMODE
 70
     0
  9
$MIRRTEXT
 70
     0
  9
$LTSCALE
 40
1.0
  9
$ATTMODE
 70
     1
  9
$TEXTSIZE
 40
0.2
  9
$TRACEWID
 40
0.05
  9
$TEXTSTYLE
  7
STANDARD
  9
$CLAYER
  8
0
  9
$CELTYPE
  6
CONTINUOUS
  9
$CECOLOR
 62
   256
  9
$CELTSCALE
 40
1.0
  9
$DISPSILH
 70
     0
  9
$DIMSCALE
 40
1.0
  9
$DIMASZ
 40
2.5
  9
$DIMEXO
 40
0.625
  9
$DIMDLI
 40
0.38
  9
$DIMRND
 40
0.0
  9
$DIMDLE
 40
0.0
  9
$DIMEXE
 40
1.25
  9
$DIMTP
 40
0.0
  9
$DIMTM
 40
0.0
  9
$DIMTXT
 40
2.5
  9
$DIMCEN
 40
0.09
  9
$DIMTSZ
 40
0.0
  9
$DIMTOL
 70
     0
  9
$DIMLIM
 70
     0
  9
$DIMTIH
 70
     1
  9
$DIMTOH
 70
     1
  9
$DIMSE1
 70
     0
  9
$DIMSE2
 70
     0
  9
$DIMTAD
 70
     0
  9
$DIMZIN
 70
     0
  9
$DIMBLK
  1

  9
$DIMASO
 70
     1
  9
$DIMSHO
 70
     1
  9
$DIMPOST
  1

  9
$DIMAPOST
  1

  9
$DIMALT
 70
     0
  9
$DIMALTD
 70
     2
  9
$DIMALTF
 40
25.4
  9
$DIMLFAC
 40
1.0
  9
$DIMTOFL
 70
     0
  9
$DIMTVP
 40
0.0
  9
$DIMTIX
 70
     0
  9
$DIMSOXD
 70
     0
  9
$DIMSAH
 70
     0
  9
$DIMBLK1
  1

  9
$DIMBLK2
  1

  9
$DIMSTYLE
  2
Standard
  9
$DIMCLRD
 70
     0
  9
$DIMCLRE
 70
     0
  9
$DIMCLRT
 70
     0
  9
$DIMTFAC
 40
1.0
  9
$DIMGAP
 40
0.625
  9
$DIMJUST
 70
     0
  9
$DIMSD1
 70
     0
  9
$DIMSD2
 70
     0
  9
$DIMTOLJ
 70
     1
  9
$DIMTZIN
 70
     0
  9
$DIMALTZ
 70
     0
  9
$DIMALTTZ
 70
     0
  9
$DIMUPT
 70
     0
  9
$DIMDEC
 70
     4
  9
$DIMTDEC
 70
     4
  9
$DIMALTU
 70
     2
  9
$DIMALTTD
 70
     2
  9
$DIMTXSTY
  7
STANDARD
  9
$DIMAUNIT
 70
     0
  9
$DIMADEC
 70
     0
  9
$DIMALTRND
 40
0.0
  9
$DIMAZIN
 70
     0
  9
$DIMDSEP
 70
    46
  9
$DIMATFIT
 70
     3
  9
$DIMFRAC
 70
     0
  9
$DIMLDRBLK
  1

  9
$DIMLUNIT
 70
     2
  9
$DIMLWD
 70
    -2
  9
$DIMLWE
 70
    -2
  9
$DIMTMOVE
 70
     0
  9
$DIMFXL
 40
1.0
  9
$DIMFXLON
 70
     0
  9
$DIMJOGANG
 40
0.7853981633974483
  9
$DIMTFILL
 70
     0
  9
$DIMTFILLCLR
 70
     0
  9
$DIMARCSYM
 70
     0
  9
$DIMLTYPE
  6

  9
$DIMLTEX1
  6

  9
$DIMLTEX2
  6

  9
$DIMTXTDIRECTION
 70
     0
  9
$LUNITS
 70
     2
  9
$LUPREC
 70
     4
  9
$SKETCHINC
 40
0.1
  9
$FILLETRAD
 40
0.0
  9
$AUNITS
 70
     0
  9
$AUPREC
 70
     0
  9
$MENU
  1

  9
$ELEVATION
 40
0.0
  9
$PELEVATION
 40
0.0
  9
$THICKNESS
 40
0.0
  9
$LIMCHECK
 70
     0
  9
$CHAMFERA
 40
0.0
  9
$CHAMFERB
 40
0.0
  9
$CHAMFERC
 40
0.0
  9
$CHAMFERD
 40
0.0
  9
$SKPOLY
 70
     0
  9
$TDCREATE
 40
2305814.595250301
  9
$TDUCREATE
 40
45923.511916968
  9
$TDUPDATE
 40
2460942.595672766
  9
$TDUUPDATE
 40
2460942.512339433
  9
$TDINDWG
 40
0.000268137
  9
$TDUSRTIMER
 40
0.000268113
  9
$USRTIMER
 70
     1
  9
$ANGBASE
 50
0.0
  9
$ANGDIR
 70
     0
  9
$PDMODE
 70
     0
  9
$PDSIZE
 40
0.0
  9
$PLINEWID
 40
0.0
  9
$SPLFRAME
 70
     0
  9
$SPLINETYPE
 70
     6
  9
$SPLINESEGS
 70
     8
  9
$HANDSEED
  5
10001AE
  9
$SURFTAB1
 70
     6
  9
$SURFTAB2
 70
     6
  9
$SURFTYPE
 70
     6
  9
$SURFU
 70
     6
  9
$SURFV
 70
     6
  9
$UCSBASE
  2

  9
$UCSNAME
  2

  9
$UCSORG
 10
0.0
 20
0.0
 30
0.0
  9
$UCSXDIR
 10
1.0
 20
0.0
 30
0.0
  9
$UCSYDIR
 10
0.0
 20
1.0
 30
0.0
  9
$UCSORTHOREF
  2

  9
$UCSORTHOVIEW
 70
     0
  9
$UCSORGTOP
 10
0.0
 20
0.0
 30
0.0
  9
$UCSORGBOTTOM
 10
0.0
 20
0.0
 30
0.0
  9
$UCSORGLEFT
 10
0.0
 20
0.0
 30
0.0
  9
$UCSORGRIGHT
 10
0.0
 20
0.0
 30
0.0
  9
$UCSORGFRONT
 10
0.0
 20
0.0
 30
0.0
  9
$UCSORGBACK
 10
0.0
 20
0.0
 30
0.0
  9
$PUCSBASE
  2

  9
$PUCSNAME
  2

  9
$PUCSORG
 10
0.0
 20
0.0
 30
0.0
  9
$PUCSXDIR
 10
1.0
 20
0.0
 30
0.0
  9
$PUCSYDIR
 10
0.0
 20
1.0
 30
0.0
  9
$PUCSORTHOREF
  2

  9
$PUCSORTHOVIEW
 70
     0
  9
$PUCSORGTOP
 10
0.0
 20
0.0
 30
0.0
  9
$PUCSORGBOTTOM
 10
0.0
 20
0.0
 30
0.0
  9
$PUCSORGLEFT
 10
0.0
 20
0.0
 30
0.0
  9
$PUCSORGRIGHT
 10
0.0
 20
0.0
 30
0.0
  9
$PUCSORGFRONT
 10
0.0
 20
0.0
 30
0.0
  9
$PUCSORGBACK
 10
0.0
 20
0.0
 30
0.0
  9
$USERI1
 70
     0
  9
$USERI2
 70
     0
  9
$USERI3
 70
     0
  9
$USERI4
 70
     0
  9
$USERI5
 70
     0
  9
$USERR1
 40
0.0
  9
$USERR2
 40
0.0
  9
$USERR3
 40
0.0
  9
$USERR4
 40
0.0
  9
$USERR5
 40
0.0
  9
$WORLDVIEW
 70
     1
  9
$SHADEDGE
 70
     3
  9
$SHADEDIF
 70
    70
  9
$TILEMODE
 70
     1
  9
$MAXACTVP
 70
    64
  9
$PINSBASE
 10
0.0
 20
0.0
 30
0.0
  9
$PLIMCHECK
 70
     0
  9
$PEXTMIN
 10
1.000000000000000E+20
 20
1.000000000000000E+20
 30
1.000000000000000E+20
  9
$PEXTMAX
 10
-1.000000000000000E+20
 20
-1.000000000000000E+20
 30
-1.000000000000000E+20
  9
$PLIMMIN
 10
0.0
 20
0.0
  9
$PLIMMAX
 10
210.0
 20
297.0
  9
$UNITMODE
 70
     0
  9
$VISRETAIN
 70
     1
  9
$PLINEGEN
 70
     0
  9
$PSLTSCALE
 70
     1
  9
$TREEDEPTH
 70
  3020
  9
$CMLSTYLE
  2
Standard
  9
$CMLJUST
 70
     0
  9
$CMLSCALE
 40
1.0
  9
$PROXYGRAPHICS
 70
     1
  9
$MEASUREMENT
 70
     1
  9
$CELWEIGHT
370
    -1
  9
$ENDCAPS
280
     0
  9
$JOINSTYLE
280
     0
  9
$LWDISPLAY
290
     1
  9
$INSUNITS
 70
     6
  9
$HYPERLINKBASE
  1

  9
$STYLESHEET
  1

  9
$XEDIT
290
     0
  9
$CEPSNTYPE
380
     0
  9
$PSTYLEMODE
290
     1
  9
$FINGERPRINTGUID
  2
{2CDD06F6-7BDE-427E-AF25-4EBFC5D12475}
  9
$VERSIONGUID
  2
{F9E8468B-26F9-44EA-BCF3-89DDAD2F5701}
  9
$EXTNAMES
290
     1
  9
$PSVPSCALE
 40
0.0
  9
$OLESTARTUP
290
     0
  9
$SORTENTS
280
   127
  9
$INDEXCTL
280
     0
  9
$HIDETEXT
280
     1
  9
$XCLIPFRAME
280
     2
  9
$HALOGAP
280
     0
  9
$OBSCOLOR
 70
   257
  9
$OBSLTYPE
280
     0
  9
$INTERSECTIONDISPLAY
280
     0
  9
$INTERSECTIONCOLOR
 70
   257
  9
$DIMASSOC
280
     2
  9
$PROJECTNAME
  1

  9
$CAMERADISPLAY
290
     0
  9
$LENSLENGTH
 40
50.0
  9
$CAMERAHEIGHT
 40
0.0
  9
$STEPSPERSEC
 40
2.0
  9
$STEPSIZE
 40
6.0
  9
$3DDWFPREC
 40
2.0
  9
$PSOLWIDTH
 40
0.25
  9
$PSOLHEIGHT
 40
4.0
  9
$LOFTANG1
 40
1.570796326794896
  9
$LOFTANG2
 40
1.570796326794896
  9
$LOFTMAG1
 40
0.0
  9
$LOFTMAG2
 40
0.0
  9
$LOFTPARAM
 70
     7
  9
$LOFTNORMALS
280
     1
  9
$LATITUDE
 40
0.0
  9
$LONGITUDE
 40
0.0
  9
$NORTHDIRECTION
 40
0.0
  9
$TIMEZONE
 70
 -8000
  9
$LIGHTGLYPHDISPLAY
280
     1
  9
$TILEMODELIGHTSYNCH
280
     1
  9
$CMATERIAL
347
1000000
  9
$SOLIDHIST
280
     1
  9
$SHOWHIST
280
     1
  9
$DWFFRAME
280
     2
  9
$DGNFRAME
280
     0
  9
$REALWORLDSCALE
290
     1
  9
$INTERFERECOLOR
 62
     1
  9
$CSHADOW
280
     0
  9
$SHADOWPLANELOCATION
 40
0.0
  0
ENDSEC
  0
SECTION
  2
CLASSES
  0
CLASS
  1
WIPEOUT
  2
AcDbWipeout
  3
WipeOut
 90
      127
 91
        0
280
     0
281
     1
  0
CLASS
  1
WIPEOUTVARIABLES
  2
AcDbWipeoutVariables
  3
WipeOut
 90
        0
 91
        1
280
     0
281
     0
  0
CLASS
  1
ACDBDICTIONARYWDFLT
  2
AcDbDictionaryWithDefault
  3
ObjectDBX Classes
 90
    32768
 91
        1
280
     0
281
     0
  0
CLASS
  1
MATERIAL
  2
AcDbMaterial
  3
ObjectDBX Classes
 90
        0
 91
        3
280
     0
281
     0
  0
CLASS
  1
VISUALSTYLE
  2
AcDbVisualStyle
  3
ObjectDBX Classes
 90
     4095
 91
       24
280
     0
281
     0
  0
CLASS
  1
TABLESTYLE
  2
AcDbTableStyle
  3
ObjectDBX Classes
 90
     2047
 91
        1
280
     0
281
     0
  0
CLASS
  1
MLEADERSTYLE
  2
AcDbMLeaderStyle
  3
ACDB_MLEADERSTYLE_CLASS
 90
     4095
 91
        1
280
     0
281
     0
  0
CLASS
  1
SCALE
  2
AcDbScale
  3
ObjectDBX Classes
 90
     1153
 91
       17
280
     0
281
     0
  0
CLASS
  1
SORTENTSTABLE
  2
AcDbSortentsTable
  3
ObjectDBX Classes
 90
        0
 91
        1
280
     0
281
     0
  0
CLASS
  1
DICTIONARYVAR
  2
AcDbDictionaryVar
  3
ObjectDBX Classes
 90
        0
 91
        4
280
     0
281
     0
  0
ENDSEC
  0
SECTION
  2
TABLES
  0
TABLE
  2
VPORT
  5
1
330
0
100
AcDbSymbolTable
 70
     1
  0
VPORT
  5
2
330
1
100
AcDbSymbolTableRecord
100
AcDbViewportTableRecord
  2
*ACTIVE
 70
     0
 10
0.0
 20
0.0
 11
1.0
 21
1.0
 12
7571144.643527
 22
5715107.566534373
 13
0.0
 23
0.0
 14
1.0
 24
1.0
 15
0.0
 25
0.0
 16
0.0
 26
0.0
 36
1.0
 17
0.0
 27
0.0
 37
0.0
 40
2015.835380000001
 41
1.171589310829817
 42
50.0
 43
0.0
 44
0.0
 50
0.0
 51
0.0
 71
     0
 72
   100
 73
     1
 74
     1
 75
     0
 76
     0
 77
     0
 78
     0
281
     0
 65
     1
110
0.0
120
0.0
130
0.0
111
1.0
121
0.0
131
0.0
112
0.0
122
1.0
132
0.0
 79
     0
146
0.0
348
1000008
 60
     3
 61
     5
292
     1
282
     1
141
0.0
142
0.0
 63
   256
  0
ENDTAB
  0
TABLE
  2
LTYPE
  5
3
330
0
100
AcDbSymbolTable
 70
     1
  0
LTYPE
  5
4
330
3
100
AcDbSymbolTableRecord
100
AcDbLinetypeTableRecord
  2
ByBlock
 70
     0
  3

 72
    65
 73
     0
 40
0.0
  0
LTYPE
  5
5
330
3
100
AcDbSymbolTableRecord
100
AcDbLinetypeTableRecord
  2
ByLayer
 70
     0
  3

 72
    65
 73
     0
 40
0.0
  0
LTYPE
  5
6
330
3
100
AcDbSymbolTableRecord
100
AcDbLinetypeTableRecord
  2
CONTINUOUS
 70
     0
  3
Solid line
 72
    65
 73
     0
 40
0.0
  0
ENDTAB
  0
TABLE
  2
LAYER
  5
7
330
0
100
AcDbSymbolTable
 70
     2
  0
LAYER
  5
8
330
7
100
AcDbSymbolTableRecord
100
AcDbLayerTableRecord
  2
0
 70
     0
 62
     7
  6
CONTINUOUS
370
    18
390
9
347
1000002
348
0
  0
LAYER
  5
A
330
7
100
AcDbSymbolTableRecord
100
AcDbLayerTableRecord
  2
ewns_dzialki
 70
     0
 62
     7
  6
CONTINUOUS
370
    18
390
9
347
1000002
348
0
  0
ENDTAB
  0
TABLE
  2
STYLE
  5
B
330
0
100
AcDbSymbolTable
 70
     2
  0
STYLE
  5
C
330
B
100
AcDbSymbolTableRecord
100
AcDbTextStyleTableRecord
  2
STANDARD
 70
     0
 40
0.0
 41
1.0
 50
0.0
 71
     0
 42
0.2
  3
simplex.shx
  4

  0
STYLE
  5
D
330
B
100
AcDbSymbolTableRecord
100
AcDbTextStyleTableRecord
  2
STANDARD_ITALIC
 70
     0
 40
0.0
 41
1.0
 50
15.0
 71
     0
 42
0.2
  3
simplex.shx
  4

  0
ENDTAB
  0
TABLE
  2
VIEW
  5
E
330
0
100
AcDbSymbolTable
 70
     0
  0
ENDTAB
  0
TABLE
  2
UCS
  5
F
330
0
100
AcDbSymbolTable
 70
     0
  0
ENDTAB
  0
TABLE
  2
APPID
  5
10
330
0
100
AcDbSymbolTable
 70
     1
  0
APPID
  5
11
330
10
100
AcDbSymbolTableRecord
100
AcDbRegAppTableRecord
  2
ACAD
 70
     0
  0
ENDTAB
  0
TABLE
  2
DIMSTYLE
  5
12
330
0
100
AcDbSymbolTable
 70
     1
100
AcDbDimStyleTable
 71
     0
  0
DIMSTYLE
105
13
330
12
100
AcDbSymbolTableRecord
100
AcDbDimStyleTableRecord
  2
Standard
 70
     0
340
C
  0
ENDTAB
  0
TABLE
  2
BLOCK_RECORD
  5
14
330
0
100
AcDbSymbolTable
 70
     0
  0
BLOCK_RECORD
  5
15
102
{ACAD_XDICTIONARY
360
1000034
102
}
330
14
100
AcDbSymbolTableRecord
100
AcDbBlockTableRecord
  2
*MODEL_SPACE
340
16
 70
     0
280
     1
281
     0
  0
BLOCK_RECORD
  5
17
330
14
100
AcDbSymbolTableRecord
100
AcDbBlockTableRecord
  2
*PAPER_SPACE
340
18
 70
     0
280
     1
281
     0
  0
ENDTAB
  0
ENDSEC
  0
SECTION
  2
BLOCKS
  0
BLOCK
  5
19
330
15
100
AcDbEntity
  8
0
100
AcDbBlockBegin
  2
*MODEL_SPACE
 70
     0
 10
0.0
 20
0.0
 30
0.0
  3
*MODEL_SPACE
  1

  0
ENDBLK
  5
1A
330
15
100
AcDbEntity
  8
0
100
AcDbBlockEnd
  0
BLOCK
  5
1B
330
17
100
AcDbEntity
 67
     1
  8
0
100
AcDbBlockBegin
  2
*PAPER_SPACE
 70
     0
 10
0.0
 20
0.0
 30
0.0
  3
*PAPER_SPACE
  1

  0
ENDBLK
  5
1C
330
17
100
AcDbEntity
 67
     1
  8
0
100
AcDbBlockEnd
  0
ENDSEC
  0
SECTION
  2
ENTITIES
  0
TEXT
  5
1C8
330
15
100
AcDbEntity
  8
ewns_dzialki
370
    20
100
AcDbText
 10
7570721.202857144
 20
5715464.335
 30
0.0
 40
1.0
  1
1013
 41
0.6600000000000001
 72
     1
 11
7570722.24
 21
5715465.335
 31
0.0
100
AcDbText
 73
     3
  0
LINE
  5
1000036
330
15
100
AcDbEntity
  8
ewns_dzialki
  6
Continuous
370
    18
100
AcDbLine
 10
7570863.059999999
 20
5715526.019999999
 30
0.0
 11
7570823.269999998
 21
5715534.670000001
 31
0.0
  0
LINE
  5
1000037
330
15
100
AcDbEntity
  8
ewns_dzialki
  6
Continuous
370
    18
100
AcDbLine
 10
7570823.269999998
 20
5715534.670000001
 30
0.0
 11
7570812.360000001
 21
5715529.43
 31
0.0
  0
LINE
  5
1000038
330
15
100
AcDbEntity
  8
ewns_dzialki
  6
Continuous
370
    18
100
AcDbLine
 10
7570812.360000001
 20
5715529.43
 30
0.0
 11
7570798.500000001
 21
5715535.530000001
 31
0.0
  0
LINE
  5
1000039
330
15
100
AcDbEntity
  8
ewns_dzialki
  6
Continuous
370
    18
100
AcDbLine
 10
7570798.500000001
 20
5715535.530000001
 30
0.0
 11
7570800.04
 21
5715666.71
 31
0.0
  0
LINE
  5
100003A
330
15
100
AcDbEntity
  8
ewns_dzialki
  6
Continuous
370
    18
100
AcDbLine
 10
7570800.04
 20
5715666.71
 30
0.0
 11
7570864.8
 21
5715672.75
 31
0.0
  0
LINE
  5
100003B
330
15
100
AcDbEntity
  8
ewns_dzialki
  6
Continuous
370
    18
100
AcDbLine
 10
7570864.8
 20
5715672.75
 30
0.0
 11
7570863.059999999
 21
5715526.019999999
 31
0.0
  0
LINE
  5
100003C
330
15
100
AcDbEntity
  8
ewns_dzialki
  6
Continuous
370
    18
100
AcDbLine
 10
7570863.059999999
 20
5715526.019999999
 30
0.0
 11
7570864.8
 21
5715672.75
 31
0.0
  0
LINE
  5
100003D
330
15
100
AcDbEntity
  8
ewns_dzialki
  6
Continuous
370
    18
100
AcDbLine
 10
7570864.8
 20
5715672.75
 30
0.0
 11
7570904.219999999
 21
5715676.43
 31
0.0
  0
LINE
  5
100003E
330
15
100
AcDbEntity
  8
ewns_dzialki
  6
Continuous
370
    18
100
AcDbLine
 10
7570904.219999999
 20
5715676.43
 30
0.0
 11
7570901.480000001
 21
5715517.68
 31
0.0
  0
LINE
  5
100003F
330
15
100
AcDbEntity
  8
ewns_dzialki
  6
Continuous
370
    18
100
AcDbLine
 10
7570901.480000001
 20
5715517.68
 30
0.0
 11
7570863.059999999
 21
5715526.019999999
 31
0.0
  0
LINE
  5
1000040
330
15
100
AcDbEntity
  8
ewns_dzialki
  6
Continuous
370
    18
100
AcDbLine
 10
7570901.480000001
 20
5715517.68
 30
0.0
 11
7570904.219999999
 21
5715676.43
 31
0.0
  0
LINE
  5
1000041
330
15
100
AcDbEntity
  8
ewns_dzialki
  6
Continuous
370
    18
100
AcDbLine
 10
7570904.219999999
 20
5715676.43
 30
0.0
 11
7570944.650000001
 21
5715680.2
 31
0.0
  0
LINE
  5
1000042
330
15
100
AcDbEntity
  8
ewns_dzialki
  6
Continuous
370
    18
100
AcDbLine
 10
7570944.650000001
 20
5715680.2
 30
0.0
 11
7570941.99
 21
5715533.800000001
 31
0.0
  0
LINE
  5
1000043
330
15
100
AcDbEntity
  8
ewns_dzialki
  6
Continuous
370
    18
100
AcDbLine
 10
7570941.99
 20
5715533.800000001
 30
0.0
 11
7570940.559999999
 21
5715512.21
 31
0.0
  0
LINE
  5
1000044
330
15
100
AcDbEntity
  8
ewns_dzialki
  6
Continuous
370
    18
100
AcDbLine
 10
7570940.559999999
 20
5715512.21
 30
0.0
 11
7570937.419999999
 21
5715509.86
 31
0.0
  0
LINE
  5
1000045
330
15
100
AcDbEntity
  8
ewns_dzialki
  6
Continuous
370
    18
100
AcDbLine
 10
7570937.419999999
 20
5715509.86
 30
0.0
 11
7570901.480000001
 21
5715517.68
 31
0.0
  0
LINE
  5
1000046
330
15
100
AcDbEntity
  8
ewns_dzialki
  6
Continuous
370
    18
100
AcDbLine
 10
7570885.289999999
 20
5715484.96
 30
0.0
 11
7570860.929999999
 21
5715501.9
 31
0.0
  0
LINE
  5
1000047
330
15
100
AcDbEntity
  8
ewns_dzialki
  6
Continuous
370
    18
100
AcDbLine
 10
7570860.929999999
 20
5715501.9
 30
0.0
 11
7570847.389999999
 21
5715508.97
 31
0.0
  0
LINE
  5
1000048
330
15
100
AcDbEntity
  8
ewns_dzialki
  6
Continuous
370
    18
100
AcDbLine
 10
7570847.389999999
 20
5715508.97
 30
0.0
 11
7570836.370000001
 21
5715514.68
 31
0.0
  0
LINE
  5
1000049
330
15
100
AcDbEntity
  8
ewns_dzialki
  6
Continuous
370
    18
100
AcDbLine
 10
7570836.370000001
 20
5715514.68
 30
0.0
 11
7570825.779999999
 21
5715519.259999999
 31
0.0
  0
LINE
  5
100004A
330
15
100
AcDbEntity
  8
ewns_dzialki
  6
Continuous
370
    18
100
AcDbLine
 10
7570825.779999999
 20
5715519.259999999
 30
0.0
 11
7570816.559999999
 21
5715523.25
 31
0.0
  0
LINE
  5
100004B
330
15
100
AcDbEntity
  8
ewns_dzialki
  6
Continuous
370
    18
100
AcDbLine
 10
7570816.559999999
 20
5715523.25
 30
0.0
 11
7570812.45
 21
5715525.04
 31
0.0
  0
LINE
  5
100004C
330
15
100
AcDbEntity
  8
ewns_dzialki
  6
Continuous
370
    18
100
AcDbLine
 10
7570812.45
 20
5715525.04
 30
0.0
 11
7570823.759999999
 21
5715530.47
 31
0.0
  0
LINE
  5
100004D
330
15
100
AcDbEntity
  8
ewns_dzialki
  6
Continuous
370
    18
100
AcDbLine
 10
7570823.759999999
 20
5715530.47
 30
0.0
 11
7570886.32
 21
5715516.87
 31
0.0
  0
LINE
  5
100004E
330
15
100
AcDbEntity
  8
ewns_dzialki
  6
Continuous
370
    18
100
AcDbLine
 10
7570886.32
 20
5715516.87
 30
0.0
 11
7570885.289999999
 21
5715484.96
 31
0.0
  0
LINE
  5
100004F
330
15
100
AcDbEntity
  8
ewns_dzialki
  6
Continuous
370
    18
100
AcDbLine
 10
7570885.289999999
 20
5715484.96
 30
0.0
 11
7570886.32
 21
5715516.87
 31
0.0
  0
LINE
  5
1000050
330
15
100
AcDbEntity
  8
ewns_dzialki
  6
Continuous
370
    18
100
AcDbLine
 10
7570886.32
 20
5715516.87
 30
0.0
 11
7570931.769999998
 21
5715506.99
 31
0.0
  0
LINE
  5
1000051
330
15
100
AcDbEntity
  8
ewns_dzialki
  6
Continuous
370
    18
100
AcDbLine
 10
7570931.769999998
 20
5715506.99
 30
0.0
 11
7570930.059999999
 21
5715452.82
 31
0.0
  0
LINE
  5
1000052
330
15
100
AcDbEntity
  8
ewns_dzialki
  6
Continuous
370
    18
100
AcDbLine
 10
7570930.059999999
 20
5715452.82
 30
0.0
 11
7570917.889999999
 21
5715462.490000001
 31
0.0
  0
LINE
  5
1000053
330
15
100
AcDbEntity
  8
ewns_dzialki
  6
Continuous
370
    18
100
AcDbLine
 10
7570917.889999999
 20
5715462.490000001
 30
0.0
 11
7570901.73
 21
5715473.62
 31
0.0
  0
LINE
  5
1000054
330
15
100
AcDbEntity
  8
ewns_dzialki
  6
Continuous
370
    18
100
AcDbLine
 10
7570901.73
 20
5715473.62
 30
0.0
 11
7570894.58
 21
5715478.55
 31
0.0
  0
LINE
  5
1000055
330
15
100
AcDbEntity
  8
ewns_dzialki
  6
Continuous
370
    18
100
AcDbLine
 10
7570894.58
 20
5715478.55
 30
0.0
 11
7570885.289999999
 21
5715484.96
 31
0.0
  0
LINE
  5
1000056
330
15
100
AcDbEntity
  8
ewns_dzialki
  6
Continuous
370
    18
100
AcDbLine
 10
7570812.45
 20
5715525.04
 30
0.0
 11
7570816.559999999
 21
5715523.25
 31
0.0
  0
LINE
  5
1000057
330
15
100
AcDbEntity
  8
ewns_dzialki
  6
Continuous
370
    18
100
AcDbLine
 10
7570816.559999999
 20
5715523.25
 30
0.0
 11
7570825.779999999
 21
5715519.259999999
 31
0.0
  0
LINE
  5
1000058
330
15
100
AcDbEntity
  8
ewns_dzialki
  6
Continuous
370
    18
100
AcDbLine
 10
7570825.779999999
 20
5715519.259999999
 30
0.0
 11
7570836.370000001
 21
5715514.68
 31
0.0
  0
LINE
  5
1000059
330
15
100
AcDbEntity
  8
ewns_dzialki
  6
Continuous
370
    18
100
AcDbLine
 10
7570836.370000001
 20
5715514.68
 30
0.0
 11
7570847.389999999
 21
5715508.97
 31
0.0
  0
LINE
  5
100005A
330
15
100
AcDbEntity
  8
ewns_dzialki
  6
Continuous
370
    18
100
AcDbLine
 10
7570847.389999999
 20
5715508.97
 30
0.0
 11
7570860.929999999
 21
5715501.9
 31
0.0
  0
LINE
  5
100005B
330
15
100
AcDbEntity
  8
ewns_dzialki
  6
Continuous
370
    18
100
AcDbLine
 10
7570860.929999999
 20
5715501.9
 30
0.0
 11
7570885.289999999
 21
5715484.96
 31
0.0
  0
LINE
  5
100005C
330
15
100
AcDbEntity
  8
ewns_dzialki
  6
Continuous
370
    18
100
AcDbLine
 10
7570885.289999999
 20
5715484.96
 30
0.0
 11
7570894.58
 21
5715478.55
 31
0.0
  0
LINE
  5
100005D
330
15
100
AcDbEntity
  8
ewns_dzialki
  6
Continuous
370
    18
100
AcDbLine
 10
7570894.58
 20
5715478.55
 30
0.0
 11
7570901.73
 21
5715473.62
 31
0.0
  0
LINE
  5
100005E
330
15
100
AcDbEntity
  8
ewns_dzialki
  6
Continuous
370
    18
100
AcDbLine
 10
7570901.73
 20
5715473.62
 30
0.0
 11
7570917.889999999
 21
5715462.490000001
 31
0.0
  0
LINE
  5
100005F
330
15
100
AcDbEntity
  8
ewns_dzialki
  6
Continuous
370
    18
100
AcDbLine
 10
7570917.889999999
 20
5715462.490000001
 30
0.0
 11
7570930.059999999
 21
5715452.82
 31
0.0
  0
LINE
  5
1000060
330
15
100
AcDbEntity
  8
ewns_dzialki
  6
Continuous
370
    18
100
AcDbLine
 10
7570930.059999999
 20
5715452.82
 30
0.0
 11
7570933.8
 21
5715449.849999999
 31
0.0
  0
LINE
  5
1000061
330
15
100
AcDbEntity
  8
ewns_dzialki
  6
Continuous
370
    18
100
AcDbLine
 10
7570933.8
 20
5715449.849999999
 30
0.0
 11
7570939.410000001
 21
5715444.28
 31
0.0
  0
LINE
  5
1000062
330
15
100
AcDbEntity
  8
ewns_dzialki
  6
Continuous
370
    18
100
AcDbLine
 10
7570939.410000001
 20
5715444.28
 30
0.0
 11
7570934.860000001
 21
5715439.469999999
 31
0.0
  0
LINE
  5
1000063
330
15
100
AcDbEntity
  8
ewns_dzialki
  6
Continuous
370
    18
100
AcDbLine
 10
7570934.860000001
 20
5715439.469999999
 30
0.0
 11
7570917.719999998
 21
5715455.690000001
 31
0.0
  0
LINE
  5
1000064
330
15
100
AcDbEntity
  8
ewns_dzialki
  6
Continuous
370
    18
100
AcDbLine
 10
7570917.719999998
 20
5715455.690000001
 30
0.0
 11
7570885.17
 21
5715478.759999999
 31
0.0
  0
LINE
  5
1000065
330
15
100
AcDbEntity
  8
ewns_dzialki
  6
Continuous
370
    18
100
AcDbLine
 10
7570885.17
 20
5715478.759999999
 30
0.0
 11
7570860.79
 21
5715494.900000001
 31
0.0
  0
LINE
  5
1000066
330
15
100
AcDbEntity
  8
ewns_dzialki
  6
Continuous
370
    18
100
AcDbLine
 10
7570860.79
 20
5715494.900000001
 30
0.0
 11
7570846.079999999
 21
5715502.91
 31
0.0
  0
LINE
  5
1000067
330
15
100
AcDbEntity
  8
ewns_dzialki
  6
Continuous
370
    18
100
AcDbLine
 10
7570846.079999999
 20
5715502.91
 30
0.0
 11
7570836.240000001
 21
5715507.67
 31
0.0
  0
LINE
  5
1000068
330
15
100
AcDbEntity
  8
ewns_dzialki
  6
Continuous
370
    18
100
AcDbLine
 10
7570836.240000001
 20
5715507.67
 30
0.0
 11
7570796.110000001
 21
5715525.11
 31
0.0
  0
LINE
  5
1000069
330
15
100
AcDbEntity
  8
ewns_dzialki
  6
Continuous
370
    18
100
AcDbLine
 10
7570796.110000001
 20
5715525.11
 30
0.0
 11
7570763.78
 21
5715538.4
 31
0.0
  0
LINE
  5
100006A
330
15
100
AcDbEntity
  8
ewns_dzialki
  6
Continuous
370
    18
100
AcDbLine
 10
7570763.78
 20
5715538.4
 30
0.0
 11
7570733.580000001
 21
5715550.07
 31
0.0
  0
LINE
  5
100006B
330
15
100
AcDbEntity
  8
ewns_dzialki
  6
Continuous
370
    18
100
AcDbLine
 10
7570733.580000001
 20
5715550.07
 30
0.0
 11
7570734.919999999
 21
5715556.959999999
 31
0.0
  0
LINE
  5
100006C
330
15
100
AcDbEntity
  8
ewns_dzialki
  6
Continuous
370
    18
100
AcDbLine
 10
7570734.919999999
 20
5715556.959999999
 30
0.0
 11
7570776.07
 21
5715540.83
 31
0.0
  0
LINE
  5
100006D
330
15
100
AcDbEntity
  8
ewns_dzialki
  6
Continuous
370
    18
100
AcDbLine
 10
7570776.07
 20
5715540.83
 30
0.0
 11
7570796.259999999
 21
5715532.05
 31
0.0
  0
LINE
  5
100006E
330
15
100
AcDbEntity
  8
ewns_dzialki
  6
Continuous
370
    18
100
AcDbLine
 10
7570796.259999999
 20
5715532.05
 30
0.0
 11
7570812.45
 21
5715525.04
 31
0.0
  0
LINE
  5
100006F
330
15
100
AcDbEntity
  8
ewns_dzialki
  6
Continuous
370
    18
100
AcDbLine
 10
7570653.730000001
 20
5715519.16
 30
0.0
 11
7570649.67
 21
5715377.779999999
 31
0.0
  0
LINE
  5
1000070
330
15
100
AcDbEntity
  8
ewns_dzialki
  6
Continuous
370
    18
100
AcDbLine
 10
7570649.67
 20
5715377.779999999
 30
0.0
 11
7570629.62
 21
5715378.199999999
 31
0.0
  0
LINE
  5
1000071
330
15
100
AcDbEntity
  8
ewns_dzialki
  6
Continuous
370
    18
100
AcDbLine
 10
7570629.62
 20
5715378.199999999
 30
0.0
 11
7570633.9
 21
5715521.67
 31
0.0
  0
LINE
  5
1000072
330
15
100
AcDbEntity
  8
ewns_dzialki
  6
Continuous
370
    18
100
AcDbLine
 10
7570633.9
 20
5715521.67
 30
0.0
 11
7570636.460000001
 21
5715574.87
 31
0.0
  0
LINE
  5
1000073
330
15
100
AcDbEntity
  8
ewns_dzialki
  6
Continuous
370
    18
100
AcDbLine
 10
7570636.460000001
 20
5715574.87
 30
0.0
 11
7570655.259999999
 21
5715569.849999999
 31
0.0
  0
LINE
  5
1000074
330
15
100
AcDbEntity
  8
ewns_dzialki
  6
Continuous
370
    18
100
AcDbLine
 10
7570655.259999999
 20
5715569.849999999
 30
0.0
 11
7570655.019999999
 21
5715560.700000001
 31
0.0
  0
LINE
  5
1000075
330
15
100
AcDbEntity
  8
ewns_dzialki
  6
Continuous
370
    18
100
AcDbLine
 10
7570655.019999999
 20
5715560.700000001
 30
0.0
 11
7570654.929999999
 21
5715558.53
 31
0.0
  0
LINE
  5
1000076
330
15
100
AcDbEntity
  8
ewns_dzialki
  6
Continuous
370
    18
100
AcDbLine
 10
7570654.929999999
 20
5715558.53
 30
0.0
 11
7570653.730000001
 21
5715519.16
 31
0.0
  0
LINE
  5
1000077
330
15
100
AcDbEntity
  8
ewns_dzialki
  6
Continuous
370
    18
100
AcDbLine
 10
7570653.730000001
 20
5715519.16
 30
0.0
 11
7570654.929999999
 21
5715558.53
 31
0.0
  0
LINE
  5
1000078
330
15
100
AcDbEntity
  8
ewns_dzialki
  6
Continuous
370
    18
100
AcDbLine
 10
7570654.929999999
 20
5715558.53
 30
0.0
 11
7570655.019999999
 21
5715560.700000001
 31
0.0
  0
LINE
  5
1000079
330
15
100
AcDbEntity
  8
ewns_dzialki
  6
Continuous
370
    18
100
AcDbLine
 10
7570655.019999999
 20
5715560.700000001
 30
0.0
 11
7570655.259999999
 21
5715569.849999999
 31
0.0
  0
LINE
  5
100007A
330
15
100
AcDbEntity
  8
ewns_dzialki
  6
Continuous
370
    18
100
AcDbLine
 10
7570655.259999999
 20
5715569.849999999
 30
0.0
 11
7570675.37
 21
5715564.59
 31
0.0
  0
LINE
  5
100007B
330
15
100
AcDbEntity
  8
ewns_dzialki
  6
Continuous
370
    18
100
AcDbLine
 10
7570675.37
 20
5715564.59
 30
0.0
 11
7570671.8
 21
5715501.66
 31
0.0
  0
LINE
  5
100007C
330
15
100
AcDbEntity
  8
ewns_dzialki
  6
Continuous
370
    18
100
AcDbLine
 10
7570671.8
 20
5715501.66
 30
0.0
 11
7570672.679999999
 21
5715501.64
 31
0.0
  0
LINE
  5
100007D
330
15
100
AcDbEntity
  8
ewns_dzialki
  6
Continuous
370
    18
100
AcDbLine
 10
7570672.679999999
 20
5715501.64
 30
0.0
 11
7570670.809999999
 21
5715446.429999999
 31
0.0
  0
LINE
  5
100007E
330
15
100
AcDbEntity
  8
ewns_dzialki
  6
Continuous
370
    18
100
AcDbLine
 10
7570670.809999999
 20
5715446.429999999
 30
0.0
 11
7570669.03
 21
5715377.369999999
 31
0.0
  0
LINE
  5
100007F
330
15
100
AcDbEntity
  8
ewns_dzialki
  6
Continuous
370
    18
100
AcDbLine
 10
7570669.03
 20
5715377.369999999
 30
0.0
 11
7570649.67
 21
5715377.779999999
 31
0.0
  0
LINE
  5
1000080
330
15
100
AcDbEntity
  8
ewns_dzialki
  6
Continuous
370
    18
100
AcDbLine
 10
7570649.67
 20
5715377.779999999
 30
0.0
 11
7570653.730000001
 21
5715519.16
 31
0.0
  0
LINE
  5
1000081
330
15
100
AcDbEntity
  8
ewns_dzialki
  6
Continuous
370
    18
100
AcDbLine
 10
7570671.8
 20
5715501.66
 30
0.0
 11
7570675.37
 21
5715564.59
 31
0.0
  0
LINE
  5
1000082
330
15
100
AcDbEntity
  8
ewns_dzialki
  6
Continuous
370
    18
100
AcDbLine
 10
7570675.37
 20
5715564.59
 30
0.0
 11
7570693.610000001
 21
5715559.789999999
 31
0.0
  0
LINE
  5
1000083
330
15
100
AcDbEntity
  8
ewns_dzialki
  6
Continuous
370
    18
100
AcDbLine
 10
7570693.610000001
 20
5715559.789999999
 30
0.0
 11
7570692.61
 21
5715545.889999999
 31
0.0
  0
LINE
  5
1000084
330
15
100
AcDbEntity
  8
ewns_dzialki
  6
Continuous
370
    18
100
AcDbLine
 10
7570692.61
 20
5715545.889999999
 30
0.0
 11
7570692.349999999
 21
5715535.929999999
 31
0.0
  0
LINE
  5
1000085
330
15
100
AcDbEntity
  8
ewns_dzialki
  6
Continuous
370
    18
100
AcDbLine
 10
7570692.349999999
 20
5715535.929999999
 30
0.0
 11
7570691.559999999
 21
5715508.63
 31
0.0
  0
LINE
  5
1000086
330
15
100
AcDbEntity
  8
ewns_dzialki
  6
Continuous
370
    18
100
AcDbLine
 10
7570691.559999999
 20
5715508.63
 30
0.0
 11
7570688.23
 21
5715376.959999999
 31
0.0
  0
LINE
  5
1000087
330
15
100
AcDbEntity
  8
ewns_dzialki
  6
Continuous
370
    18
100
AcDbLine
 10
7570688.23
 20
5715376.959999999
 30
0.0
 11
7570669.03
 21
5715377.369999999
 31
0.0
  0
LINE
  5
1000088
330
15
100
AcDbEntity
  8
ewns_dzialki
  6
Continuous
370
    18
100
AcDbLine
 10
7570669.03
 20
5715377.369999999
 30
0.0
 11
7570670.809999999
 21
5715446.429999999
 31
0.0
  0
LINE
  5
1000089
330
15
100
AcDbEntity
  8
ewns_dzialki
  6
Continuous
370
    18
100
AcDbLine
 10
7570670.809999999
 20
5715446.429999999
 30
0.0
 11
7570672.679999999
 21
5715501.64
 31
0.0
  0
LINE
  5
100008A
330
15
100
AcDbEntity
  8
ewns_dzialki
  6
Continuous
370
    18
100
AcDbLine
 10
7570672.679999999
 20
5715501.64
 30
0.0
 11
7570671.8
 21
5715501.66
 31
0.0
  0
LINE
  5
100008B
330
15
100
AcDbEntity
  8
ewns_dzialki
  6
Continuous
370
    18
100
AcDbLine
 10
7570691.559999999
 20
5715508.63
 30
0.0
 11
7570692.349999999
 21
5715535.929999999
 31
0.0
  0
LINE
  5
100008C
330
15
100
AcDbEntity
  8
ewns_dzialki
  6
Continuous
370
    18
100
AcDbLine
 10
7570692.349999999
 20
5715535.929999999
 30
0.0
 11
7570692.61
 21
5715545.889999999
 31
0.0
  0
LINE
  5
100008D
330
15
100
AcDbEntity
  8
ewns_dzialki
  6
Continuous
370
    18
100
AcDbLine
 10
7570692.61
 20
5715545.889999999
 30
0.0
 11
7570693.610000001
 21
5715559.789999999
 31
0.0
  0
LINE
  5
100008E
330
15
100
AcDbEntity
  8
ewns_dzialki
  6
Continuous
370
    18
100
AcDbLine
 10
7570693.610000001
 20
5715559.789999999
 30
0.0
 11
7570713.5
 21
5715554.62
 31
0.0
  0
LINE
  5
100008F
330
15
100
AcDbEntity
  8
ewns_dzialki
  6
Continuous
370
    18
100
AcDbLine
 10
7570713.5
 20
5715554.62
 30
0.0
 11
7570712.01
 21
5715507.99
 31
0.0
  0
LINE
  5
1000090
330
15
100
AcDbEntity
  8
ewns_dzialki
  6
Continuous
370
    18
100
AcDbLine
 10
7570712.01
 20
5715507.99
 30
0.0
 11
7570691.559999999
 21
5715508.63
 31
0.0
  0
LINE
  5
1000091
330
15
100
AcDbEntity
  8
ewns_dzialki
  6
Continuous
370
    18
100
AcDbLine
 10
7570688.23
 20
5715376.959999999
 30
0.0
 11
7570691.559999999
 21
5715508.63
 31
0.0
  0
LINE
  5
1000092
330
15
100
AcDbEntity
  8
ewns_dzialki
  6
Continuous
370
    18
100
AcDbLine
 10
7570691.559999999
 20
5715508.63
 30
0.0
 11
7570712.01
 21
5715507.99
 31
0.0
  0
LINE
  5
1000093
330
15
100
AcDbEntity
  8
ewns_dzialki
  6
Continuous
370
    18
100
AcDbLine
 10
7570712.01
 20
5715507.99
 30
0.0
 11
7570710.070000001
 21
5715445.509999999
 31
0.0
  0
LINE
  5
1000094
330
15
100
AcDbEntity
  8
ewns_dzialki
  6
Continuous
370
    18
100
AcDbLine
 10
7570710.070000001
 20
5715445.509999999
 30
0.0
 11
7570708.15
 21
5715376.55
 31
0.0
  0
LINE
  5
1000095
330
15
100
AcDbEntity
  8
ewns_dzialki
  6
Continuous
370
    18
100
AcDbLine
 10
7570708.15
 20
5715376.55
 30
0.0
 11
7570688.23
 21
5715376.959999999
 31
0.0
  0
LINE
  5
1000096
330
15
100
AcDbEntity
  8
ewns_dzialki
  6
Continuous
370
    18
100
AcDbLine
 10
7570712.01
 20
5715507.99
 30
0.0
 11
7570713.5
 21
5715554.62
 31
0.0
  0
LINE
  5
1000097
330
15
100
AcDbEntity
  8
ewns_dzialki
  6
Continuous
370
    18
100
AcDbLine
 10
7570713.5
 20
5715554.62
 30
0.0
 11
7570733.549999999
 21
5715543.44
 31
0.0
  0
LINE
  5
1000098
330
15
100
AcDbEntity
  8
ewns_dzialki
  6
Continuous
370
    18
100
AcDbLine
 10
7570733.549999999
 20
5715543.44
 30
0.0
 11
7570736.33
 21
5715542.05
 31
0.0
  0
LINE
  5
1000099
330
15
100
AcDbEntity
  8
ewns_dzialki
  6
Continuous
370
    18
100
AcDbLine
 10
7570736.33
 20
5715542.05
 30
0.0
 11
7570732.13
 21
5715376.049999999
 31
0.0
  0
LINE
  5
100009A
330
15
100
AcDbEntity
  8
ewns_dzialki
  6
Continuous
370
    18
100
AcDbLine
 10
7570732.13
 20
5715376.049999999
 30
0.0
 11
7570708.15
 21
5715376.55
 31
0.0
  0
LINE
  5
100009B
330
15
100
AcDbEntity
  8
ewns_dzialki
  6
Continuous
370
    18
100
AcDbLine
 10
7570708.15
 20
5715376.55
 30
0.0
 11
7570710.070000001
 21
5715445.509999999
 31
0.0
  0
LINE
  5
100009C
330
15
100
AcDbEntity
  8
ewns_dzialki
  6
Continuous
370
    18
100
AcDbLine
 10
7570710.070000001
 20
5715445.509999999
 30
0.0
 11
7570712.01
 21
5715507.99
 31
0.0
  0
LINE
  5
100009D
330
15
100
AcDbEntity
  8
ewns_dzialki
  6
Continuous
370
    18
100
AcDbLine
 10
7570732.13
 20
5715376.049999999
 30
0.0
 11
7570736.33
 21
5715542.05
 31
0.0
  0
LINE
  5
100009E
330
15
100
AcDbEntity
  8
ewns_dzialki
  6
Continuous
370
    18
100
AcDbLine
 10
7570736.33
 20
5715542.05
 30
0.0
 11
7570768.74
 21
5715525.83
 31
0.0
  0
LINE
  5
100009F
330
15
100
AcDbEntity
  8
ewns_dzialki
  6
Continuous
370
    18
100
AcDbLine
 10
7570768.74
 20
5715525.83
 30
0.0
 11
7570766.84
 21
5715444.139999999
 31
0.0
  0
LINE
  5
10000A0
330
15
100
AcDbEntity
  8
ewns_dzialki
  6
Continuous
370
    18
100
AcDbLine
 10
7570766.84
 20
5715444.139999999
 30
0.0
 11
7570764.83
 21
5715375.36
 31
0.0
  0
LINE
  5
10000A1
330
15
100
AcDbEntity
  8
ewns_dzialki
  6
Continuous
370
    18
100
AcDbLine
 10
7570764.83
 20
5715375.36
 30
0.0
 11
7570732.13
 21
5715376.049999999
 31
0.0
  0
LINE
  5
10000A2
330
15
100
AcDbEntity
  8
ewns_dzialki
  6
Continuous
370
    18
100
AcDbLine
 10
7570766.84
 20
5715444.139999999
 30
0.0
 11
7570768.74
 21
5715525.83
 31
0.0
  0
LINE
  5
10000A3
330
15
100
AcDbEntity
  8
ewns_dzialki
  6
Continuous
370
    18
100
AcDbLine
 10
7570768.74
 20
5715525.83
 30
0.0
 11
7570797.969999999
 21
5715511.219999999
 31
0.0
  0
LINE
  5
10000A4
330
15
100
AcDbEntity
  8
ewns_dzialki
  6
Continuous
370
    18
100
AcDbLine
 10
7570797.969999999
 20
5715511.219999999
 30
0.0
 11
7570794.509999999
 21
5715374.73
 31
0.0
  0
LINE
  5
10000A5
330
15
100
AcDbEntity
  8
ewns_dzialki
  6
Continuous
370
    18
100
AcDbLine
 10
7570794.509999999
 20
5715374.73
 30
0.0
 11
7570764.83
 21
5715375.36
 31
0.0
  0
LINE
  5
10000A6
330
15
100
AcDbEntity
  8
ewns_dzialki
  6
Continuous
370
    18
100
AcDbLine
 10
7570764.83
 20
5715375.36
 30
0.0
 11
7570766.84
 21
5715444.139999999
 31
0.0
  0
LINE
  5
10000A7
330
15
100
AcDbEntity
  8
ewns_dzialki
  6
Continuous
370
    18
100
AcDbLine
 10
7570798.15
 20
5715178.759999999
 30
0.0
 11
7570802.259999999
 21
5715364.57
 31
0.0
  0
LINE
  5
10000A8
330
15
100
AcDbEntity
  8
ewns_dzialki
  6
Continuous
370
    18
100
AcDbLine
 10
7570802.259999999
 20
5715364.57
 30
0.0
 11
7570805.88
 21
5715507.78
 31
0.0
  0
LINE
  5
10000A9
330
15
100
AcDbEntity
  8
ewns_dzialki
  6
Continuous
370
    18
100
AcDbLine
 10
7570805.88
 20
5715507.78
 30
0.0
 11
7570814.49
 21
5715504.04
 31
0.0
  0
LINE
  5
10000AA
330
15
100
AcDbEntity
  8
ewns_dzialki
  6
Continuous
370
    18
100
AcDbLine
 10
7570814.49
 20
5715504.04
 30
0.0
 11
7570802.630000001
 21
5715056.929999999
 31
0.0
  0
LINE
  5
10000AB
330
15
100
AcDbEntity
  8
ewns_dzialki
  6
Continuous
370
    18
100
AcDbLine
 10
7570802.630000001
 20
5715056.929999999
 30
0.0
 11
7570795.610000001
 21
5715064.039999999
 31
0.0
  0
LINE
  5
10000AC
330
15
100
AcDbEntity
  8
ewns_dzialki
  6
Continuous
370
    18
100
AcDbLine
 10
7570795.610000001
 20
5715064.039999999
 30
0.0
 11
7570798.15
 21
5715178.759999999
 31
0.0
  0
LINE
  5
10000AD
330
15
100
AcDbEntity
  8
ewns_dzialki
  6
Continuous
370
    18
100
AcDbLine
 10
7570802.630000001
 20
5715056.929999999
 30
0.0
 11
7570814.49
 21
5715504.04
 31
0.0
  0
LINE
  5
10000AE
330
15
100
AcDbEntity
  8
ewns_dzialki
  6
Continuous
370
    18
100
AcDbLine
 10
7570814.49
 20
5715504.04
 30
0.0
 11
7570826.219999998
 21
5715498.940000001
 31
0.0
  0
LINE
  5
10000AF
330
15
100
AcDbEntity
  8
ewns_dzialki
  6
Continuous
370
    18
100
AcDbLine
 10
7570826.219999998
 20
5715498.940000001
 30
0.0
 11
7570814.2
 21
5715045.21
 31
0.0
  0
LINE
  5
10000B0
330
15
100
AcDbEntity
  8
ewns_dzialki
  6
Continuous
370
    18
100
AcDbLine
 10
7570814.2
 20
5715045.21
 30
0.0
 11
7570802.630000001
 21
5715056.929999999
 31
0.0
  0
LINE
  5
10000B1
330
15
100
AcDbEntity
  8
ewns_dzialki
  6
Continuous
370
    18
100
AcDbLine
 10
7570814.2
 20
5715045.21
 30
0.0
 11
7570826.219999998
 21
5715498.940000001
 31
0.0
  0
LINE
  5
10000B2
330
15
100
AcDbEntity
  8
ewns_dzialki
  6
Continuous
370
    18
100
AcDbLine
 10
7570826.219999998
 20
5715498.940000001
 30
0.0
 11
7570831.240000001
 21
5715496.769999999
 31
0.0
  0
LINE
  5
10000B3
330
15
100
AcDbEntity
  8
ewns_dzialki
  6
Continuous
370
    18
100
AcDbLine
 10
7570831.240000001
 20
5715496.769999999
 30
0.0
 11
7570840.46
 21
5715492.269999999
 31
0.0
  0
LINE
  5
10000B4
330
15
100
AcDbEntity
  8
ewns_dzialki
  6
Continuous
370
    18
100
AcDbLine
 10
7570840.46
 20
5715492.269999999
 30
0.0
 11
7570854.599999998
 21
5715484.62
 31
0.0
  0
LINE
  5
10000B5
330
15
100
AcDbEntity
  8
ewns_dzialki
  6
Continuous
370
    18
100
AcDbLine
 10
7570854.599999998
 20
5715484.62
 30
0.0
 11
7570860.070000001
 21
5715480.999999999
 31
0.0
  0
LINE
  5
10000B6
330
15
100
AcDbEntity
  8
ewns_dzialki
  6
Continuous
370
    18
100
AcDbLine
 10
7570860.070000001
 20
5715480.999999999
 30
0.0
 11
7570853.59
 21
5715236.74
 31
0.0
  0
LINE
  5
10000B7
330
15
100
AcDbEntity
  8
ewns_dzialki
  6
Continuous
370
    18
100
AcDbLine
 10
7570853.59
 20
5715236.74
 30
0.0
 11
7570847.809999999
 21
5715018.93
 31
0.0
  0
LINE
  5
10000B8
330
15
100
AcDbEntity
  8
ewns_dzialki
  6
Continuous
370
    18
100
AcDbLine
 10
7570847.809999999
 20
5715018.93
 30
0.0
 11
7570826.91
 21
5715032.33
 31
0.0
  0
LINE
  5
10000B9
330
15
100
AcDbEntity
  8
ewns_dzialki
  6
Continuous
370
    18
100
AcDbLine
 10
7570826.91
 20
5715032.33
 30
0.0
 11
7570814.2
 21
5715045.21
 31
0.0
  0
LINE
  5
10000BA
330
15
100
AcDbEntity
  8
ewns_dzialki
  6
Continuous
370
    18
100
AcDbLine
 10
7570853.59
 20
5715236.74
 30
0.0
 11
7570860.070000001
 21
5715480.999999999
 31
0.0
  0
LINE
  5
10000BB
330
15
100
AcDbEntity
  8
ewns_dzialki
  6
Continuous
370
    18
100
AcDbLine
 10
7570860.070000001
 20
5715480.999999999
 30
0.0
 11
7570878.389999998
 21
5715468.86
 31
0.0
  0
LINE
  5
10000BC
330
15
100
AcDbEntity
  8
ewns_dzialki
  6
Continuous
370
    18
100
AcDbLine
 10
7570878.389999998
 20
5715468.86
 30
0.0
 11
7570884.419999999
 21
5715464.59
 31
0.0
  0
LINE
  5
10000BD
330
15
100
AcDbEntity
  8
ewns_dzialki
  6
Continuous
370
    18
100
AcDbLine
 10
7570884.419999999
 20
5715464.59
 30
0.0
 11
7570878.36
 21
5715236.080000001
 31
0.0
  0
LINE
  5
10000BE
330
15
100
AcDbEntity
  8
ewns_dzialki
  6
Continuous
370
    18
100
AcDbLine
 10
7570878.36
 20
5715236.080000001
 30
0.0
 11
7570853.59
 21
5715236.74
 31
0.0
  0
LINE
  5
10000BF
330
15
100
AcDbEntity
  8
ewns_dzialki
  6
Continuous
370
    18
100
AcDbLine
 10
7570878.36
 20
5715236.080000001
 30
0.0
 11
7570884.419999999
 21
5715464.59
 31
0.0
  0
LINE
  5
10000C0
330
15
100
AcDbEntity
  8
ewns_dzialki
  6
Continuous
370
    18
100
AcDbLine
 10
7570884.419999999
 20
5715464.59
 30
0.0
 11
7570900.36
 21
5715453.3
 31
0.0
  0
LINE
  5
10000C1
330
15
100
AcDbEntity
  8
ewns_dzialki
  6
Continuous
370
    18
100
AcDbLine
 10
7570900.36
 20
5715453.3
 30
0.0
 11
7570888.16
 21
5714993.059999999
 31
0.0
  0
LINE
  5
10000C2
330
15
100
AcDbEntity
  8
ewns_dzialki
  6
Continuous
370
    18
100
AcDbLine
 10
7570888.16
 20
5714993.059999999
 30
0.0
 11
7570872.190000001
 21
5715003.299999999
 31
0.0
  0
LINE
  5
10000C3
330
15
100
AcDbEntity
  8
ewns_dzialki
  6
Continuous
370
    18
100
AcDbLine
 10
7570872.190000001
 20
5715003.299999999
 30
0.0
 11
7570878.36
 21
5715236.080000001
 31
0.0
  0
LINE
  5
10000C4
330
15
100
AcDbEntity
  8
ewns_dzialki
  6
Continuous
370
    18
100
AcDbLine
 10
7570888.16
 20
5714993.059999999
 30
0.0
 11
7570900.36
 21
5715453.3
 31
0.0
  0
LINE
  5
10000C5
330
15
100
AcDbEntity
  8
ewns_dzialki
  6
Continuous
370
    18
100
AcDbLine
 10
7570900.36
 20
5715453.3
 30
0.0
 11
7570910.089999999
 21
5715446.389999999
 31
0.0
  0
LINE
  5
10000C6
330
15
100
AcDbEntity
  8
ewns_dzialki
  6
Continuous
370
    18
100
AcDbLine
 10
7570910.089999999
 20
5715446.389999999
 30
0.0
 11
7570912.980000001
 21
5715443.66
 31
0.0
  0
LINE
  5
10000C7
330
15
100
AcDbEntity
  8
ewns_dzialki
  6
Continuous
370
    18
100
AcDbLine
 10
7570912.980000001
 20
5715443.66
 30
0.0
 11
7570900.82
 21
5714984.94
 31
0.0
  0
LINE
  5
10000C8
330
15
100
AcDbEntity
  8
ewns_dzialki
  6
Continuous
370
    18
100
AcDbLine
 10
7570900.82
 20
5714984.94
 30
0.0
 11
7570888.16
 21
5714993.059999999
 31
0.0
  0
LINE
  5
10000C9
330
15
100
AcDbEntity
  8
ewns_dzialki
  6
Continuous
370
    18
100
AcDbLine
 10
7570900.82
 20
5714984.94
 30
0.0
 11
7570912.980000001
 21
5715443.66
 31
0.0
  0
LINE
  5
10000CA
330
15
100
AcDbEntity
  8
ewns_dzialki
  6
Continuous
370
    18
100
AcDbLine
 10
7570912.980000001
 20
5715443.66
 30
0.0
 11
7570929.28
 21
5715428.219999999
 31
0.0
  0
LINE
  5
10000CB
330
15
100
AcDbEntity
  8
ewns_dzialki
  6
Continuous
370
    18
100
AcDbLine
 10
7570929.28
 20
5715428.219999999
 30
0.0
 11
7570917.24
 21
5714974.4
 31
0.0
  0
LINE
  5
10000CC
330
15
100
AcDbEntity
  8
ewns_dzialki
  6
Continuous
370
    18
100
AcDbLine
 10
7570917.24
 20
5714974.4
 30
0.0
 11
7570900.82
 21
5714984.94
 31
0.0
  0
LINE
  5
10000CD
330
15
100
AcDbEntity
  8
ewns_dzialki
  6
Continuous
370
    18
100
AcDbLine
 10
7571224.58
 20
5715107.67
 30
0.0
 11
7571218.65
 21
5715075.82
 31
0.0
  0
LINE
  5
10000CE
330
15
100
AcDbEntity
  8
ewns_dzialki
  6
Continuous
370
    18
100
AcDbLine
 10
7571218.65
 20
5715075.82
 30
0.0
 11
7571212.53
 21
5715039.230000001
 31
0.0
  0
LINE
  5
10000CF
330
15
100
AcDbEntity
  8
ewns_dzialki
  6
Continuous
370
    18
100
AcDbLine
 10
7571212.53
 20
5715039.230000001
 30
0.0
 11
7571208.9
 21
5715041.73
 31
0.0
  0
LINE
  5
10000D0
330
15
100
AcDbEntity
  8
ewns_dzialki
  6
Continuous
370
    18
100
AcDbLine
 10
7571208.9
 20
5715041.73
 30
0.0
 11
7571214.71
 21
5715076.51
 31
0.0
  0
LINE
  5
10000D1
330
15
100
AcDbEntity
  8
ewns_dzialki
  6
Continuous
370
    18
100
AcDbLine
 10
7571214.71
 20
5715076.51
 30
0.0
 11
7571215.460000001
 21
5715080.57
 31
0.0
  0
LINE
  5
10000D2
330
15
100
AcDbEntity
  8
ewns_dzialki
  6
Continuous
370
    18
100
AcDbLine
 10
7571215.460000001
 20
5715080.57
 30
0.0
 11
7571220.179999999
 21
5715105.92
 31
0.0
  0
LINE
  5
10000D3
330
15
100
AcDbEntity
  8
ewns_dzialki
  6
Continuous
370
    18
100
AcDbLine
 10
7571220.179999999
 20
5715105.92
 30
0.0
 11
7571212.49
 21
5715111.54
 31
0.0
  0
LINE
  5
10000D4
330
15
100
AcDbEntity
  8
ewns_dzialki
  6
Continuous
370
    18
100
AcDbLine
 10
7571212.49
 20
5715111.54
 30
0.0
 11
7571192.019999998
 21
5715132.35
 31
0.0
  0
LINE
  5
10000D5
330
15
100
AcDbEntity
  8
ewns_dzialki
  6
Continuous
370
    18
100
AcDbLine
 10
7571192.019999998
 20
5715132.35
 30
0.0
 11
7571170.280000001
 21
5715161.99
 31
0.0
  0
LINE
  5
10000D6
330
15
100
AcDbEntity
  8
ewns_dzialki
  6
Continuous
370
    18
100
AcDbLine
 10
7571170.280000001
 20
5715161.99
 30
0.0
 11
7571166.5
 21
5715167.14
 31
0.0
  0
LINE
  5
10000D7
330
15
100
AcDbEntity
  8
ewns_dzialki
  6
Continuous
370
    18
100
AcDbLine
 10
7571166.5
 20
5715167.14
 30
0.0
 11
7571141.83
 21
5715209.440000001
 31
0.0
  0
LINE
  5
10000D8
330
15
100
AcDbEntity
  8
ewns_dzialki
  6
Continuous
370
    18
100
AcDbLine
 10
7571141.83
 20
5715209.440000001
 30
0.0
 11
7571135.619999999
 21
5715215.699999999
 31
0.0
  0
LINE
  5
10000D9
330
15
100
AcDbEntity
  8
ewns_dzialki
  6
Continuous
370
    18
100
AcDbLine
 10
7571135.619999999
 20
5715215.699999999
 30
0.0
 11
7571117.469999999
 21
5715233.98
 31
0.0
  0
LINE
  5
10000DA
330
15
100
AcDbEntity
  8
ewns_dzialki
  6
Continuous
370
    18
100
AcDbLine
 10
7571117.469999999
 20
5715233.98
 30
0.0
 11
7571114.349999999
 21
5715239.06
 31
0.0
  0
LINE
  5
10000DB
330
15
100
AcDbEntity
  8
ewns_dzialki
  6
Continuous
370
    18
100
AcDbLine
 10
7571114.349999999
 20
5715239.06
 30
0.0
 11
7571108.71
 21
5715248.250000001
 31
0.0
  0
LINE
  5
10000DC
330
15
100
AcDbEntity
  8
ewns_dzialki
  6
Continuous
370
    18
100
AcDbLine
 10
7571108.71
 20
5715248.250000001
 30
0.0
 11
7571103.269999999
 21
5715261.650000001
 31
0.0
  0
LINE
  5
10000DD
330
15
100
AcDbEntity
  8
ewns_dzialki
  6
Continuous
370
    18
100
AcDbLine
 10
7571103.269999999
 20
5715261.650000001
 30
0.0
 11
7571099.58
 21
5715274.18
 31
0.0
  0
LINE
  5
10000DE
330
15
100
AcDbEntity
  8
ewns_dzialki
  6
Continuous
370
    18
100
AcDbLine
 10
7571099.58
 20
5715274.18
 30
0.0
 11
7571098.78
 21
5715283.11
 31
0.0
  0
LINE
  5
10000DF
330
15
100
AcDbEntity
  8
ewns_dzialki
  6
Continuous
370
    18
100
AcDbLine
 10
7571098.78
 20
5715283.11
 30
0.0
 11
7571099.91
 21
5715301.12
 31
0.0
  0
LINE
  5
10000E0
330
15
100
AcDbEntity
  8
ewns_dzialki
  6
Continuous
370
    18
100
AcDbLine
 10
7571099.91
 20
5715301.12
 30
0.0
 11
7571103.099999999
 21
5715315.719999999
 31
0.0
  0
LINE
  5
10000E1
330
15
100
AcDbEntity
  8
ewns_dzialki
  6
Continuous
370
    18
100
AcDbLine
 10
7571103.099999999
 20
5715315.719999999
 30
0.0
 11
7571110.389999999
 21
5715330.240000001
 31
0.0
  0
LINE
  5
10000E2
330
15
100
AcDbEntity
  8
ewns_dzialki
  6
Continuous
370
    18
100
AcDbLine
 10
7571110.389999999
 20
5715330.240000001
 30
0.0
 11
7571114.91
 21
5715362.419999999
 31
0.0
  0
LINE
  5
10000E3
330
15
100
AcDbEntity
  8
ewns_dzialki
  6
Continuous
370
    18
100
AcDbLine
 10
7571114.91
 20
5715362.419999999
 30
0.0
 11
7571107.2
 21
5715386.2
 31
0.0
  0
LINE
  5
10000E4
330
15
100
AcDbEntity
  8
ewns_dzialki
  6
Continuous
370
    18
100
AcDbLine
 10
7571107.2
 20
5715386.2
 30
0.0
 11
7571100.64
 21
5715413.73
 31
0.0
  0
LINE
  5
10000E5
330
15
100
AcDbEntity
  8
ewns_dzialki
  6
Continuous
370
    18
100
AcDbLine
 10
7571100.64
 20
5715413.73
 30
0.0
 11
7571097.940000001
 21
5715418.969999999
 31
0.0
  0
LINE
  5
10000E6
330
15
100
AcDbEntity
  8
ewns_dzialki
  6
Continuous
370
    18
100
AcDbLine
 10
7571097.940000001
 20
5715418.969999999
 30
0.0
 11
7571086.87
 21
5715440.42
 31
0.0
  0
LINE
  5
10000E7
330
15
100
AcDbEntity
  8
ewns_dzialki
  6
Continuous
370
    18
100
AcDbLine
 10
7571086.87
 20
5715440.42
 30
0.0
 11
7571075.15
 21
5715449.400000001
 31
0.0
  0
LINE
  5
10000E8
330
15
100
AcDbEntity
  8
ewns_dzialki
  6
Continuous
370
    18
100
AcDbLine
 10
7571075.15
 20
5715449.400000001
 30
0.0
 11
7571071.289999999
 21
5715452.36
 31
0.0
  0
LINE
  5
10000E9
330
15
100
AcDbEntity
  8
ewns_dzialki
  6
Continuous
370
    18
100
AcDbLine
 10
7571071.289999999
 20
5715452.36
 30
0.0
 11
7571067.0
 21
5715454.3
 31
0.0
  0
LINE
  5
10000EA
330
15
100
AcDbEntity
  8
ewns_dzialki
  6
Continuous
370
    18
100
AcDbLine
 10
7571067.0
 20
5715454.3
 30
0.0
 11
7571046.469999998
 21
5715463.599999999
 31
0.0
  0
LINE
  5
10000EB
330
15
100
AcDbEntity
  8
ewns_dzialki
  6
Continuous
370
    18
100
AcDbLine
 10
7571046.469999998
 20
5715463.599999999
 30
0.0
 11
7571035.36
 21
5715468.62
 31
0.0
  0
LINE
  5
10000EC
330
15
100
AcDbEntity
  8
ewns_dzialki
  6
Continuous
370
    18
100
AcDbLine
 10
7571035.36
 20
5715468.62
 30
0.0
 11
7570979.559999999
 21
5715493.85
 31
0.0
  0
LINE
  5
10000ED
330
15
100
AcDbEntity
  8
ewns_dzialki
  6
Continuous
370
    18
100
AcDbLine
 10
7570979.559999999
 20
5715493.85
 30
0.0
 11
7570973.67
 21
5715496.52
 31
0.0
  0
LINE
  5
10000EE
330
15
100
AcDbEntity
  8
ewns_dzialki
  6
Continuous
370
    18
100
AcDbLine
 10
7570973.67
 20
5715496.52
 30
0.0
 11
7570954.330000001
 21
5715502.09
 31
0.0
  0
LINE
  5
10000EF
330
15
100
AcDbEntity
  8
ewns_dzialki
  6
Continuous
370
    18
100
AcDbLine
 10
7570954.330000001
 20
5715502.09
 30
0.0
 11
7570950.0
 21
5715503.03
 31
0.0
  0
LINE
  5
10000F0
330
15
100
AcDbEntity
  8
ewns_dzialki
  6
Continuous
370
    18
100
AcDbLine
 10
7570950.0
 20
5715503.03
 30
0.0
 11
7570931.769999998
 21
5715506.99
 31
0.0
  0
LINE
  5
10000F1
330
15
100
AcDbEntity
  8
ewns_dzialki
  6
Continuous
370
    18
100
AcDbLine
 10
7570931.769999998
 20
5715506.99
 30
0.0
 11
7570886.32
 21
5715516.87
 31
0.0
  0
LINE
  5
10000F2
330
15
100
AcDbEntity
  8
ewns_dzialki
  6
Continuous
370
    18
100
AcDbLine
 10
7570886.32
 20
5715516.87
 30
0.0
 11
7570823.759999999
 21
5715530.47
 31
0.0
  0
LINE
  5
10000F3
330
15
100
AcDbEntity
  8
ewns_dzialki
  6
Continuous
370
    18
100
AcDbLine
 10
7570823.759999999
 20
5715530.47
 30
0.0
 11
7570812.45
 21
5715525.04
 31
0.0
  0
LINE
  5
10000F4
330
15
100
AcDbEntity
  8
ewns_dzialki
  6
Continuous
370
    18
100
AcDbLine
 10
7570812.45
 20
5715525.04
 30
0.0
 11
7570796.259999999
 21
5715532.05
 31
0.0
  0
LINE
  5
10000F5
330
15
100
AcDbEntity
  8
ewns_dzialki
  6
Continuous
370
    18
100
AcDbLine
 10
7570796.259999999
 20
5715532.05
 30
0.0
 11
7570776.07
 21
5715540.83
 31
0.0
  0
LINE
  5
10000F6
330
15
100
AcDbEntity
  8
ewns_dzialki
  6
Continuous
370
    18
100
AcDbLine
 10
7570776.07
 20
5715540.83
 30
0.0
 11
7570734.919999999
 21
5715556.959999999
 31
0.0
  0
LINE
  5
10000F7
330
15
100
AcDbEntity
  8
ewns_dzialki
  6
Continuous
370
    18
100
AcDbLine
 10
7570734.919999999
 20
5715556.959999999
 30
0.0
 11
7570735.66
 21
5715560.759999999
 31
0.0
  0
LINE
  5
10000F8
330
15
100
AcDbEntity
  8
ewns_dzialki
  6
Continuous
370
    18
100
AcDbLine
 10
7570735.66
 20
5715560.759999999
 30
0.0
 11
7570754.88
 21
5715552.95
 31
0.0
  0
LINE
  5
10000F9
330
15
100
AcDbEntity
  8
ewns_dzialki
  6
Continuous
370
    18
100
AcDbLine
 10
7570754.88
 20
5715552.95
 30
0.0
 11
7570778.79
 21
5715543.23
 31
0.0
  0
LINE
  5
10000FA
330
15
100
AcDbEntity
  8
ewns_dzialki
  6
Continuous
370
    18
100
AcDbLine
 10
7570778.79
 20
5715543.23
 30
0.0
 11
7570783.82
 21
5715541.19
 31
0.0
  0
LINE
  5
10000FB
330
15
100
AcDbEntity
  8
ewns_dzialki
  6
Continuous
370
    18
100
AcDbLine
 10
7570783.82
 20
5715541.19
 30
0.0
 11
7570793.309999999
 21
5715537.799999999
 31
0.0
  0
LINE
  5
10000FC
330
15
100
AcDbEntity
  8
ewns_dzialki
  6
Continuous
370
    18
100
AcDbLine
 10
7570793.309999999
 20
5715537.799999999
 30
0.0
 11
7570798.500000001
 21
5715535.530000001
 31
0.0
  0
LINE
  5
10000FD
330
15
100
AcDbEntity
  8
ewns_dzialki
  6
Continuous
370
    18
100
AcDbLine
 10
7570798.500000001
 20
5715535.530000001
 30
0.0
 11
7570812.360000001
 21
5715529.43
 31
0.0
  0
LINE
  5
10000FE
330
15
100
AcDbEntity
  8
ewns_dzialki
  6
Continuous
370
    18
100
AcDbLine
 10
7570812.360000001
 20
5715529.43
 30
0.0
 11
7570823.269999998
 21
5715534.670000001
 31
0.0
  0
LINE
  5
10000FF
330
15
100
AcDbEntity
  8
ewns_dzialki
  6
Continuous
370
    18
100
AcDbLine
 10
7570823.269999998
 20
5715534.670000001
 30
0.0
 11
7570863.059999999
 21
5715526.019999999
 31
0.0
  0
LINE
  5
1000100
330
15
100
AcDbEntity
  8
ewns_dzialki
  6
Continuous
370
    18
100
AcDbLine
 10
7570863.059999999
 20
5715526.019999999
 30
0.0
 11
7570901.480000001
 21
5715517.68
 31
0.0
  0
LINE
  5
1000101
330
15
100
AcDbEntity
  8
ewns_dzialki
  6
Continuous
370
    18
100
AcDbLine
 10
7570901.480000001
 20
5715517.68
 30
0.0
 11
7570937.419999999
 21
5715509.86
 31
0.0
  0
LINE
  5
1000102
330
15
100
AcDbEntity
  8
ewns_dzialki
  6
Continuous
370
    18
100
AcDbLine
 10
7570937.419999999
 20
5715509.86
 30
0.0
 11
7570947.24
 21
5715507.72
 31
0.0
  0
LINE
  5
1000103
330
15
100
AcDbEntity
  8
ewns_dzialki
  6
Continuous
370
    18
100
AcDbLine
 10
7570947.24
 20
5715507.72
 30
0.0
 11
7570955.309999999
 21
5715505.97
 31
0.0
  0
LINE
  5
1000104
330
15
100
AcDbEntity
  8
ewns_dzialki
  6
Continuous
370
    18
100
AcDbLine
 10
7570955.309999999
 20
5715505.97
 30
0.0
 11
7570975.059999999
 21
5715500.279999999
 31
0.0
  0
LINE
  5
1000105
330
15
100
AcDbEntity
  8
ewns_dzialki
  6
Continuous
370
    18
100
AcDbLine
 10
7570975.059999999
 20
5715500.279999999
 30
0.0
 11
7571071.45
 21
5715456.69
 31
0.0
  0
LINE
  5
1000106
330
15
100
AcDbEntity
  8
ewns_dzialki
  6
Continuous
370
    18
100
AcDbLine
 10
7571071.45
 20
5715456.69
 30
0.0
 11
7571073.45
 21
5715455.78
 31
0.0
  0
LINE
  5
1000107
330
15
100
AcDbEntity
  8
ewns_dzialki
  6
Continuous
370
    18
100
AcDbLine
 10
7571073.45
 20
5715455.78
 30
0.0
 11
7571090.04
 21
5715442.97
 31
0.0
  0
LINE
  5
1000108
330
15
100
AcDbEntity
  8
ewns_dzialki
  6
Continuous
370
    18
100
AcDbLine
 10
7571090.04
 20
5715442.97
 30
0.0
 11
7571101.16
 21
5715421.43
 31
0.0
  0
LINE
  5
1000109
330
15
100
AcDbEntity
  8
ewns_dzialki
  6
Continuous
370
    18
100
AcDbLine
 10
7571101.16
 20
5715421.43
 30
0.0
 11
7571104.42
 21
5715415.13
 31
0.0
  0
LINE
  5
100010A
330
15
100
AcDbEntity
  8
ewns_dzialki
  6
Continuous
370
    18
100
AcDbLine
 10
7571104.42
 20
5715415.13
 30
0.0
 11
7571111.05
 21
5715387.28
 31
0.0
  0
LINE
  5
100010B
330
15
100
AcDbEntity
  8
ewns_dzialki
  6
Continuous
370
    18
100
AcDbLine
 10
7571111.05
 20
5715387.28
 30
0.0
 11
7571119.07
 21
5715362.72
 31
0.0
  0
LINE
  5
100010C
330
15
100
AcDbEntity
  8
ewns_dzialki
  6
Continuous
370
    18
100
AcDbLine
 10
7571119.07
 20
5715362.72
 30
0.0
 11
7571114.37
 21
5715329.259999999
 31
0.0
  0
LINE
  5
100010D
330
15
100
AcDbEntity
  8
ewns_dzialki
  6
Continuous
370
    18
100
AcDbLine
 10
7571114.37
 20
5715329.259999999
 30
0.0
 11
7571106.900000001
 21
5715314.369999999
 31
0.0
  0
LINE
  5
100010E
330
15
100
AcDbEntity
  8
ewns_dzialki
  6
Continuous
370
    18
100
AcDbLine
 10
7571106.900000001
 20
5715314.369999999
 30
0.0
 11
7571103.88
 21
5715300.559999999
 31
0.0
  0
LINE
  5
100010F
330
15
100
AcDbEntity
  8
ewns_dzialki
  6
Continuous
370
    18
100
AcDbLine
 10
7571103.88
 20
5715300.559999999
 30
0.0
 11
7571102.79
 21
5715283.16
 31
0.0
  0
LINE
  5
1000110
330
15
100
AcDbEntity
  8
ewns_dzialki
  6
Continuous
370
    18
100
AcDbLine
 10
7571102.79
 20
5715283.16
 30
0.0
 11
7571103.53
 21
5715274.92
 31
0.0
  0
LINE
  5
1000111
330
15
100
AcDbEntity
  8
ewns_dzialki
  6
Continuous
370
    18
100
AcDbLine
 10
7571103.53
 20
5715274.92
 30
0.0
 11
7571107.050000001
 21
5715262.980000001
 31
0.0
  0
LINE
  5
1000112
330
15
100
AcDbEntity
  8
ewns_dzialki
  6
Continuous
370
    18
100
AcDbLine
 10
7571107.050000001
 20
5715262.980000001
 30
0.0
 11
7571112.280000001
 21
5715250.049999999
 31
0.0
  0
LINE
  5
1000113
330
15
100
AcDbEntity
  8
ewns_dzialki
  6
Continuous
370
    18
100
AcDbLine
 10
7571112.280000001
 20
5715250.049999999
 30
0.0
 11
7571120.639999999
 21
5715236.459999999
 31
0.0
  0
LINE
  5
1000114
330
15
100
AcDbEntity
  8
ewns_dzialki
  6
Continuous
370
    18
100
AcDbLine
 10
7571120.639999999
 20
5715236.459999999
 30
0.0
 11
7571144.83
 21
5715212.1
 31
0.0
  0
LINE
  5
1000115
330
15
100
AcDbEntity
  8
ewns_dzialki
  6
Continuous
370
    18
100
AcDbLine
 10
7571144.83
 20
5715212.1
 30
0.0
 11
7571159.68
 21
5715186.72
 31
0.0
  0
LINE
  5
1000116
330
15
100
AcDbEntity
  8
ewns_dzialki
  6
Continuous
370
    18
100
AcDbLine
 10
7571159.68
 20
5715186.72
 30
0.0
 11
7571162.08
 21
5715182.62
 31
0.0
  0
LINE
  5
1000117
330
15
100
AcDbEntity
  8
ewns_dzialki
  6
Continuous
370
    18
100
AcDbLine
 10
7571162.08
 20
5715182.62
 30
0.0
 11
7571166.05
 21
5715175.83
 31
0.0
  0
LINE
  5
1000118
330
15
100
AcDbEntity
  8
ewns_dzialki
  6
Continuous
370
    18
100
AcDbLine
 10
7571166.05
 20
5715175.83
 30
0.0
 11
7571168.809999999
 21
5715171.119999999
 31
0.0
  0
LINE
  5
1000119
330
15
100
AcDbEntity
  8
ewns_dzialki
  6
Continuous
370
    18
100
AcDbLine
 10
7571168.809999999
 20
5715171.119999999
 30
0.0
 11
7571169.849999998
 21
5715169.33
 31
0.0
  0
LINE
  5
100011A
330
15
100
AcDbEntity
  8
ewns_dzialki
  6
Continuous
370
    18
100
AcDbLine
 10
7571169.849999998
 20
5715169.33
 30
0.0
 11
7571170.460000001
 21
5715168.499999999
 31
0.0
  0
LINE
  5
100011B
330
15
100
AcDbEntity
  8
ewns_dzialki
  6
Continuous
370
    18
100
AcDbLine
 10
7571170.460000001
 20
5715168.499999999
 30
0.0
 11
7571195.070000001
 21
5715134.95
 31
0.0
  0
LINE
  5
100011C
330
15
100
AcDbEntity
  8
ewns_dzialki
  6
Continuous
370
    18
100
AcDbLine
 10
7571195.070000001
 20
5715134.95
 30
0.0
 11
7571208.49
 21
5715121.309999999
 31
0.0
  0
LINE
  5
100011D
330
15
100
AcDbEntity
  8
ewns_dzialki
  6
Continuous
370
    18
100
AcDbLine
 10
7571208.49
 20
5715121.309999999
 30
0.0
 11
7571215.12
 21
5715114.58
 31
0.0
  0
LINE
  5
100011E
330
15
100
AcDbEntity
  8
ewns_dzialki
  6
Continuous
370
    18
100
AcDbLine
 10
7571215.12
 20
5715114.58
 30
0.0
 11
7571219.37
 21
5715111.47
 31
0.0
  0
LINE
  5
100011F
330
15
100
AcDbEntity
  8
ewns_dzialki
  6
Continuous
370
    18
100
AcDbLine
 10
7571219.37
 20
5715111.47
 30
0.0
 11
7571224.58
 21
5715107.67
 31
0.0
  0
LINE
  5
1000120
330
15
100
AcDbEntity
  8
ewns_dzialki
  6
Continuous
370
    18
100
AcDbLine
 10
7571211.12
 20
5715030.84
 30
0.0
 11
7571208.939999999
 21
5715017.809999999
 31
0.0
  0
LINE
  5
1000121
330
15
100
AcDbEntity
  8
ewns_dzialki
  6
Continuous
370
    18
100
AcDbLine
 10
7571208.939999999
 20
5715017.809999999
 30
0.0
 11
7571203.519999999
 21
5715021.5
 31
0.0
  0
LINE
  5
1000122
330
15
100
AcDbEntity
  8
ewns_dzialki
  6
Continuous
370
    18
100
AcDbLine
 10
7571203.519999999
 20
5715021.5
 30
0.0
 11
7571147.63
 21
5715059.570000001
 31
0.0
  0
LINE
  5
1000123
330
15
100
AcDbEntity
  8
ewns_dzialki
  6
Continuous
370
    18
100
AcDbLine
 10
7571147.63
 20
5715059.570000001
 30
0.0
 11
7571139.62
 21
5715066.29
 31
0.0
  0
LINE
  5
1000124
330
15
100
AcDbEntity
  8
ewns_dzialki
  6
Continuous
370
    18
100
AcDbLine
 10
7571139.62
 20
5715066.29
 30
0.0
 11
7571137.94
 21
5715067.7
 31
0.0
  0
LINE
  5
1000125
330
15
100
AcDbEntity
  8
ewns_dzialki
  6
Continuous
370
    18
100
AcDbLine
 10
7571137.94
 20
5715067.7
 30
0.0
 11
7571128.070000001
 21
5715077.67
 31
0.0
  0
LINE
  5
1000126
330
15
100
AcDbEntity
  8
ewns_dzialki
  6
Continuous
370
    18
100
AcDbLine
 10
7571128.070000001
 20
5715077.67
 30
0.0
 11
7571122.53
 21
5715083.25
 31
0.0
  0
LINE
  5
1000127
330
15
100
AcDbEntity
  8
ewns_dzialki
  6
Continuous
370
    18
100
AcDbLine
 10
7571122.53
 20
5715083.25
 30
0.0
 11
7571119.179999999
 21
5715087.11
 31
0.0
  0
LINE
  5
1000128
330
15
100
AcDbEntity
  8
ewns_dzialki
  6
Continuous
370
    18
100
AcDbLine
 10
7571119.179999999
 20
5715087.11
 30
0.0
 11
7571110.23
 21
5715097.429999999
 31
0.0
  0
LINE
  5
1000129
330
15
100
AcDbEntity
  8
ewns_dzialki
  6
Continuous
370
    18
100
AcDbLine
 10
7571110.23
 20
5715097.429999999
 30
0.0
 11
7571101.88
 21
5715107.06
 31
0.0
  0
LINE
  5
100012A
330
15
100
AcDbEntity
  8
ewns_dzialki
  6
Continuous
370
    18
100
AcDbLine
 10
7571101.88
 20
5715107.06
 30
0.0
 11
7571091.670000001
 21
5715121.01
 31
0.0
  0
LINE
  5
100012B
330
15
100
AcDbEntity
  8
ewns_dzialki
  6
Continuous
370
    18
100
AcDbLine
 10
7571091.670000001
 20
5715121.01
 30
0.0
 11
7571089.41
 21
5715125.309999999
 31
0.0
  0
LINE
  5
100012C
330
15
100
AcDbEntity
  8
ewns_dzialki
  6
Continuous
370
    18
100
AcDbLine
 10
7571089.41
 20
5715125.309999999
 30
0.0
 11
7571078.769999999
 21
5715145.61
 31
0.0
  0
LINE
  5
100012D
330
15
100
AcDbEntity
  8
ewns_dzialki
  6
Continuous
370
    18
100
AcDbLine
 10
7571078.769999999
 20
5715145.61
 30
0.0
 11
7571066.929999999
 21
5715173.349999999
 31
0.0
  0
LINE
  5
100012E
330
15
100
AcDbEntity
  8
ewns_dzialki
  6
Continuous
370
    18
100
AcDbLine
 10
7571066.929999999
 20
5715173.349999999
 30
0.0
 11
7571059.110000001
 21
5715191.67
 31
0.0
  0
LINE
  5
100012F
330
15
100
AcDbEntity
  8
ewns_dzialki
  6
Continuous
370
    18
100
AcDbLine
 10
7571059.110000001
 20
5715191.67
 30
0.0
 11
7571046.759999999
 21
5715220.61
 31
0.0
  0
LINE
  5
1000130
330
15
100
AcDbEntity
  8
ewns_dzialki
  6
Continuous
370
    18
100
AcDbLine
 10
7571046.759999999
 20
5715220.61
 30
0.0
 11
7571039.62
 21
5715237.519999999
 31
0.0
  0
LINE
  5
1000131
330
15
100
AcDbEntity
  8
ewns_dzialki
  6
Continuous
370
    18
100
AcDbLine
 10
7571039.62
 20
5715237.519999999
 30
0.0
 11
7571028.75
 21
5715263.26
 31
0.0
  0
LINE
  5
1000132
330
15
100
AcDbEntity
  8
ewns_dzialki
  6
Continuous
370
    18
100
AcDbLine
 10
7571028.75
 20
5715263.26
 30
0.0
 11
7571000.44
 21
5715330.309999999
 31
0.0
  0
LINE
  5
1000133
330
15
100
AcDbEntity
  8
ewns_dzialki
  6
Continuous
370
    18
100
AcDbLine
 10
7571000.44
 20
5715330.309999999
 30
0.0
 11
7570980.8
 21
5715366.79
 31
0.0
  0
LINE
  5
1000134
330
15
100
AcDbEntity
  8
ewns_dzialki
  6
Continuous
370
    18
100
AcDbLine
 10
7570980.8
 20
5715366.79
 30
0.0
 11
7570974.74
 21
5715376.31
 31
0.0
  0
LINE
  5
1000135
330
15
100
AcDbEntity
  8
ewns_dzialki
  6
Continuous
370
    18
100
AcDbLine
 10
7570974.74
 20
5715376.31
 30
0.0
 11
7570970.919999999
 21
5715382.299999999
 31
0.0
  0
LINE
  5
1000136
330
15
100
AcDbEntity
  8
ewns_dzialki
  6
Continuous
370
    18
100
AcDbLine
 10
7570970.919999999
 20
5715382.299999999
 30
0.0
 11
7570960.120000001
 21
5715396.36
 31
0.0
  0
LINE
  5
1000137
330
15
100
AcDbEntity
  8
ewns_dzialki
  6
Continuous
370
    18
100
AcDbLine
 10
7570960.120000001
 20
5715396.36
 30
0.0
 11
7570947.259999999
 21
5715410.76
 31
0.0
  0
LINE
  5
1000138
330
15
100
AcDbEntity
  8
ewns_dzialki
  6
Continuous
370
    18
100
AcDbLine
 10
7570947.259999999
 20
5715410.76
 30
0.0
 11
7570944.790000001
 21
5715413.530000001
 31
0.0
  0
LINE
  5
1000139
330
15
100
AcDbEntity
  8
ewns_dzialki
  6
Continuous
370
    18
100
AcDbLine
 10
7570944.790000001
 20
5715413.530000001
 30
0.0
 11
7570929.28
 21
5715428.219999999
 31
0.0
  0
LINE
  5
100013A
330
15
100
AcDbEntity
  8
ewns_dzialki
  6
Continuous
370
    18
100
AcDbLine
 10
7570929.28
 20
5715428.219999999
 30
0.0
 11
7570912.980000001
 21
5715443.66
 31
0.0
  0
LINE
  5
100013B
330
15
100
AcDbEntity
  8
ewns_dzialki
  6
Continuous
370
    18
100
AcDbLine
 10
7570912.980000001
 20
5715443.66
 30
0.0
 11
7570910.089999999
 21
5715446.389999999
 31
0.0
  0
LINE
  5
100013C
330
15
100
AcDbEntity
  8
ewns_dzialki
  6
Continuous
370
    18
100
AcDbLine
 10
7570910.089999999
 20
5715446.389999999
 30
0.0
 11
7570900.36
 21
5715453.3
 31
0.0
  0
LINE
  5
100013D
330
15
100
AcDbEntity
  8
ewns_dzialki
  6
Continuous
370
    18
100
AcDbLine
 10
7570900.36
 20
5715453.3
 30
0.0
 11
7570884.419999999
 21
5715464.59
 31
0.0
  0
LINE
  5
100013E
330
15
100
AcDbEntity
  8
ewns_dzialki
  6
Continuous
370
    18
100
AcDbLine
 10
7570884.419999999
 20
5715464.59
 30
0.0
 11
7570878.389999998
 21
5715468.86
 31
0.0
  0
LINE
  5
100013F
330
15
100
AcDbEntity
  8
ewns_dzialki
  6
Continuous
370
    18
100
AcDbLine
 10
7570878.389999998
 20
5715468.86
 30
0.0
 11
7570860.070000001
 21
5715480.999999999
 31
0.0
  0
LINE
  5
1000140
330
15
100
AcDbEntity
  8
ewns_dzialki
  6
Continuous
370
    18
100
AcDbLine
 10
7570860.070000001
 20
5715480.999999999
 30
0.0
 11
7570854.599999998
 21
5715484.62
 31
0.0
  0
LINE
  5
1000141
330
15
100
AcDbEntity
  8
ewns_dzialki
  6
Continuous
370
    18
100
AcDbLine
 10
7570854.599999998
 20
5715484.62
 30
0.0
 11
7570840.46
 21
5715492.269999999
 31
0.0
  0
LINE
  5
1000142
330
15
100
AcDbEntity
  8
ewns_dzialki
  6
Continuous
370
    18
100
AcDbLine
 10
7570840.46
 20
5715492.269999999
 30
0.0
 11
7570831.240000001
 21
5715496.769999999
 31
0.0
  0
LINE
  5
1000143
330
15
100
AcDbEntity
  8
ewns_dzialki
  6
Continuous
370
    18
100
AcDbLine
 10
7570831.240000001
 20
5715496.769999999
 30
0.0
 11
7570826.219999998
 21
5715498.940000001
 31
0.0
  0
LINE
  5
1000144
330
15
100
AcDbEntity
  8
ewns_dzialki
  6
Continuous
370
    18
100
AcDbLine
 10
7570826.219999998
 20
5715498.940000001
 30
0.0
 11
7570814.49
 21
5715504.04
 31
0.0
  0
LINE
  5
1000145
330
15
100
AcDbEntity
  8
ewns_dzialki
  6
Continuous
370
    18
100
AcDbLine
 10
7570814.49
 20
5715504.04
 30
0.0
 11
7570805.88
 21
5715507.78
 31
0.0
  0
LINE
  5
1000146
330
15
100
AcDbEntity
  8
ewns_dzialki
  6
Continuous
370
    18
100
AcDbLine
 10
7570805.88
 20
5715507.78
 30
0.0
 11
7570797.969999999
 21
5715511.219999999
 31
0.0
  0
LINE
  5
1000147
330
15
100
AcDbEntity
  8
ewns_dzialki
  6
Continuous
370
    18
100
AcDbLine
 10
7570797.969999999
 20
5715511.219999999
 30
0.0
 11
7570768.74
 21
5715525.83
 31
0.0
  0
LINE
  5
1000148
330
15
100
AcDbEntity
  8
ewns_dzialki
  6
Continuous
370
    18
100
AcDbLine
 10
7570768.74
 20
5715525.83
 30
0.0
 11
7570736.33
 21
5715542.05
 31
0.0
  0
LINE
  5
1000149
330
15
100
AcDbEntity
  8
ewns_dzialki
  6
Continuous
370
    18
100
AcDbLine
 10
7570736.33
 20
5715542.05
 30
0.0
 11
7570733.549999999
 21
5715543.44
 31
0.0
  0
LINE
  5
100014A
330
15
100
AcDbEntity
  8
ewns_dzialki
  6
Continuous
370
    18
100
AcDbLine
 10
7570733.549999999
 20
5715543.44
 30
0.0
 11
7570713.5
 21
5715554.62
 31
0.0
  0
LINE
  5
100014B
330
15
100
AcDbEntity
  8
ewns_dzialki
  6
Continuous
370
    18
100
AcDbLine
 10
7570713.5
 20
5715554.62
 30
0.0
 11
7570733.580000001
 21
5715550.07
 31
0.0
  0
LINE
  5
100014C
330
15
100
AcDbEntity
  8
ewns_dzialki
  6
Continuous
370
    18
100
AcDbLine
 10
7570733.580000001
 20
5715550.07
 30
0.0
 11
7570763.78
 21
5715538.4
 31
0.0
  0
LINE
  5
100014D
330
15
100
AcDbEntity
  8
ewns_dzialki
  6
Continuous
370
    18
100
AcDbLine
 10
7570763.78
 20
5715538.4
 30
0.0
 11
7570796.110000001
 21
5715525.11
 31
0.0
  0
LINE
  5
100014E
330
15
100
AcDbEntity
  8
ewns_dzialki
  6
Continuous
370
    18
100
AcDbLine
 10
7570796.110000001
 20
5715525.11
 30
0.0
 11
7570836.240000001
 21
5715507.67
 31
0.0
  0
LINE
  5
100014F
330
15
100
AcDbEntity
  8
ewns_dzialki
  6
Continuous
370
    18
100
AcDbLine
 10
7570836.240000001
 20
5715507.67
 30
0.0
 11
7570846.079999999
 21
5715502.91
 31
0.0
  0
LINE
  5
1000150
330
15
100
AcDbEntity
  8
ewns_dzialki
  6
Continuous
370
    18
100
AcDbLine
 10
7570846.079999999
 20
5715502.91
 30
0.0
 11
7570860.79
 21
5715494.900000001
 31
0.0
  0
LINE
  5
1000151
330
15
100
AcDbEntity
  8
ewns_dzialki
  6
Continuous
370
    18
100
AcDbLine
 10
7570860.79
 20
5715494.900000001
 30
0.0
 11
7570885.17
 21
5715478.759999999
 31
0.0
  0
LINE
  5
1000152
330
15
100
AcDbEntity
  8
ewns_dzialki
  6
Continuous
370
    18
100
AcDbLine
 10
7570885.17
 20
5715478.759999999
 30
0.0
 11
7570917.719999998
 21
5715455.690000001
 31
0.0
  0
LINE
  5
1000153
330
15
100
AcDbEntity
  8
ewns_dzialki
  6
Continuous
370
    18
100
AcDbLine
 10
7570917.719999998
 20
5715455.690000001
 30
0.0
 11
7570934.860000001
 21
5715439.469999999
 31
0.0
  0
LINE
  5
1000154
330
15
100
AcDbEntity
  8
ewns_dzialki
  6
Continuous
370
    18
100
AcDbLine
 10
7570934.860000001
 20
5715439.469999999
 30
0.0
 11
7570953.410000001
 21
5715421.900000001
 31
0.0
  0
LINE
  5
1000155
330
15
100
AcDbEntity
  8
ewns_dzialki
  6
Continuous
370
    18
100
AcDbLine
 10
7570953.410000001
 20
5715421.900000001
 30
0.0
 11
7570969.36
 21
5715404.02
 31
0.0
  0
LINE
  5
1000156
330
15
100
AcDbEntity
  8
ewns_dzialki
  6
Continuous
370
    18
100
AcDbLine
 10
7570969.36
 20
5715404.02
 30
0.0
 11
7570980.759999998
 21
5715389.19
 31
0.0
  0
LINE
  5
1000157
330
15
100
AcDbEntity
  8
ewns_dzialki
  6
Continuous
370
    18
100
AcDbLine
 10
7570980.759999998
 20
5715389.19
 30
0.0
 11
7570991.139999998
 21
5715372.89
 31
0.0
  0
LINE
  5
1000158
330
15
100
AcDbEntity
  8
ewns_dzialki
  6
Continuous
370
    18
100
AcDbLine
 10
7570991.139999998
 20
5715372.89
 30
0.0
 11
7571011.269999999
 21
5715335.5
 31
0.0
  0
LINE
  5
1000159
330
15
100
AcDbEntity
  8
ewns_dzialki
  6
Continuous
370
    18
100
AcDbLine
 10
7571011.269999999
 20
5715335.5
 30
0.0
 11
7571057.809999999
 21
5715225.299999999
 31
0.0
  0
LINE
  5
100015A
330
15
100
AcDbEntity
  8
ewns_dzialki
  6
Continuous
370
    18
100
AcDbLine
 10
7571057.809999999
 20
5715225.299999999
 30
0.0
 11
7571089.62
 21
5715150.74
 31
0.0
  0
LINE
  5
100015B
330
15
100
AcDbEntity
  8
ewns_dzialki
  6
Continuous
370
    18
100
AcDbLine
 10
7571089.62
 20
5715150.74
 30
0.0
 11
7571101.88
 21
5715127.37
 31
0.0
  0
LINE
  5
100015C
330
15
100
AcDbEntity
  8
ewns_dzialki
  6
Continuous
370
    18
100
AcDbLine
 10
7571101.88
 20
5715127.37
 30
0.0
 11
7571111.269999999
 21
5715114.55
 31
0.0
  0
LINE
  5
100015D
330
15
100
AcDbEntity
  8
ewns_dzialki
  6
Continuous
370
    18
100
AcDbLine
 10
7571111.269999999
 20
5715114.55
 30
0.0
 11
7571131.33
 21
5715091.41
 31
0.0
  0
LINE
  5
100015E
330
15
100
AcDbEntity
  8
ewns_dzialki
  6
Continuous
370
    18
100
AcDbLine
 10
7571131.33
 20
5715091.41
 30
0.0
 11
7571146.070000001
 21
5715076.54
 31
0.0
  0
LINE
  5
100015F
330
15
100
AcDbEntity
  8
ewns_dzialki
  6
Continuous
370
    18
100
AcDbLine
 10
7571146.070000001
 20
5715076.54
 30
0.0
 11
7571154.88
 21
5715069.15
 31
0.0
  0
LINE
  5
1000160
330
15
100
AcDbEntity
  8
ewns_dzialki
  6
Continuous
370
    18
100
AcDbLine
 10
7571154.88
 20
5715069.15
 30
0.0
 11
7571211.12
 21
5715030.84
 31
0.0
  0
LINE
  5
1000161
330
15
100
AcDbEntity
  8
ewns_dzialki
  6
Continuous
370
    18
100
AcDbLine
 10
7570800.04
 20
5715666.71
 30
0.0
 11
7570798.500000001
 21
5715535.530000001
 31
0.0
  0
LINE
  5
1000162
330
15
100
AcDbEntity
  8
ewns_dzialki
  6
Continuous
370
    18
100
AcDbLine
 10
7570798.500000001
 20
5715535.530000001
 30
0.0
 11
7570793.309999999
 21
5715537.799999999
 31
0.0
  0
LINE
  5
1000163
330
15
100
AcDbEntity
  8
ewns_dzialki
  6
Continuous
370
    18
100
AcDbLine
 10
7570793.309999999
 20
5715537.799999999
 30
0.0
 11
7570783.82
 21
5715541.19
 31
0.0
  0
LINE
  5
1000164
330
15
100
AcDbEntity
  8
ewns_dzialki
  6
Continuous
370
    18
100
AcDbLine
 10
7570783.82
 20
5715541.19
 30
0.0
 11
7570778.79
 21
5715543.23
 31
0.0
  0
LINE
  5
1000165
330
15
100
AcDbEntity
  8
ewns_dzialki
  6
Continuous
370
    18
100
AcDbLine
 10
7570778.79
 20
5715543.23
 30
0.0
 11
7570780.23
 21
5715664.86
 31
0.0
  0
LINE
  5
1000166
330
15
100
AcDbEntity
  8
ewns_dzialki
  6
Continuous
370
    18
100
AcDbLine
 10
7570780.23
 20
5715664.86
 30
0.0
 11
7570800.04
 21
5715666.71
 31
0.0
  0
LINE
  5
1000167
330
15
100
AcDbEntity
  8
ewns_dzialki
  6
Continuous
370
    18
100
AcDbLine
 10
7570578.269999998
 20
5715379.89
 30
0.0
 11
7570581.370000001
 21
5715490.969999999
 31
0.0
  0
LINE
  5
1000168
330
15
100
AcDbEntity
  8
ewns_dzialki
  6
Continuous
370
    18
100
AcDbLine
 10
7570581.370000001
 20
5715490.969999999
 30
0.0
 11
7570582.48
 21
5715545.059999999
 31
0.0
  0
LINE
  5
1000169
330
15
100
AcDbEntity
  8
ewns_dzialki
  6
Continuous
370
    18
100
AcDbLine
 10
7570582.48
 20
5715545.059999999
 30
0.0
 11
7570583.200000001
 21
5715563.900000001
 31
0.0
  0
LINE
  5
100016A
330
15
100
AcDbEntity
  8
ewns_dzialki
  6
Continuous
370
    18
100
AcDbLine
 10
7570583.200000001
 20
5715563.900000001
 30
0.0
 11
7570584.349999998
 21
5715584.57
 31
0.0
  0
LINE
  5
100016B
330
15
100
AcDbEntity
  8
ewns_dzialki
  6
Continuous
370
    18
100
AcDbLine
 10
7570584.349999998
 20
5715584.57
 30
0.0
 11
7570603.400000001
 21
5715582.379999999
 31
0.0
  0
LINE
  5
100016C
330
15
100
AcDbEntity
  8
ewns_dzialki
  6
Continuous
370
    18
100
AcDbLine
 10
7570603.400000001
 20
5715582.379999999
 30
0.0
 11
7570602.120000001
 21
5715527.57
 31
0.0
  0
LINE
  5
100016D
330
15
100
AcDbEntity
  8
ewns_dzialki
  6
Continuous
370
    18
100
AcDbLine
 10
7570602.120000001
 20
5715527.57
 30
0.0
 11
7570599.3
 21
5715379.04
 31
0.0
  0
LINE
  5
100016E
330
15
100
AcDbEntity
  8
ewns_dzialki
  6
Continuous
370
    18
100
AcDbLine
 10
7570599.3
 20
5715379.04
 30
0.0
 11
7570578.269999998
 21
5715379.89
 31
0.0
  0
LINE
  5
100016F
330
15
100
AcDbEntity
  8
ewns_dzialki
  6
Continuous
370
    18
100
AcDbLine
 10
7570480.670000001
 20
5715383.769999999
 30
0.0
 11
7570498.11
 21
5715383.08
 31
0.0
  0
LINE
  5
1000170
330
15
100
AcDbEntity
  8
ewns_dzialki
  6
Continuous
370
    18
100
AcDbLine
 10
7570498.11
 20
5715383.08
 30
0.0
 11
7570516.28
 21
5715382.349999999
 31
0.0
  0
LINE
  5
1000171
330
15
100
AcDbEntity
  8
ewns_dzialki
  6
Continuous
370
    18
100
AcDbLine
 10
7570516.28
 20
5715382.349999999
 30
0.0
 11
7570532.889999999
 21
5715381.69
 31
0.0
  0
LINE
  5
1000172
330
15
100
AcDbEntity
  8
ewns_dzialki
  6
Continuous
370
    18
100
AcDbLine
 10
7570532.889999999
 20
5715381.69
 30
0.0
 11
7570535.860000001
 21
5715381.58
 31
0.0
  0
LINE
  5
1000173
330
15
100
AcDbEntity
  8
ewns_dzialki
  6
Continuous
370
    18
100
AcDbLine
 10
7570535.860000001
 20
5715381.58
 30
0.0
 11
7570548.719999999
 21
5715381.059999999
 31
0.0
  0
LINE
  5
1000174
330
15
100
AcDbEntity
  8
ewns_dzialki
  6
Continuous
370
    18
100
AcDbLine
 10
7570548.719999999
 20
5715381.059999999
 30
0.0
 11
7570562.500000001
 21
5715380.52
 31
0.0
  0
LINE
  5
1000175
330
15
100
AcDbEntity
  8
ewns_dzialki
  6
Continuous
370
    18
100
AcDbLine
 10
7570562.500000001
 20
5715380.52
 30
0.0
 11
7570578.269999998
 21
5715379.89
 31
0.0
  0
LINE
  5
1000176
330
15
100
AcDbEntity
  8
ewns_dzialki
  6
Continuous
370
    18
100
AcDbLine
 10
7570578.269999998
 20
5715379.89
 30
0.0
 11
7570599.3
 21
5715379.04
 31
0.0
  0
LINE
  5
1000177
330
15
100
AcDbEntity
  8
ewns_dzialki
  6
Continuous
370
    18
100
AcDbLine
 10
7570599.3
 20
5715379.04
 30
0.0
 11
7570610.599999999
 21
5715378.6
 31
0.0
  0
LINE
  5
1000178
330
15
100
AcDbEntity
  8
ewns_dzialki
  6
Continuous
370
    18
100
AcDbLine
 10
7570610.599999999
 20
5715378.6
 30
0.0
 11
7570629.62
 21
5715378.199999999
 31
0.0
  0
LINE
  5
1000179
330
15
100
AcDbEntity
  8
ewns_dzialki
  6
Continuous
370
    18
100
AcDbLine
 10
7570629.62
 20
5715378.199999999
 30
0.0
 11
7570649.67
 21
5715377.779999999
 31
0.0
  0
LINE
  5
100017A
330
15
100
AcDbEntity
  8
ewns_dzialki
  6
Continuous
370
    18
100
AcDbLine
 10
7570649.67
 20
5715377.779999999
 30
0.0
 11
7570669.03
 21
5715377.369999999
 31
0.0
  0
LINE
  5
100017B
330
15
100
AcDbEntity
  8
ewns_dzialki
  6
Continuous
370
    18
100
AcDbLine
 10
7570669.03
 20
5715377.369999999
 30
0.0
 11
7570688.23
 21
5715376.959999999
 31
0.0
  0
LINE
  5
100017C
330
15
100
AcDbEntity
  8
ewns_dzialki
  6
Continuous
370
    18
100
AcDbLine
 10
7570688.23
 20
5715376.959999999
 30
0.0
 11
7570708.15
 21
5715376.55
 31
0.0
  0
LINE
  5
100017D
330
15
100
AcDbEntity
  8
ewns_dzialki
  6
Continuous
370
    18
100
AcDbLine
 10
7570708.15
 20
5715376.55
 30
0.0
 11
7570732.13
 21
5715376.049999999
 31
0.0
  0
LINE
  5
100017E
330
15
100
AcDbEntity
  8
ewns_dzialki
  6
Continuous
370
    18
100
AcDbLine
 10
7570732.13
 20
5715376.049999999
 30
0.0
 11
7570764.83
 21
5715375.36
 31
0.0
  0
LINE
  5
100017F
330
15
100
AcDbEntity
  8
ewns_dzialki
  6
Continuous
370
    18
100
AcDbLine
 10
7570764.83
 20
5715375.36
 30
0.0
 11
7570794.509999999
 21
5715374.73
 31
0.0
  0
LINE
  5
1000180
330
15
100
AcDbEntity
  8
ewns_dzialki
  6
Continuous
370
    18
100
AcDbLine
 10
7570794.509999999
 20
5715374.73
 30
0.0
 11
7570797.969999999
 21
5715511.219999999
 31
0.0
  0
LINE
  5
1000181
330
15
100
AcDbEntity
  8
ewns_dzialki
  6
Continuous
370
    18
100
AcDbLine
 10
7570797.969999999
 20
5715511.219999999
 30
0.0
 11
7570805.88
 21
5715507.78
 31
0.0
  0
LINE
  5
1000182
330
15
100
AcDbEntity
  8
ewns_dzialki
  6
Continuous
370
    18
100
AcDbLine
 10
7570805.88
 20
5715507.78
 30
0.0
 11
7570802.259999999
 21
5715364.57
 31
0.0
  0
LINE
  5
1000183
330
15
100
AcDbEntity
  8
ewns_dzialki
  6
Continuous
370
    18
100
AcDbLine
 10
7570802.259999999
 20
5715364.57
 30
0.0
 11
7570764.81
 21
5715365.36
 31
0.0
  0
LINE
  5
1000184
330
15
100
AcDbEntity
  8
ewns_dzialki
  6
Continuous
370
    18
100
AcDbLine
 10
7570764.81
 20
5715365.36
 30
0.0
 11
7570755.31
 21
5715365.55
 31
0.0
  0
LINE
  5
1000185
330
15
100
AcDbEntity
  8
ewns_dzialki
  6
Continuous
370
    18
100
AcDbLine
 10
7570755.31
 20
5715365.55
 30
0.0
 11
7570742.32
 21
5715365.83
 31
0.0
  0
LINE
  5
1000186
330
15
100
AcDbEntity
  8
ewns_dzialki
  6
Continuous
370
    18
100
AcDbLine
 10
7570742.32
 20
5715365.83
 30
0.0
 11
7570731.860000001
 21
5715366.05
 31
0.0
  0
LINE
  5
1000187
330
15
100
AcDbEntity
  8
ewns_dzialki
  6
Continuous
370
    18
100
AcDbLine
 10
7570731.860000001
 20
5715366.05
 30
0.0
 11
7570718.3
 21
5715366.330000001
 31
0.0
  0
LINE
  5
1000188
330
15
100
AcDbEntity
  8
ewns_dzialki
  6
Continuous
370
    18
100
AcDbLine
 10
7570718.3
 20
5715366.330000001
 30
0.0
 11
7570708.360000001
 21
5715366.549999999
 31
0.0
  0
LINE
  5
1000189
330
15
100
AcDbEntity
  8
ewns_dzialki
  6
Continuous
370
    18
100
AcDbLine
 10
7570708.360000001
 20
5715366.549999999
 30
0.0
 11
7570705.730000001
 21
5715366.6
 31
0.0
  0
LINE
  5
100018A
330
15
100
AcDbEntity
  8
ewns_dzialki
  6
Continuous
370
    18
100
AcDbLine
 10
7570705.730000001
 20
5715366.6
 30
0.0
 11
7570688.150000001
 21
5715366.969999999
 31
0.0
  0
LINE
  5
100018B
330
15
100
AcDbEntity
  8
ewns_dzialki
  6
Continuous
370
    18
100
AcDbLine
 10
7570688.150000001
 20
5715366.969999999
 30
0.0
 11
7570668.82
 21
5715367.379999999
 31
0.0
  0
LINE
  5
100018C
330
15
100
AcDbEntity
  8
ewns_dzialki
  6
Continuous
370
    18
100
AcDbLine
 10
7570668.82
 20
5715367.379999999
 30
0.0
 11
7570649.849999998
 21
5715367.78
 31
0.0
  0
LINE
  5
100018D
330
15
100
AcDbEntity
  8
ewns_dzialki
  6
Continuous
370
    18
100
AcDbLine
 10
7570649.849999998
 20
5715367.78
 30
0.0
 11
7570629.63
 21
5715368.2
 31
0.0
  0
LINE
  5
100018E
330
15
100
AcDbEntity
  8
ewns_dzialki
  6
Continuous
370
    18
100
AcDbLine
 10
7570629.63
 20
5715368.2
 30
0.0
 11
7570610.290000001
 21
5715368.61
 31
0.0
  0
LINE
  5
100018F
330
15
100
AcDbEntity
  8
ewns_dzialki
  6
Continuous
370
    18
100
AcDbLine
 10
7570610.290000001
 20
5715368.61
 30
0.0
 11
7570598.79
 21
5715369.059999999
 31
0.0
  0
LINE
  5
1000190
330
15
100
AcDbEntity
  8
ewns_dzialki
  6
Continuous
370
    18
100
AcDbLine
 10
7570598.79
 20
5715369.059999999
 30
0.0
 11
7570578.59
 21
5715369.87
 31
0.0
  0
LINE
  5
1000191
330
15
100
AcDbEntity
  8
ewns_dzialki
  6
Continuous
370
    18
100
AcDbLine
 10
7570578.59
 20
5715369.87
 30
0.0
 11
7570562.419999999
 21
5715370.52
 31
0.0
  0
LINE
  5
1000192
330
15
100
AcDbEntity
  8
ewns_dzialki
  6
Continuous
370
    18
100
AcDbLine
 10
7570562.419999999
 20
5715370.52
 30
0.0
 11
7570548.759999999
 21
5715371.059999999
 31
0.0
  0
LINE
  5
1000193
330
15
100
AcDbEntity
  8
ewns_dzialki
  6
Continuous
370
    18
100
AcDbLine
 10
7570548.759999999
 20
5715371.059999999
 30
0.0
 11
7570532.639999998
 21
5715371.7
 31
0.0
  0
LINE
  5
1000194
330
15
100
AcDbEntity
  8
ewns_dzialki
  6
Continuous
370
    18
100
AcDbLine
 10
7570532.639999998
 20
5715371.7
 30
0.0
 11
7570515.65
 21
5715372.379999999
 31
0.0
  0
LINE
  5
1000195
330
15
100
AcDbEntity
  8
ewns_dzialki
  6
Continuous
370
    18
100
AcDbLine
 10
7570515.65
 20
5715372.379999999
 30
0.0
 11
7570497.780000001
 21
5715373.09
 31
0.0
  0
LINE
  5
1000196
330
15
100
AcDbEntity
  8
ewns_dzialki
  6
Continuous
370
    18
100
AcDbLine
 10
7570497.780000001
 20
5715373.09
 30
0.0
 11
7570480.429999999
 21
5715373.780000001
 31
0.0
  0
LINE
  5
1000197
330
15
100
AcDbEntity
  8
ewns_dzialki
  6
Continuous
370
    18
100
AcDbLine
 10
7570480.429999999
 20
5715373.780000001
 30
0.0
 11
7570462.62
 21
5715374.49
 31
0.0
  0
LINE
  5
1000198
330
15
100
AcDbEntity
  8
ewns_dzialki
  6
Continuous
370
    18
100
AcDbLine
 10
7570462.62
 20
5715374.49
 30
0.0
 11
7570462.88
 21
5715384.479999999
 31
0.0
  0
LINE
  5
1000199
330
15
100
AcDbEntity
  8
ewns_dzialki
  6
Continuous
370
    18
100
AcDbLine
 10
7570462.88
 20
5715384.479999999
 30
0.0
 11
7570480.670000001
 21
5715383.769999999
 31
0.0
  0
LINE
  5
100019A
330
15
100
AcDbEntity
  8
ewns_dzialki
  6
Continuous
370
    18
100
AcDbLine
 10
7570599.3
 20
5715379.04
 30
0.0
 11
7570602.120000001
 21
5715527.57
 31
0.0
  0
LINE
  5
100019B
330
15
100
AcDbEntity
  8
ewns_dzialki
  6
Continuous
370
    18
100
AcDbLine
 10
7570602.120000001
 20
5715527.57
 30
0.0
 11
7570603.400000001
 21
5715582.379999999
 31
0.0
  0
LINE
  5
100019C
330
15
100
AcDbEntity
  8
ewns_dzialki
  6
Continuous
370
    18
100
AcDbLine
 10
7570603.400000001
 20
5715582.379999999
 30
0.0
 11
7570616.08
 21
5715579.769999999
 31
0.0
  0
LINE
  5
100019D
330
15
100
AcDbEntity
  8
ewns_dzialki
  6
Continuous
370
    18
100
AcDbLine
 10
7570616.08
 20
5715579.769999999
 30
0.0
 11
7570614.28
 21
5715528.700000001
 31
0.0
  0
LINE
  5
100019E
330
15
100
AcDbEntity
  8
ewns_dzialki
  6
Continuous
370
    18
100
AcDbLine
 10
7570614.28
 20
5715528.700000001
 30
0.0
 11
7570614.139999999
 21
5715521.639999999
 31
0.0
  0
LINE
  5
100019F
330
15
100
AcDbEntity
  8
ewns_dzialki
  6
Continuous
370
    18
100
AcDbLine
 10
7570614.139999999
 20
5715521.639999999
 30
0.0
 11
7570610.599999999
 21
5715378.6
 31
0.0
  0
LINE
  5
10001A0
330
15
100
AcDbEntity
  8
ewns_dzialki
  6
Continuous
370
    18
100
AcDbLine
 10
7570610.599999999
 20
5715378.6
 30
0.0
 11
7570599.3
 21
5715379.04
 31
0.0
  0
LINE
  5
10001A1
330
15
100
AcDbEntity
  8
ewns_dzialki
  6
Continuous
370
    18
100
AcDbLine
 10
7570636.460000001
 20
5715574.87
 30
0.0
 11
7570633.9
 21
5715521.67
 31
0.0
  0
LINE
  5
10001A2
330
15
100
AcDbEntity
  8
ewns_dzialki
  6
Continuous
370
    18
100
AcDbLine
 10
7570633.9
 20
5715521.67
 30
0.0
 11
7570629.62
 21
5715378.199999999
 31
0.0
  0
LINE
  5
10001A3
330
15
100
AcDbEntity
  8
ewns_dzialki
  6
Continuous
370
    18
100
AcDbLine
 10
7570629.62
 20
5715378.199999999
 30
0.0
 11
7570610.599999999
 21
5715378.6
 31
0.0
  0
LINE
  5
10001A4
330
15
100
AcDbEntity
  8
ewns_dzialki
  6
Continuous
370
    18
100
AcDbLine
 10
7570610.599999999
 20
5715378.6
 30
0.0
 11
7570614.139999999
 21
5715521.639999999
 31
0.0
  0
LINE
  5
10001A5
330
15
100
AcDbEntity
  8
ewns_dzialki
  6
Continuous
370
    18
100
AcDbLine
 10
7570614.139999999
 20
5715521.639999999
 30
0.0
 11
7570614.28
 21
5715528.700000001
 31
0.0
  0
LINE
  5
10001A6
330
15
100
AcDbEntity
  8
ewns_dzialki
  6
Continuous
370
    18
100
AcDbLine
 10
7570614.28
 20
5715528.700000001
 30
0.0
 11
7570616.08
 21
5715579.769999999
 31
0.0
  0
LINE
  5
10001A7
330
15
100
AcDbEntity
  8
ewns_dzialki
  6
Continuous
370
    18
100
AcDbLine
 10
7570616.08
 20
5715579.769999999
 30
0.0
 11
7570621.8
 21
5715578.68
 31
0.0
  0
LINE
  5
10001A8
330
15
100
AcDbEntity
  8
ewns_dzialki
  6
Continuous
370
    18
100
AcDbLine
 10
7570621.8
 20
5715578.68
 30
0.0
 11
7570636.460000001
 21
5715574.87
 31
0.0
  0
ENDSEC
  0
SECTION
  2
OBJECTS
  0
DICTIONARY
  5
1C9
330
0
100
AcDbDictionary
281
     1
  3
ACAD_COLOR
350
100001C
  3
ACAD_GROUP
350
1CA
  3
ACAD_LAYOUT
350
1CB
  3
ACAD_MATERIAL
350
FFFFFF
  3
ACAD_MLEADERSTYLE
350
100001F
  3
ACAD_MLINESTYLE
350
1CC
  3
ACAD_PLOTSETTINGS
350
1CD
  3
ACAD_PLOTSTYLENAME
350
1CE
  3
ACAD_SCALELIST
350
1000021
  3
ACAD_TABLESTYLE
350
100001D
  3
ACAD_VISUALSTYLE
350
1000003
  3
ACAD_WIPEOUT_VARS
350
1CF
  3
AcDbVariableDictionary
350
10001A9
  0
DICTIONARY
  5
1000034
330
15
100
AcDbDictionary
280
     1
281
     1
  3
ACAD_SORTENTS
360
1000035
  0
DICTIONARY
  5
100001C
102
{ACAD_REACTORS
330
1C9
102
}
330
1C9
100
AcDbDictionary
281
     1
  0
DICTIONARY
  5
1CA
102
{ACAD_REACTORS
330
1C9
102
}
330
1C9
100
AcDbDictionary
281
     1
  0
DICTIONARY
  5
1CB
102
{ACAD_REACTORS
330
1C9
102
}
330
1C9
100
AcDbDictionary
281
     1
  3
Layout
350
18
  3
Model
350
16
  0
DICTIONARY
  5
FFFFFF
102
{ACAD_REACTORS
330
1C9
102
}
330
1C9
100
AcDbDictionary
281
     1
  3
ByBlock
350
1000001
  3
ByLayer
350
1000000
  3
Global
350
1000002
  0
DICTIONARY
  5
100001F
102
{ACAD_REACTORS
330
1C9
102
}
330
1C9
100
AcDbDictionary
281
     1
  3
Standard
350
1000020
  0
DICTIONARY
  5
1CC
102
{ACAD_REACTORS
330
1C9
102
}
330
1C9
100
AcDbDictionary
281
     1
  3
Standard
350
1D0
  0
DICTIONARY
  5
1CD
102
{ACAD_REACTORS
330
1C9
102
}
330
1C9
100
AcDbDictionary
281
     1
  0
ACDBDICTIONARYWDFLT
  5
1CE
102
{ACAD_REACTORS
330
1C9
102
}
330
1C9
100
AcDbDictionary
281
     1
  3
Normal
350
9
100
AcDbDictionaryWithDefault
340
9
  0
DICTIONARY
  5
1000021
102
{ACAD_REACTORS
330
1C9
102
}
330
1C9
100
AcDbDictionary
281
     1
  3
A0
350
1000022
  3
A1
350
1000023
  3
A2
350
1000024
  3
A3
350
1000025
  3
A4
350
1000026
  3
A5
350
1000027
  3
A6
350
1000028
  3
A7
350
1000029
  3
A8
350
100002A
  3
A9
350
100002B
  3
B0
350
100002C
  3
B1
350
100002D
  3
B2
350
100002E
  3
B3
350
100002F
  3
B4
350
1000030
  3
B5
350
1000031
  3
B6
350
1000032
  0
DICTIONARY
  5
100001D
102
{ACAD_REACTORS
330
1C9
102
}
330
1C9
100
AcDbDictionary
281
     1
  3
Standard
350
100001E
  0
DICTIONARY
  5
1000003
102
{ACAD_REACTORS
330
1C9
102
}
330
1C9
100
AcDbDictionary
281
     1
  3
2dWireframe
350
1000008
  3
Basic
350
100000B
  3
Brighten
350
100000F
  3
ColorChange
350
1000013
  3
Conceptual
350
100000D
  3
Dim
350
100000E
  3
EdgeColorOff
350
1000016
  3
Facepattern
350
1000012
  3
Flat
350
1000004
  3
FlatWithEdges
350
1000005
  3
Gouraud
350
1000006
  3
GouraudWithEdges
350
1000007
  3
Hidden
350
100000A
  3
JitterOff
350
1000014
  3
Linepattern
350
1000011
  3
OverhangOff
350
1000015
  3
Realistic
350
100000C
  3
Shaded
350
100001B
  3
Shaded with edges
350
100001A
  3
Shades of Gray
350
1000017
  3
Sketchy
350
1000018
  3
Thicken
350
1000010
  3
Wireframe
350
1000009
  3
X-Ray
350
1000019
  0
WIPEOUTVARIABLES
  5
1CF
102
{ACAD_REACTORS
330
1C9
102
}
330
1C9
100
AcDbWipeoutVariables
 70
     0
  0
DICTIONARY
  5
10001A9
102
{ACAD_REACTORS
330
1C9
102
}
330
1C9
100
AcDbDictionary
281
     1
  3
CANNOSCALE
350
10001AD
  3
CMLEADERSTYLE
350
10001AB
  3
CTABLESTYLE
350
10001AA
  3
MSLTSCALE
350
10001AC
  0
SORTENTSTABLE
  5
1000035
102
{ACAD_REACTORS
330
1000034
102
}
330
1000034
100
AcDbSortentsTable
330
15
331
1C8
  5
10001A8
331
1000036
  5
1C8
331
1000037
  5
1000036
331
1000038
  5
1000037
331
1000039
  5
1000038
331
100003A
  5
1000039
331
100003B
  5
100003A
331
100003C
  5
100003B
331
100003D
  5
100003C
331
100003E
  5
100003D
331
100003F
  5
100003E
331
1000040
  5
100003F
331
1000041
  5
1000040
331
1000042
  5
1000041
331
1000043
  5
1000042
331
1000044
  5
1000043
331
1000045
  5
1000044
331
1000046
  5
1000045
331
1000047
  5
1000046
331
1000048
  5
1000047
331
1000049
  5
1000048
331
100004A
  5
1000049
331
100004B
  5
100004A
331
100004C
  5
100004B
331
100004D
  5
100004C
331
100004E
  5
100004D
331
100004F
  5
100004E
331
1000050
  5
100004F
331
1000051
  5
1000050
331
1000052
  5
1000051
331
1000053
  5
1000052
331
1000054
  5
1000053
331
1000055
  5
1000054
331
1000056
  5
1000055
331
1000057
  5
1000056
331
1000058
  5
1000057
331
1000059
  5
1000058
331
100005A
  5
1000059
331
100005B
  5
100005A
331
100005C
  5
100005B
331
100005D
  5
100005C
331
100005E
  5
100005D
331
100005F
  5
100005E
331
1000060
  5
100005F
331
1000061
  5
1000060
331
1000062
  5
1000061
331
1000063
  5
1000062
331
1000064
  5
1000063
331
1000065
  5
1000064
331
1000066
  5
1000065
331
1000067
  5
1000066
331
1000068
  5
1000067
331
1000069
  5
1000068
331
100006A
  5
1000069
331
100006B
  5
100006A
331
100006C
  5
100006B
331
100006D
  5
100006C
331
100006E
  5
100006D
331
100006F
  5
100006E
331
1000070
  5
100006F
331
1000071
  5
1000070
331
1000072
  5
1000071
331
1000073
  5
1000072
331
1000074
  5
1000073
331
1000075
  5
1000074
331
1000076
  5
1000075
331
1000077
  5
1000076
331
1000078
  5
1000077
331
1000079
  5
1000078
331
100007A
  5
1000079
331
100007B
  5
100007A
331
100007C
  5
100007B
331
100007D
  5
100007C
331
100007E
  5
100007D
331
100007F
  5
100007E
331
1000080
  5
100007F
331
1000081
  5
1000080
331
1000082
  5
1000081
331
1000083
  5
1000082
331
1000084
  5
1000083
331
1000085
  5
1000084
331
1000086
  5
1000085
331
1000087
  5
1000086
331
1000088
  5
1000087
331
1000089
  5
1000088
331
100008A
  5
1000089
331
100008B
  5
100008A
331
100008C
  5
100008B
331
100008D
  5
100008C
331
100008E
  5
100008D
331
100008F
  5
100008E
331
1000090
  5
100008F
331
1000091
  5
1000090
331
1000092
  5
1000091
331
1000093
  5
1000092
331
1000094
  5
1000093
331
1000095
  5
1000094
331
1000096
  5
1000095
331
1000097
  5
1000096
331
1000098
  5
1000097
331
1000099
  5
1000098
331
100009A
  5
1000099
331
100009B
  5
100009A
331
100009C
  5
100009B
331
100009D
  5
100009C
331
100009E
  5
100009D
331
100009F
  5
100009E
331
10000A0
  5
100009F
331
10000A1
  5
10000A0
331
10000A2
  5
10000A1
331
10000A3
  5
10000A2
331
10000A4
  5
10000A3
331
10000A5
  5
10000A4
331
10000A6
  5
10000A5
331
10000A7
  5
10000A6
331
10000A8
  5
10000A7
331
10000A9
  5
10000A8
331
10000AA
  5
10000A9
331
10000AB
  5
10000AA
331
10000AC
  5
10000AB
331
10000AD
  5
10000AC
331
10000AE
  5
10000AD
331
10000AF
  5
10000AE
331
10000B0
  5
10000AF
331
10000B1
  5
10000B0
331
10000B2
  5
10000B1
331
10000B3
  5
10000B2
331
10000B4
  5
10000B3
331
10000B5
  5
10000B4
331
10000B6
  5
10000B5
331
10000B7
  5
10000B6
331
10000B8
  5
10000B7
331
10000B9
  5
10000B8
331
10000BA
  5
10000B9
331
10000BB
  5
10000BA
331
10000BC
  5
10000BB
331
10000BD
  5
10000BC
331
10000BE
  5
10000BD
331
10000BF
  5
10000BE
331
10000C0
  5
10000BF
331
10000C1
  5
10000C0
331
10000C2
  5
10000C1
331
10000C3
  5
10000C2
331
10000C4
  5
10000C3
331
10000C5
  5
10000C4
331
10000C6
  5
10000C5
331
10000C7
  5
10000C6
331
10000C8
  5
10000C7
331
10000C9
  5
10000C8
331
10000CA
  5
10000C9
331
10000CB
  5
10000CA
331
10000CC
  5
10000CB
331
10000CD
  5
10000CC
331
10000CE
  5
10000CD
331
10000CF
  5
10000CE
331
10000D0
  5
10000CF
331
10000D1
  5
10000D0
331
10000D2
  5
10000D1
331
10000D3
  5
10000D2
331
10000D4
  5
10000D3
331
10000D5
  5
10000D4
331
10000D6
  5
10000D5
331
10000D7
  5
10000D6
331
10000D8
  5
10000D7
331
10000D9
  5
10000D8
331
10000DA
  5
10000D9
331
10000DB
  5
10000DA
331
10000DC
  5
10000DB
331
10000DD
  5
10000DC
331
10000DE
  5
10000DD
331
10000DF
  5
10000DE
331
10000E0
  5
10000DF
331
10000E1
  5
10000E0
331
10000E2
  5
10000E1
331
10000E3
  5
10000E2
331
10000E4
  5
10000E3
331
10000E5
  5
10000E4
331
10000E6
  5
10000E5
331
10000E7
  5
10000E6
331
10000E8
  5
10000E7
331
10000E9
  5
10000E8
331
10000EA
  5
10000E9
331
10000EB
  5
10000EA
331
10000EC
  5
10000EB
331
10000ED
  5
10000EC
331
10000EE
  5
10000ED
331
10000EF
  5
10000EE
331
10000F0
  5
10000EF
331
10000F1
  5
10000F0
331
10000F2
  5
10000F1
331
10000F3
  5
10000F2
331
10000F4
  5
10000F3
331
10000F5
  5
10000F4
331
10000F6
  5
10000F5
331
10000F7
  5
10000F6
331
10000F8
  5
10000F7
331
10000F9
  5
10000F8
331
10000FA
  5
10000F9
331
10000FB
  5
10000FA
331
10000FC
  5
10000FB
331
10000FD
  5
10000FC
331
10000FE
  5
10000FD
331
10000FF
  5
10000FE
331
1000100
  5
10000FF
331
1000101
  5
1000100
331
1000102
  5
1000101
331
1000103
  5
1000102
331
1000104
  5
1000103
331
1000105
  5
1000104
331
1000106
  5
1000105
331
1000107
  5
1000106
331
1000108
  5
1000107
331
1000109
  5
1000108
331
100010A
  5
1000109
331
100010B
  5
100010A
331
100010C
  5
100010B
331
100010D
  5
100010C
331
100010E
  5
100010D
331
100010F
  5
100010E
331
1000110
  5
100010F
331
1000111
  5
1000110
331
1000112
  5
1000111
331
1000113
  5
1000112
331
1000114
  5
1000113
331
1000115
  5
1000114
331
1000116
  5
1000115
331
1000117
  5
1000116
331
1000118
  5
1000117
331
1000119
  5
1000118
331
100011A
  5
1000119
331
100011B
  5
100011A
331
100011C
  5
100011B
331
100011D
  5
100011C
331
100011E
  5
100011D
331
100011F
  5
100011E
331
1000120
  5
100011F
331
1000121
  5
1000120
331
1000122
  5
1000121
331
1000123
  5
1000122
331
1000124
  5
1000123
331
1000125
  5
1000124
331
1000126
  5
1000125
331
1000127
  5
1000126
331
1000128
  5
1000127
331
1000129
  5
1000128
331
100012A
  5
1000129
331
100012B
  5
100012A
331
100012C
  5
100012B
331
100012D
  5
100012C
331
100012E
  5
100012D
331
100012F
  5
100012E
331
1000130
  5
100012F
331
1000131
  5
1000130
331
1000132
  5
1000131
331
1000133
  5
1000132
331
1000134
  5
1000133
331
1000135
  5
1000134
331
1000136
  5
1000135
331
1000137
  5
1000136
331
1000138
  5
1000137
331
1000139
  5
1000138
331
100013A
  5
1000139
331
100013B
  5
100013A
331
100013C
  5
100013B
331
100013D
  5
100013C
331
100013E
  5
100013D
331
100013F
  5
100013E
331
1000140
  5
100013F
331
1000141
  5
1000140
331
1000142
  5
1000141
331
1000143
  5
1000142
331
1000144
  5
1000143
331
1000145
  5
1000144
331
1000146
  5
1000145
331
1000147
  5
1000146
331
1000148
  5
1000147
331
1000149
  5
1000148
331
100014A
  5
1000149
331
100014B
  5
100014A
331
100014C
  5
100014B
331
100014D
  5
100014C
331
100014E
  5
100014D
331
100014F
  5
100014E
331
1000150
  5
100014F
331
1000151
  5
1000150
331
1000152
  5
1000151
331
1000153
  5
1000152
331
1000154
  5
1000153
331
1000155
  5
1000154
331
1000156
  5
1000155
331
1000157
  5
1000156
331
1000158
  5
1000157
331
1000159
  5
1000158
331
100015A
  5
1000159
331
100015B
  5
100015A
331
100015C
  5
100015B
331
100015D
  5
100015C
331
100015E
  5
100015D
331
100015F
  5
100015E
331
1000160
  5
100015F
331
1000161
  5
1000160
331
1000162
  5
1000161
331
1000163
  5
1000162
331
1000164
  5
1000163
331
1000165
  5
1000164
331
1000166
  5
1000165
331
1000167
  5
1000166
331
1000168
  5
1000167
331
1000169
  5
1000168
331
100016A
  5
1000169
331
100016B
  5
100016A
331
100016C
  5
100016B
331
100016D
  5
100016C
331
100016E
  5
100016D
331
100016F
  5
100016E
331
1000170
  5
100016F
331
1000171
  5
1000170
331
1000172
  5
1000171
331
1000173
  5
1000172
331
1000174
  5
1000173
331
1000175
  5
1000174
331
1000176
  5
1000175
331
1000177
  5
1000176
331
1000178
  5
1000177
331
1000179
  5
1000178
331
100017A
  5
1000179
331
100017B
  5
100017A
331
100017C
  5
100017B
331
100017D
  5
100017C
331
100017E
  5
100017D
331
100017F
  5
100017E
331
1000180
  5
100017F
331
1000181
  5
1000180
331
1000182
  5
1000181
331
1000183
  5
1000182
331
1000184
  5
1000183
331
1000185
  5
1000184
331
1000186
  5
1000185
331
1000187
  5
1000186
331
1000188
  5
1000187
331
1000189
  5
1000188
331
100018A
  5
1000189
331
100018B
  5
100018A
331
100018C
  5
100018B
331
100018D
  5
100018C
331
100018E
  5
100018D
331
100018F
  5
100018E
331
1000190
  5
100018F
331
1000191
  5
1000190
331
1000192
  5
1000191
331
1000193
  5
1000192
331
1000194
  5
1000193
331
1000195
  5
1000194
331
1000196
  5
1000195
331
1000197
  5
1000196
331
1000198
  5
1000197
331
1000199
  5
1000198
331
100019A
  5
1000199
331
100019B
  5
100019A
331
100019C
  5
100019B
331
100019D
  5
100019C
331
100019E
  5
100019D
331
100019F
  5
100019E
331
10001A0
  5
100019F
331
10001A1
  5
10001A0
331
10001A2
  5
10001A1
331
10001A3
  5
10001A2
331
10001A4
  5
10001A3
331
10001A5
  5
10001A4
331
10001A6
  5
10001A5
331
10001A7
  5
10001A6
331
10001A8
  5
10001A7
  0
LAYOUT
  5
18
330
1CB
100
AcDbPlotSettings
  1

  2

  4

  6

 40
0.0
 41
0.0
 42
0.0
 43
0.0
 44
0.0
 45
0.0
 46
0.0
 47
0.0
 48
0.0
 49
0.0
140
0.0
141
0.0
142
1.0
143
1.0
 70
   688
 72
     1
 73
     0
 74
     5
  7

 75
     0
 76
     0
 77
     2
 78
   300
147
1.0
148
0.0
149
0.0
100
AcDbLayout
  1
Layout
 70
     1
 71
     1
 10
0.0
 20
0.0
 11
420.0
 21
297.0
 12
0.0
 22
0.0
 32
0.0
 14
1.000000000000000E+20
 24
1.000000000000000E+20
 34
1.000000000000000E+20
 15
-1.000000000000000E+20
 25
-1.000000000000000E+20
 35
-1.000000000000000E+20
146
0.0
 13
0.0
 23
0.0
 33
0.0
 16
1.0
 26
0.0
 36
0.0
 17
0.0
 27
1.0
 37
0.0
 76
     0
330
17
  0
LAYOUT
  5
16
330
1CB
100
AcDbPlotSettings
  1

  2

  4

  6

 40
0.0
 41
0.0
 42
0.0
 43
0.0
 44
0.0
 45
0.0
 46
0.0
 47
0.0
 48
0.0
 49
0.0
140
0.0
141
0.0
142
1.0
143
1.0
 70
  1712
 72
     1
 73
     0
 74
     0
  7

 75
     0
 76
     0
 77
     2
 78
   300
147
1.0
148
0.0
149
0.0
100
AcDbLayout
  1
Model
 70
     1
 71
     0
 10
0.0
 20
0.0
 11
12.0
 21
9.0
 12
0.0
 22
0.0
 32
0.0
 14
0.0
 24
0.0
 34
0.0
 15
0.0
 25
0.0
 35
0.0
146
0.0
 13
0.0
 23
0.0
 33
0.0
 16
1.0
 26
0.0
 36
0.0
 17
0.0
 27
1.0
 37
0.0
 76
     0
330
15
331
2
  0
MATERIAL
  5
1000001
102
{ACAD_REACTORS
330
FFFFFF
102
}
330
FFFFFF
100
AcDbMaterial
  1
ByBlock
 72
     0
 73
     2
 77
     0
 78
     2
171
     0
172
     2
175
     0
176
     2
179
     0
270
     2
274
     2
 94
      127
  0
MATERIAL
  5
1000000
102
{ACAD_REACTORS
330
FFFFFF
102
}
330
FFFFFF
100
AcDbMaterial
  1
ByLayer
 72
     0
 73
     2
 77
     0
 78
     2
171
     0
172
     2
175
     0
176
     2
179
     0
270
     2
274
     2
 94
      127
  0
MATERIAL
  5
1000002
102
{ACAD_REACTORS
330
FFFFFF
102
}
330
FFFFFF
100
AcDbMaterial
  1
Global
 72
     0
 73
     2
 77
     0
 78
     2
171
     0
172
     2
175
     0
176
     2
179
     0
270
     2
274
     2
 94
      127
  0
MLEADERSTYLE
  5
1000020
102
{ACAD_REACTORS
330
100001F
102
}
330
100001F
100
AcDbMLeaderStyle
179
     2
170
     2
171
     1
172
     0
 90
        2
 40
0.0
 41
0.0
173
     1
 91
-1056964608
340
4
 92
       -2
290
     1
 42
0.4
291
     1
 43
2.0
  3
Standard
 44
0.18
300

342
C
174
     1
178
     1
175
     1
176
     0
 93
-1056964608
 45
0.2
292
     0
297
     0
 46
5.0
 94
-1056964608
 47
1.0
 49
1.0
140
1.0
293
     1
141
0.0
294
     1
177
     0
142
1.0
295
     0
296
     0
143
0.125
271
     0
272
     9
273
     9
298
     0
  0
MLINESTYLE
  5
1D0
102
{ACAD_REACTORS
330
1CC
102
}
330
1CC
100
AcDbMlineStyle
  2
Standard
 70
     0
  3

 62
   256
 51
90.0
 52
90.0
 71
     2
 49
0.5
 62
   256
  6
BYLAYER
 49
-0.5
 62
   256
  6
BYLAYER
  0
ACDBPLACEHOLDER
  5
9
330
1CE
  0
SCALE
  5
1000022
102
{ACAD_REACTORS
330
1000021
102
}
330
1000021
100
AcDbScale
 70
     0
300
1:1
140
1.0
141
1.0
290
     1
  0
SCALE
  5
1000023
102
{ACAD_REACTORS
330
1000021
102
}
330
1000021
100
AcDbScale
 70
     0
300
1:2
140
1.0
141
2.0
290
     0
  0
SCALE
  5
1000024
102
{ACAD_REACTORS
330
1000021
102
}
330
1000021
100
AcDbScale
 70
     0
300
1:4
140
1.0
141
4.0
290
     0
  0
SCALE
  5
1000025
102
{ACAD_REACTORS
330
1000021
102
}
330
1000021
100
AcDbScale
 70
     0
300
1:5
140
1.0
141
5.0
290
     0
  0
SCALE
  5
1000026
102
{ACAD_REACTORS
330
1000021
102
}
330
1000021
100
AcDbScale
 70
     0
300
1:8
140
1.0
141
8.0
290
     0
  0
SCALE
  5
1000027
102
{ACAD_REACTORS
330
1000021
102
}
330
1000021
100
AcDbScale
 70
     0
300
1:10
140
1.0
141
10.0
290
     0
  0
SCALE
  5
1000028
102
{ACAD_REACTORS
330
1000021
102
}
330
1000021
100
AcDbScale
 70
     0
300
1:16
140
1.0
141
16.0
290
     0
  0
SCALE
  5
1000029
102
{ACAD_REACTORS
330
1000021
102
}
330
1000021
100
AcDbScale
 70
     0
300
1:20
140
1.0
141
20.0
290
     0
  0
SCALE
  5
100002A
102
{ACAD_REACTORS
330
1000021
102
}
330
1000021
100
AcDbScale
 70
     0
300
1:30
140
1.0
141
30.0
290
     0
  0
SCALE
  5
100002B
102
{ACAD_REACTORS
330
1000021
102
}
330
1000021
100
AcDbScale
 70
     0
300
1:40
140
1.0
141
40.0
290
     0
  0
SCALE
  5
100002C
102
{ACAD_REACTORS
330
1000021
102
}
330
1000021
100
AcDbScale
 70
     0
300
1:50
140
1.0
141
50.0
290
     0
  0
SCALE
  5
100002D
102
{ACAD_REACTORS
330
1000021
102
}
330
1000021
100
AcDbScale
 70
     0
300
1:100
140
1.0
141
100.0
290
     0
  0
SCALE
  5
100002E
102
{ACAD_REACTORS
330
1000021
102
}
330
1000021
100
AcDbScale
 70
     0
300
2:1
140
2.0
141
1.0
290
     0
  0
SCALE
  5
100002F
102
{ACAD_REACTORS
330
1000021
102
}
330
1000021
100
AcDbScale
 70
     0
300
4:1
140
4.0
141
1.0
290
     0
  0
SCALE
  5
1000030
102
{ACAD_REACTORS
330
1000021
102
}
330
1000021
100
AcDbScale
 70
     0
300
8:1
140
8.0
141
1.0
290
     0
  0
SCALE
  5
1000031
102
{ACAD_REACTORS
330
1000021
102
}
330
1000021
100
AcDbScale
 70
     0
300
10:1
140
10.0
141
1.0
290
     0
  0
SCALE
  5
1000032
102
{ACAD_REACTORS
330
1000021
102
}
330
1000021
100
AcDbScale
 70
     0
300
100:1
140
100.0
141
1.0
290
     0
  0
TABLESTYLE
  5
100001E
102
{ACAD_REACTORS
330
100001D
102
}
330
100001D
100
AcDbTableStyle
  3
Standard
 70
     0
 71
     0
 40
1.5
 41
1.5
280
     0
281
     0
  7
STANDARD
140
4.5
170
     2
 62
     7
 63
   257
283
     0
 90
        4
 91
        0
  1

274
    -2
284
     1
 64
     0
275
    -2
285
     1
 65
     0
276
    -2
286
     1
 66
     0
277
    -2
287
     1
 67
     0
278
    -2
288
     1
 68
     0
279
    -2
289
     1
 69
     0
  7
STANDARD
140
6.0
170
     5
 62
     7
 63
   257
283
     0
 90
        4
 91
        0
  1

274
    -2
284
     1
 64
     0
275
    -2
285
     1
 65
     0
276
    -2
286
     1
 66
     0
277
    -2
287
     1
 67
     0
278
    -2
288
     1
 68
     0
279
    -2
289
     1
 69
     0
  7
STANDARD
140
4.5
170
     5
 62
     7
 63
   257
283
     0
 90
        4
 91
        0
  1

274
    -2
284
     1
 64
     0
275
    -2
285
     1
 65
     0
276
    -2
286
     1
 66
     0
277
    -2
287
     1
 67
     0
278
    -2
288
     1
 68
     0
279
    -2
289
     1
 69
     0
  0
VISUALSTYLE
  5
1000008
102
{ACAD_REACTORS
330
1000003
102
}
330
1000003
100
AcDbVisualStyle
  2
2dWireframe
 70
     4
177
     3
291
     0
 70
    58
 90
        0
176
     1
 90
        2
176
     1
 90
        0
176
     1
 90
        0
176
     1
 40
0.6
176
     1
 40
30.0
176
     1
 62
     7
420
 16777215
176
     1
 90
        1
176
     1
 90
        4
176
     1
 62
     7
176
     1
 62
   257
176
     1
 90
        1
176
     1
 90
        1
176
     1
 40
1.0
176
     1
 90
        0
176
     1
 62
   257
176
     1
 40
1.0
176
     1
 90
        1
176
     1
 90
        6
176
     1
 90
        2
176
     1
 62
     7
176
     1
 90
        5
176
     1
 90
        0
176
     1
 90
        0
176
     1
290
     0
176
     1
 90
        1
176
     1
 40
0.0
176
     1
 90
        0
176
     1
290
     1
176
     1
290
     1
176
     1
290
     0
176
     1
290
     0
176
     1
290
     0
176
     1
290
     0
176
     1
290
     0
176
     1
290
     0
176
     1
290
     0
176
     1
 90
       50
176
     1
 40
0.0
176
     1
 40
1.0
176
     1
 90
        0
176
     1
 62
    18
420
        0
176
     1
 90
       50
176
     1
 90
        3
176
     1
 62
     5
420
      255
176
     1
290
     0
176
     1
 90
       50
176
     1
 90
       50
176
     1
 90
       50
176
     1
290
     0
176
     1
 90
       50
176
     1
 62
   256
176
     0
 40
1.0
176
     0
 90
        2
176
     1
  1
strokes_ogs.tif
176
     1
290
     0
176
     1
 40
1.0
176
     1
 40
1.0
176
     1
  0
VISUALSTYLE
  5
100000B
102
{ACAD_REACTORS
330
1000003
102
}
330
1000003
100
AcDbVisualStyle
  2
Basic
 70
     7
177
     3
291
     1
 70
    58
 90
        1
176
     1
 90
        0
176
     1
 90
        1
176
     1
 90
        0
176
     1
 40
0.6
176
     1
 40
30.0
176
     1
 62
     7
420
 16777215
176
     1
 90
        0
176
     1
 90
        4
176
     1
 62
     7
176
     1
 62
   257
176
     1
 90
        1
176
     1
 90
        1
176
     1
 40
1.0
176
     1
 90
        8
176
     1
 62
     7
176
     1
 40
1.0
176
     1
 90
        1
176
     1
 90
        6
176
     1
 90
        2
176
     1
 62
     7
176
     1
 90
        5
176
     1
 90
        0
176
     1
 90
        0
176
     1
290
     0
176
     1
 90
        1
176
     1
 40
0.0
176
     1
 90
        0
176
     1
290
     0
176
     1
290
     1
176
     1
290
     1
176
     1
290
     0
176
     1
290
     0
176
     1
290
     0
176
     1
290
     0
176
     1
290
     0
176
     1
290
     0
176
     1
 90
       50
176
     1
 40
0.0
176
     1
 40
1.0
176
     1
 90
        0
176
     1
 62
    18
420
        0
176
     1
 90
       50
176
     1
 90
        3
176
     1
 62
     5
420
      255
176
     1
290
     0
176
     1
 90
       50
176
     1
 90
       50
176
     1
 90
       50
176
     1
290
     0
176
     1
 90
       50
176
     1
 62
   256
176
     0
 40
1.0
176
     0
 90
        2
176
     1
  1
strokes_ogs.tif
176
     1
290
     0
176
     1
 40
1.0
176
     1
 40
1.0
176
     1
  0
VISUALSTYLE
  5
100000F
102
{ACAD_REACTORS
330
1000003
102
}
330
1000003
100
AcDbVisualStyle
  2
Brighten
 70
    12
177
     3
291
     1
 70
    58
 90
        2
176
     1
 90
        2
176
     1
 90
        0
176
     1
 90
        0
176
     1
 40
0.6
176
     1
 40
30.0
176
     1
 62
     7
420
 16777215
176
     1
 90
        1
176
     1
 90
        4
176
     1
 62
     7
176
     1
 62
   257
176
     1
 90
        1
176
     1
 90
        1
176
     1
 40
1.0
176
     1
 90
        8
176
     1
 62
     7
176
     1
 40
1.0
176
     1
 90
        1
176
     1
 90
        6
176
     1
 90
        2
176
     1
 62
     7
176
     1
 90
        5
176
     1
 90
        0
176
     1
 90
        0
176
     1
290
     0
176
     1
 90
        1
176
     1
 40
50.0
176
     1
 90
        0
176
     1
290
     0
176
     1
290
     1
176
     1
290
     1
176
     1
290
     0
176
     1
290
     0
176
     1
290
     0
176
     1
290
     0
176
     1
290
     0
176
     1
290
     0
176
     1
 90
       50
176
     1
 40
0.0
176
     1
 40
1.0
176
     1
 90
        0
176
     1
 62
    18
420
        0
176
     1
 90
       50
176
     1
 90
        3
176
     1
 62
     5
420
      255
176
     1
290
     0
176
     1
 90
       50
176
     1
 90
       50
176
     1
 90
       50
176
     1
290
     0
176
     1
 90
       50
176
     1
 62
   256
176
     0
 40
1.0
176
     0
 90
        2
176
     1
  1
strokes_ogs.tif
176
     1
290
     0
176
     1
 40
1.0
176
     1
 40
1.0
176
     1
  0
VISUALSTYLE
  5
1000013
102
{ACAD_REACTORS
330
1000003
102
}
330
1000003
100
AcDbVisualStyle
  2
ColorChange
 70
    16
177
     3
291
     1
 70
    58
 90
        2
176
     1
 90
        2
176
     1
 90
        3
176
     1
 90
        0
176
     1
 40
0.6
176
     1
 40
30.0
176
     1
 62
     8
420
  8421504
176
     1
 90
        1
176
     1
 90
        4
176
     1
 62
     7
176
     1
 62
   257
176
     1
 90
        1
176
     1
 90
        1
176
     1
 40
1.0
176
     1
 90
        8
176
     1
 62
     8
420
  8421504
176
     1
 40
1.0
176
     1
 90
        1
176
     1
 90
        6
176
     1
 90
        2
176
     1
 62
     7
176
     1
 90
        5
176
     1
 90
        0
176
     1
 90
        0
176
     1
290
     0
176
     1
 90
        1
176
     1
 40
0.0
176
     1
 90
        0
176
     1
290
     0
176
     1
290
     1
176
     1
290
     1
176
     1
290
     0
176
     1
290
     0
176
     1
290
     0
176
     1
290
     0
176
     1
290
     0
176
     1
290
     0
176
     1
 90
       50
176
     1
 40
0.0
176
     1
 40
1.0
176
     1
 90
        0
176
     1
 62
    18
420
        0
176
     1
 90
       50
176
     1
 90
        3
176
     1
 62
     5
420
      255
176
     1
290
     0
176
     1
 90
       50
176
     1
 90
       50
176
     1
 90
       50
176
     1
290
     0
176
     1
 90
       50
176
     1
 62
   256
176
     0
 40
1.0
176
     0
 90
        2
176
     1
  1
strokes_ogs.tif
176
     1
290
     0
176
     1
 40
1.0
176
     1
 40
1.0
176
     1
  0
VISUALSTYLE
  5
100000D
102
{ACAD_REACTORS
330
1000003
102
}
330
1000003
100
AcDbVisualStyle
  2
Conceptual
 70
     9
177
     3
291
     0
 70
    58
 90
        3
176
     1
 90
        2
176
     1
 90
        0
176
     1
 90
        0
176
     1
 40
0.6
176
     1
 40
30.0
176
     1
 62
     7
420
 16777215
176
     1
 90
        2
176
     1
 90
        2
176
     1
 62
     7
176
     1
 62
   257
176
     1
 90
        1
176
     1
 90
        1
176
     1
 40
179.0
176
     1
 90
        8
176
     1
 62
     7
176
     1
 40
1.0
176
     1
 90
        1
176
     1
 90
        6
176
     1
 90
        2
176
     1
 62
     7
176
     1
 90
        3
176
     1
 90
        0
176
     1
 90
        0
176
     1
290
     0
176
     1
 90
        1
176
     1
 40
0.0
176
     1
 90
        0
176
     1
290
     0
176
     1
290
     1
176
     1
290
     1
176
     1
290
     0
176
     1
290
     0
176
     1
290
     0
176
     1
290
     0
176
     1
290
     0
176
     1
290
     0
176
     1
 90
       50
176
     1
 40
0.0
176
     1
 40
1.0
176
     1
 90
        0
176
     1
 62
    18
420
        0
176
     1
 90
       50
176
     1
 90
        3
176
     1
 62
     5
420
      255
176
     1
290
     0
176
     1
 90
       50
176
     1
 90
       50
176
     1
 90
       50
176
     1
290
     0
176
     1
 90
       50
176
     1
 62
   256
176
     0
 40
1.0
176
     0
 90
        2
176
     1
  1
strokes_ogs.tif
176
     1
290
     0
176
     1
 40
1.0
176
     1
 40
1.0
176
     1
  0
VISUALSTYLE
  5
100000E
102
{ACAD_REACTORS
330
1000003
102
}
330
1000003
100
AcDbVisualStyle
  2
Dim
 70
    11
177
     3
291
     1
 70
    58
 90
        2
176
     1
 90
        2
176
     1
 90
        0
176
     1
 90
        0
176
     1
 40
0.6
176
     1
 40
30.0
176
     1
 62
     7
420
 16777215
176
     1
 90
        1
176
     1
 90
        4
176
     1
 62
     7
176
     1
 62
   257
176
     1
 90
        1
176
     1
 90
        1
176
     1
 40
1.0
176
     1
 90
        8
176
     1
 62
     7
176
     1
 40
1.0
176
     1
 90
        1
176
     1
 90
        6
176
     1
 90
        2
176
     1
 62
     7
176
     1
 90
        5
176
     1
 90
        0
176
     1
 90
        0
176
     1
290
     0
176
     1
 90
        1
176
     1
 40
-50.0
176
     1
 90
        0
176
     1
290
     0
176
     1
290
     1
176
     1
290
     1
176
     1
290
     0
176
     1
290
     0
176
     1
290
     0
176
     1
290
     0
176
     1
290
     0
176
     1
290
     0
176
     1
 90
       50
176
     1
 40
0.0
176
     1
 40
1.0
176
     1
 90
        0
176
     1
 62
    18
420
        0
176
     1
 90
       50
176
     1
 90
        3
176
     1
 62
     5
420
      255
176
     1
290
     0
176
     1
 90
       50
176
     1
 90
       50
176
     1
 90
       50
176
     1
290
     0
176
     1
 90
       50
176
     1
 62
   256
176
     0
 40
1.0
176
     0
 90
        2
176
     1
  1
strokes_ogs.tif
176
     1
290
     0
176
     1
 40
1.0
176
     1
 40
1.0
176
     1
  0
VISUALSTYLE
  5
1000016
102
{ACAD_REACTORS
330
1000003
102
}
330
1000003
100
AcDbVisualStyle
  2
EdgeColorOff
 70
    22
177
     3
291
     1
 70
    58
 90
        2
176
     0
 90
        2
176
     0
 90
        0
176
     0
 90
        0
176
     0
 40
0.6
176
     0
 40
30.0
176
     0
 62
     7
420
 16777215
176
     0
 90
        1
176
     0
 90
        4
176
     0
 62
     7
176
     0
 62
   257
176
     0
 90
        1
176
     0
 90
        1
176
     0
 40
1.0
176
     0
 90
        8
176
     2
 62
     7
176
     0
 40
1.0
176
     0
 90
        1
176
     0
 90
        6
176
     0
 90
        2
176
     0
 62
     7
176
     0
 90
        5
176
     0
 90
        0
176
     0
 90
        0
176
     0
290
     0
176
     0
 90
        1
176
     0
 40
0.0
176
     0
 90
        0
176
     0
290
     0
176
     0
290
     1
176
     0
290
     1
176
     0
290
     0
176
     0
290
     0
176
     0
290
     0
176
     0
290
     0
176
     0
290
     0
176
     0
290
     0
176
     0
 90
       50
176
     0
 40
0.0
176
     0
 40
1.0
176
     0
 90
        0
176
     0
 62
    18
420
        0
176
     0
 90
       50
176
     0
 90
        3
176
     0
 62
     5
420
      255
176
     0
290
     0
176
     0
 90
       50
176
     0
 90
       50
176
     0
 90
       50
176
     0
290
     0
176
     0
 90
       50
176
     0
 62
   256
176
     0
 40
1.0
176
     0
 90
        2
176
     0
  1
strokes_ogs.tif
176
     0
290
     0
176
     0
 40
1.0
176
     0
 40
1.0
176
     0
  0
VISUALSTYLE
  5
1000012
102
{ACAD_REACTORS
330
1000003
102
}
330
1000003
100
AcDbVisualStyle
  2
Facepattern
 70
    15
177
     3
291
     1
 70
    58
 90
        2
176
     1
 90
        2
176
     1
 90
        0
176
     1
 90
        0
176
     1
 40
0.6
176
     1
 40
30.0
176
     1
 62
     7
420
 16777215
176
     1
 90
        1
176
     1
 90
        4
176
     1
 62
     7
176
     1
 62
   257
176
     1
 90
        1
176
     1
 90
        1
176
     1
 40
1.0
176
     1
 90
        8
176
     1
 62
     7
176
     1
 40
1.0
176
     1
 90
        1
176
     1
 90
        6
176
     1
 90
        2
176
     1
 62
     7
176
     1
 90
        5
176
     1
 90
        0
176
     1
 90
        0
176
     1
290
     0
176
     1
 90
        1
176
     1
 40
0.0
176
     1
 90
        0
176
     1
290
     0
176
     1
290
     1
176
     1
290
     1
176
     1
290
     0
176
     1
290
     0
176
     1
290
     0
176
     1
290
     0
176
     1
290
     0
176
     1
290
     0
176
     1
 90
       50
176
     1
 40
0.0
176
     1
 40
1.0
176
     1
 90
        0
176
     1
 62
    18
420
        0
176
     1
 90
       50
176
     1
 90
        3
176
     1
 62
     5
420
      255
176
     1
290
     0
176
     1
 90
       50
176
     1
 90
       50
176
     1
 90
       50
176
     1
290
     0
176
     1
 90
       50
176
     1
 62
   256
176
     0
 40
1.0
176
     0
 90
        2
176
     1
  1
strokes_ogs.tif
176
     1
290
     0
176
     1
 40
1.0
176
     1
 40
1.0
176
     1
  0
VISUALSTYLE
  5
1000004
102
{ACAD_REACTORS
330
1000003
102
}
330
1000003
100
AcDbVisualStyle
  2
Flat
 70
     0
177
     3
291
     1
 70
    58
 90
        2
176
     1
 90
        1
176
     1
 90
        1
176
     1
 90
        2
176
     1
 40
0.6
176
     1
 40
30.0
176
     1
 62
     7
420
 16777215
176
     1
 90
        0
176
     1
 90
        0
176
     1
 62
     7
176
     1
 62
   257
176
     1
 90
        1
176
     1
 90
        1
176
     1
 40
1.0
176
     1
 90
        8
176
     1
 62
     7
176
     1
 40
1.0
176
     1
 90
        1
176
     1
 90
        6
176
     1
 90
        2
176
     1
 62
     7
176
     1
 90
        5
176
     1
 90
        0
176
     1
 90
        0
176
     1
290
     0
176
     1
 90
       13
176
     1
 40
0.0
176
     1
 90
        0
176
     1
290
     0
176
     1
290
     1
176
     1
290
     1
176
     1
290
     0
176
     1
290
     0
176
     1
290
     0
176
     1
290
     0
176
     1
290
     0
176
     1
290
     0
176
     1
 90
       50
176
     1
 40
0.0
176
     1
 40
1.0
176
     1
 90
        0
176
     1
 62
    18
420
        0
176
     1
 90
       50
176
     1
 90
        3
176
     1
 62
     5
420
      255
176
     1
290
     0
176
     1
 90
       50
176
     1
 90
       50
176
     1
 90
       50
176
     1
290
     0
176
     1
 90
       50
176
     1
 62
   256
176
     0
 40
1.0
176
     0
 90
        2
176
     1
  1
strokes_ogs.tif
176
     1
290
     0
176
     1
 40
1.0
176
     1
 40
1.0
176
     1
  0
VISUALSTYLE
  5
1000005
102
{ACAD_REACTORS
330
1000003
102
}
330
1000003
100
AcDbVisualStyle
  2
FlatWithEdges
 70
     1
177
     3
291
     1
 70
    58
 90
        2
176
     1
 90
        1
176
     1
 90
        1
176
     1
 90
        2
176
     1
 40
0.6
176
     1
 40
30.0
176
     1
 62
     7
420
 16777215
176
     1
 90
        1
176
     1
 90
        0
176
     1
 62
     7
176
     1
 62
   257
176
     1
 90
        1
176
     1
 90
        1
176
     1
 40
1.0
176
     1
 90
        0
176
     1
 62
   257
176
     1
 40
1.0
176
     1
 90
        1
176
     1
 90
        6
176
     1
 90
        2
176
     1
 62
     7
176
     1
 90
        5
176
     1
 90
        0
176
     1
 90
        0
176
     1
290
     0
176
     1
 90
       13
176
     1
 40
0.0
176
     1
 90
        0
176
     1
290
     0
176
     1
290
     1
176
     1
290
     1
176
     1
290
     0
176
     1
290
     0
176
     1
290
     0
176
     1
290
     0
176
     1
290
     0
176
     1
290
     0
176
     1
 90
       50
176
     1
 40
0.0
176
     1
 40
1.0
176
     1
 90
        0
176
     1
 62
    18
420
        0
176
     1
 90
       50
176
     1
 90
        3
176
     1
 62
     5
420
      255
176
     1
290
     0
176
     1
 90
       50
176
     1
 90
       50
176
     1
 90
       50
176
     1
290
     0
176
     1
 90
       50
176
     1
 62
   256
176
     0
 40
1.0
176
     0
 90
        2
176
     1
  1
strokes_ogs.tif
176
     1
290
     0
176
     1
 40
1.0
176
     1
 40
1.0
176
     1
  0
VISUALSTYLE
  5
1000006
102
{ACAD_REACTORS
330
1000003
102
}
330
1000003
100
AcDbVisualStyle
  2
Gouraud
 70
     2
177
     3
291
     1
 70
    58
 90
        2
176
     1
 90
        2
176
     1
 90
        1
176
     1
 90
        2
176
     1
 40
0.6
176
     1
 40
30.0
176
     1
 62
     7
420
 16777215
176
     1
 90
        0
176
     1
 90
        0
176
     1
 62
     7
176
     1
 62
   257
176
     1
 90
        1
176
     1
 90
        1
176
     1
 40
1.0
176
     1
 90
        0
176
     1
 62
     7
176
     1
 40
1.0
176
     1
 90
        1
176
     1
 90
        6
176
     1
 90
        2
176
     1
 62
     7
176
     1
 90
        5
176
     1
 90
        0
176
     1
 90
        0
176
     1
290
     0
176
     1
 90
       13
176
     1
 40
0.0
176
     1
 90
        0
176
     1
290
     0
176
     1
290
     1
176
     1
290
     1
176
     1
290
     0
176
     1
290
     0
176
     1
290
     0
176
     1
290
     0
176
     1
290
     0
176
     1
290
     0
176
     1
 90
       50
176
     1
 40
0.0
176
     1
 40
1.0
176
     1
 90
        0
176
     1
 62
    18
420
        0
176
     1
 90
       50
176
     1
 90
        3
176
     1
 62
     5
420
      255
176
     1
290
     0
176
     1
 90
       50
176
     1
 90
       50
176
     1
 90
       50
176
     1
290
     0
176
     1
 90
       50
176
     1
 62
   256
176
     0
 40
1.0
176
     0
 90
        2
176
     1
  1
strokes_ogs.tif
176
     1
290
     0
176
     1
 40
1.0
176
     1
 40
1.0
176
     1
  0
VISUALSTYLE
  5
1000007
102
{ACAD_REACTORS
330
1000003
102
}
330
1000003
100
AcDbVisualStyle
  2
GouraudWithEdges
 70
     3
177
     3
291
     1
 70
    58
 90
        2
176
     1
 90
        2
176
     1
 90
        1
176
     1
 90
        2
176
     1
 40
0.6
176
     1
 40
30.0
176
     1
 62
     7
420
 16777215
176
     1
 90
        1
176
     1
 90
        0
176
     1
 62
     7
176
     1
 62
   257
176
     1
 90
        1
176
     1
 90
        1
176
     1
 40
1.0
176
     1
 90
        0
176
     1
 62
   257
176
     1
 40
1.0
176
     1
 90
        1
176
     1
 90
        6
176
     1
 90
        2
176
     1
 62
     7
176
     1
 90
        5
176
     1
 90
        0
176
     1
 90
        0
176
     1
290
     0
176
     1
 90
       13
176
     1
 40
0.0
176
     1
 90
        0
176
     1
290
     0
176
     1
290
     1
176
     1
290
     1
176
     1
290
     0
176
     1
290
     0
176
     1
290
     0
176
     1
290
     0
176
     1
290
     0
176
     1
290
     0
176
     1
 90
       50
176
     1
 40
0.0
176
     1
 40
1.0
176
     1
 90
        0
176
     1
 62
    18
420
        0
176
     1
 90
       50
176
     1
 90
        3
176
     1
 62
     5
420
      255
176
     1
290
     0
176
     1
 90
       50
176
     1
 90
       50
176
     1
 90
       50
176
     1
290
     0
176
     1
 90
       50
176
     1
 62
   256
176
     0
 40
1.0
176
     0
 90
        2
176
     1
  1
strokes_ogs.tif
176
     1
290
     0
176
     1
 40
1.0
176
     1
 40
1.0
176
     1
  0
VISUALSTYLE
  5
100000A
102
{ACAD_REACTORS
330
1000003
102
}
330
1000003
100
AcDbVisualStyle
  2
Hidden
 70
     6
177
     3
291
     0
 70
    58
 90
        1
176
     1
 90
        2
176
     1
 90
        2
176
     1
 90
        0
176
     1
 40
0.6
176
     1
 40
30.0
176
     1
 62
     7
420
 16777215
176
     1
 90
        2
176
     1
 90
        2
176
     1
 62
     7
176
     1
 62
   257
176
     1
 90
        2
176
     1
 90
        1
176
     1
 40
40.0
176
     1
 90
        0
176
     1
 62
   257
176
     1
 40
1.0
176
     1
 90
        1
176
     1
 90
        6
176
     1
 90
        2
176
     1
 62
     7
176
     1
 90
        3
176
     1
 90
        0
176
     1
 90
        0
176
     1
290
     0
176
     1
 90
        1
176
     1
 40
0.0
176
     1
 90
        0
176
     1
290
     0
176
     1
290
     1
176
     1
290
     1
176
     1
290
     0
176
     1
290
     0
176
     1
290
     0
176
     1
290
     0
176
     1
290
     0
176
     1
290
     0
176
     1
 90
       50
176
     1
 40
0.0
176
     1
 40
1.0
176
     1
 90
        0
176
     1
 62
    18
420
        0
176
     1
 90
       50
176
     1
 90
        3
176
     1
 62
     5
420
      255
176
     1
290
     0
176
     1
 90
       50
176
     1
 90
       50
176
     1
 90
       50
176
     1
290
     0
176
     1
 90
       50
176
     1
 62
   256
176
     0
 40
1.0
176
     0
 90
        2
176
     1
  1
strokes_ogs.tif
176
     1
290
     0
176
     1
 40
1.0
176
     1
 40
1.0
176
     1
  0
VISUALSTYLE
  5
1000014
102
{ACAD_REACTORS
330
1000003
102
}
330
1000003
100
AcDbVisualStyle
  2
JitterOff
 70
    20
177
     3
291
     1
 70
    58
 90
        2
176
     0
 90
        2
176
     0
 90
        0
176
     0
 90
        0
176
     0
 40
0.6
176
     0
 40
30.0
176
     0
 62
     7
420
 16777215
176
     0
 90
        1
176
     0
 90
        4
176
     0
 62
     7
176
     0
 62
   257
176
     0
 90
        1
176
     0
 90
        1
176
     0
 40
1.0
176
     0
 90
       10
176
     2
 62
     7
176
     0
 40
1.0
176
     0
 90
        1
176
     0
 90
        6
176
     0
 90
        2
176
     0
 62
     7
176
     0
 90
        5
176
     0
 90
        0
176
     0
 90
        0
176
     0
290
     0
176
     0
 90
        1
176
     0
 40
0.0
176
     0
 90
        0
176
     0
290
     0
176
     0
290
     1
176
     0
290
     1
176
     0
290
     0
176
     0
290
     0
176
     0
290
     0
176
     0
290
     0
176
     0
290
     0
176
     0
290
     0
176
     0
 90
       50
176
     0
 40
0.0
176
     0
 40
1.0
176
     0
 90
        0
176
     0
 62
    18
420
        0
176
     0
 90
       50
176
     0
 90
        3
176
     0
 62
     5
420
      255
176
     0
290
     0
176
     0
 90
       50
176
     0
 90
       50
176
     0
 90
       50
176
     0
290
     0
176
     0
 90
       50
176
     0
 62
   256
176
     0
 40
1.0
176
     0
 90
        2
176
     0
  1
strokes_ogs.tif
176
     0
290
     0
176
     0
 40
1.0
176
     0
 40
1.0
176
     0
  0
VISUALSTYLE
  5
1000011
102
{ACAD_REACTORS
330
1000003
102
}
330
1000003
100
AcDbVisualStyle
  2
Linepattern
 70
    14
177
     3
291
     1
 70
    58
 90
        2
176
     1
 90
        2
176
     1
 90
        0
176
     1
 90
        0
176
     1
 40
0.6
176
     1
 40
30.0
176
     1
 62
     7
420
 16777215
176
     1
 90
        1
176
     1
 90
        4
176
     1
 62
     7
176
     1
 62
   257
176
     1
 90
        7
176
     1
 90
        7
176
     1
 40
1.0
176
     1
 90
        8
176
     1
 62
     7
176
     1
 40
1.0
176
     1
 90
        1
176
     1
 90
        6
176
     1
 90
        2
176
     1
 62
     7
176
     1
 90
        5
176
     1
 90
        0
176
     1
 90
        0
176
     1
290
     0
176
     1
 90
        1
176
     1
 40
0.0
176
     1
 90
        0
176
     1
290
     0
176
     1
290
     1
176
     1
290
     1
176
     1
290
     0
176
     1
290
     0
176
     1
290
     0
176
     1
290
     0
176
     1
290
     0
176
     1
290
     0
176
     1
 90
       50
176
     1
 40
0.0
176
     1
 40
1.0
176
     1
 90
        0
176
     1
 62
    18
420
        0
176
     1
 90
       50
176
     1
 90
        3
176
     1
 62
     5
420
      255
176
     1
290
     0
176
     1
 90
       50
176
     1
 90
       50
176
     1
 90
       50
176
     1
290
     0
176
     1
 90
       50
176
     1
 62
   256
176
     0
 40
1.0
176
     0
 90
        2
176
     1
  1
strokes_ogs.tif
176
     1
290
     0
176
     1
 40
1.0
176
     1
 40
1.0
176
     1
  0
VISUALSTYLE
  5
1000015
102
{ACAD_REACTORS
330
1000003
102
}
330
1000003
100
AcDbVisualStyle
  2
OverhangOff
 70
    21
177
     3
291
     1
 70
    58
 90
        2
176
     0
 90
        2
176
     0
 90
        0
176
     0
 90
        0
176
     0
 40
0.6
176
     0
 40
30.0
176
     0
 62
     7
420
 16777215
176
     0
 90
        1
176
     0
 90
        4
176
     0
 62
     7
176
     0
 62
   257
176
     0
 90
        1
176
     0
 90
        1
176
     0
 40
1.0
176
     0
 90
        9
176
     2
 62
     7
176
     0
 40
1.0
176
     0
 90
        1
176
     0
 90
        6
176
     0
 90
        2
176
     0
 62
     7
176
     0
 90
        5
176
     0
 90
        0
176
     0
 90
        0
176
     0
290
     0
176
     0
 90
        1
176
     0
 40
0.0
176
     0
 90
        0
176
     0
290
     0
176
     0
290
     1
176
     0
290
     1
176
     0
290
     0
176
     0
290
     0
176
     0
290
     0
176
     0
290
     0
176
     0
290
     0
176
     0
290
     0
176
     0
 90
       50
176
     0
 40
0.0
176
     0
 40
1.0
176
     0
 90
        0
176
     0
 62
    18
420
        0
176
     0
 90
       50
176
     0
 90
        3
176
     0
 62
     5
420
      255
176
     0
290
     0
176
     0
 90
       50
176
     0
 90
       50
176
     0
 90
       50
176
     0
290
     0
176
     0
 90
       50
176
     0
 62
   256
176
     0
 40
1.0
176
     0
 90
        2
176
     0
  1
strokes_ogs.tif
176
     0
290
     0
176
     0
 40
1.0
176
     0
 40
1.0
176
     0
  0
VISUALSTYLE
  5
100000C
102
{ACAD_REACTORS
330
1000003
102
}
330
1000003
100
AcDbVisualStyle
  2
Realistic
 70
     8
177
     3
291
     0
 70
    58
 90
        2
176
     1
 90
        3
176
     1
 90
        0
176
     1
 90
        2
176
     1
 40
0.6
176
     1
 40
30.0
176
     1
 62
     7
420
 16777215
176
     1
 90
        0
176
     1
 90
        0
176
     1
 62
     7
176
     1
 62
   257
176
     1
 90
        1
176
     1
 90
        1
176
     1
 40
1.0
176
     1
 90
        8
176
     1
 62
   257
176
     1
 40
1.0
176
     1
 90
        1
176
     1
 90
        6
176
     1
 90
        2
176
     1
 62
     7
176
     1
 90
        3
176
     1
 90
        0
176
     1
 90
        0
176
     1
290
     0
176
     1
 90
       13
176
     1
 40
0.0
176
     1
 90
        0
176
     1
290
     0
176
     1
290
     1
176
     1
290
     1
176
     1
290
     0
176
     1
290
     0
176
     1
290
     0
176
     1
290
     0
176
     1
290
     0
176
     1
290
     0
176
     1
 90
       50
176
     1
 40
0.0
176
     1
 40
1.0
176
     1
 90
        0
176
     1
 62
    18
420
        0
176
     1
 90
       50
176
     1
 90
        3
176
     1
 62
     5
420
      255
176
     1
290
     0
176
     1
 90
       50
176
     1
 90
       50
176
     1
 90
       50
176
     1
290
     0
176
     1
 90
       50
176
     1
 62
   256
176
     0
 40
1.0
176
     0
 90
        2
176
     1
  1
strokes_ogs.tif
176
     1
290
     0
176
     1
 40
1.0
176
     1
 40
1.0
176
     1
  0
VISUALSTYLE
  5
100001B
102
{ACAD_REACTORS
330
1000003
102
}
330
1000003
100
AcDbVisualStyle
  2
Shaded
 70
    27
177
     3
291
     0
 70
    58
 90
        2
176
     1
 90
        2
176
     1
 90
        1
176
     1
 90
        2
176
     1
 40
0.6
176
     1
 40
30.0
176
     1
 62
     7
420
 16777215
176
     1
 90
        0
176
     1
 90
        4
176
     1
 62
     7
176
     1
 62
   257
176
     1
 90
        1
176
     1
 90
        1
176
     1
 40
1.0
176
     1
 90
        8
176
     1
 62
   257
176
     1
 40
1.0
176
     1
 90
        1
176
     1
 90
        6
176
     1
 90
        2
176
     1
 62
     8
420
  7895160
176
     1
 90
        3
176
     1
 90
        0
176
     1
 90
        0
176
     1
290
     0
176
     1
 90
        5
176
     1
 40
0.0
176
     1
 90
        0
176
     1
290
     0
176
     1
290
     1
176
     1
290
     1
176
     1
290
     0
176
     1
290
     0
176
     1
290
     0
176
     1
290
     0
176
     1
290
     0
176
     1
290
     0
176
     1
 90
       50
176
     1
 40
0.0
176
     1
 40
1.0
176
     1
 90
        0
176
     1
 62
    18
420
        0
176
     1
 90
       50
176
     1
 90
        3
176
     1
 62
     5
420
      255
176
     1
290
     0
176
     1
 90
       50
176
     1
 90
       50
176
     1
 90
       50
176
     1
290
     0
176
     1
 90
       50
176
     1
 62
   256
176
     0
 40
1.0
176
     0
 90
        2
176
     1
  1
strokes_ogs.tif
176
     1
290
     0
176
     1
 40
1.0
176
     1
 40
1.0
176
     1
  0
VISUALSTYLE
  5
100001A
102
{ACAD_REACTORS
330
1000003
102
}
330
1000003
100
AcDbVisualStyle
  2
Shaded with edges
 70
    26
177
     3
291
     0
 70
    58
 90
        2
176
     1
 90
        2
176
     1
 90
        1
176
     1
 90
        2
176
     1
 40
0.6
176
     1
 40
30.0
176
     1
 62
     7
420
 16777215
176
     1
 90
        1
176
     1
 90
       10
176
     1
 62
     7
176
     1
 62
   257
176
     1
 90
        2
176
     1
 90
        1
176
     1
 40
1.0
176
     1
 90
        8
176
     1
 62
   257
176
     1
 40
1.0
176
     1
 90
        1
176
     1
 90
        6
176
     1
 90
        2
176
     1
 62
     7
176
     1
 90
        3
176
     1
 90
        0
176
     1
 90
        0
176
     1
290
     0
176
     1
 90
        5
176
     1
 40
0.0
176
     1
 90
        0
176
     1
290
     0
176
     1
290
     1
176
     1
290
     1
176
     1
290
     0
176
     1
290
     0
176
     1
290
     0
176
     1
290
     0
176
     1
290
     0
176
     1
290
     0
176
     1
 90
       50
176
     1
 40
0.0
176
     1
 40
1.0
176
     1
 90
        0
176
     1
 62
    18
420
        0
176
     1
 90
       50
176
     1
 90
        3
176
     1
 62
     5
420
      255
176
     1
290
     0
176
     1
 90
       50
176
     1
 90
       50
176
     1
 90
       50
176
     1
290
     0
176
     1
 90
       50
176
     1
 62
   256
176
     0
 40
1.0
176
     0
 90
        2
176
     1
  1
strokes_ogs.tif
176
     1
290
     0
176
     1
 40
1.0
176
     1
 40
1.0
176
     1
  0
VISUALSTYLE
  5
1000017
102
{ACAD_REACTORS
330
1000003
102
}
330
1000003
100
AcDbVisualStyle
  2
Shades of Gray
 70
    23
177
     3
291
     0
 70
    58
 90
        2
176
     1
 90
        2
176
     1
 90
        3
176
     1
 90
        0
176
     1
 40
0.6
176
     1
 40
30.0
176
     1
 62
     7
420
 16777215
176
     1
 90
        2
176
     1
 90
        2
176
     1
 62
     7
176
     1
 62
     7
176
     1
 90
        1
176
     1
 90
        1
176
     1
 40
40.0
176
     1
 90
        8
176
     1
 62
     7
176
     1
 40
1.0
176
     1
 90
        1
176
     1
 90
        6
176
     1
 90
        2
176
     1
 62
     7
176
     1
 90
        3
176
     1
 90
        0
176
     1
 90
        0
176
     1
290
     0
176
     1
 90
        1
176
     1
 40
0.0
176
     1
 90
        0
176
     1
290
     0
176
     1
290
     1
176
     1
290
     1
176
     1
290
     0
176
     1
290
     0
176
     1
290
     0
176
     1
290
     0
176
     1
290
     0
176
     1
290
     0
176
     1
 90
       50
176
     1
 40
0.0
176
     1
 40
1.0
176
     1
 90
        0
176
     1
 62
    18
420
        0
176
     1
 90
       50
176
     1
 90
        3
176
     1
 62
     5
420
      255
176
     1
290
     0
176
     1
 90
       50
176
     1
 90
       50
176
     1
 90
       50
176
     1
290
     0
176
     1
 90
       50
176
     1
 62
   256
176
     0
 40
1.0
176
     0
 90
        2
176
     1
  1
strokes_ogs.tif
176
     1
290
     0
176
     1
 40
1.0
176
     1
 40
1.0
176
     1
  0
VISUALSTYLE
  5
1000018
102
{ACAD_REACTORS
330
1000003
102
}
330
1000003
100
AcDbVisualStyle
  2
Sketchy
 70
    24
177
     3
291
     0
 70
    58
 90
        1
176
     1
 90
        2
176
     1
 90
        2
176
     1
 90
        0
176
     1
 40
0.6
176
     1
 40
30.0
176
     1
 62
     7
420
 16777215
176
     1
 90
        2
176
     1
 90
        2
176
     1
 62
     7
176
     1
 62
     7
176
     1
 90
        1
176
     1
 90
        1
176
     1
 40
40.0
176
     1
 90
       11
176
     1
 62
     7
176
     1
 40
1.0
176
     1
 90
        1
176
     1
 90
        6
176
     1
 90
        2
176
     1
 62
     7
176
     1
 90
        6
176
     1
 90
        0
176
     1
 90
        0
176
     1
290
     0
176
     1
 90
        1
176
     1
 40
0.0
176
     1
 90
        0
176
     1
290
     0
176
     1
290
     1
176
     1
290
     1
176
     1
290
     0
176
     1
290
     0
176
     1
290
     0
176
     1
290
     0
176
     1
290
     0
176
     1
290
     0
176
     1
 90
       50
176
     1
 40
0.0
176
     1
 40
1.0
176
     1
 90
        0
176
     1
 62
    18
420
        0
176
     1
 90
       50
176
     1
 90
        3
176
     1
 62
     5
420
      255
176
     1
290
     0
176
     1
 90
       50
176
     1
 90
       50
176
     1
 90
       50
176
     1
290
     0
176
     1
 90
       50
176
     1
 62
   256
176
     0
 40
1.0
176
     0
 90
        2
176
     1
  1
strokes_ogs.tif
176
     1
290
     0
176
     1
 40
1.0
176
     1
 40
1.0
176
     1
  0
VISUALSTYLE
  5
1000010
102
{ACAD_REACTORS
330
1000003
102
}
330
1000003
100
AcDbVisualStyle
  2
Thicken
 70
    13
177
     3
291
     1
 70
    58
 90
        2
176
     1
 90
        2
176
     1
 90
        0
176
     1
 90
        0
176
     1
 40
0.6
176
     1
 40
30.0
176
     1
 62
     7
420
 16777215
176
     1
 90
        1
176
     1
 90
        4
176
     1
 62
     7
176
     1
 62
   257
176
     1
 90
        1
176
     1
 90
        1
176
     1
 40
1.0
176
     1
 90
       12
176
     1
 62
     7
176
     1
 40
1.0
176
     1
 90
        1
176
     1
 90
        6
176
     1
 90
        2
176
     1
 62
     7
176
     1
 90
        5
176
     1
 90
        0
176
     1
 90
        0
176
     1
290
     0
176
     1
 90
        1
176
     1
 40
0.0
176
     1
 90
        0
176
     1
290
     0
176
     1
290
     1
176
     1
290
     1
176
     1
290
     0
176
     1
290
     0
176
     1
290
     0
176
     1
290
     0
176
     1
290
     0
176
     1
290
     0
176
     1
 90
       50
176
     1
 40
0.0
176
     1
 40
1.0
176
     1
 90
        0
176
     1
 62
    18
420
        0
176
     1
 90
       50
176
     1
 90
        3
176
     1
 62
     5
420
      255
176
     1
290
     0
176
     1
 90
       50
176
     1
 90
       50
176
     1
 90
       50
176
     1
290
     0
176
     1
 90
       50
176
     1
 62
   256
176
     0
 40
1.0
176
     0
 90
        2
176
     1
  1
strokes_ogs.tif
176
     1
290
     0
176
     1
 40
1.0
176
     1
 40
1.0
176
     1
  0
VISUALSTYLE
  5
1000009
102
{ACAD_REACTORS
330
1000003
102
}
330
1000003
100
AcDbVisualStyle
  2
Wireframe
 70
     5
177
     3
291
     0
 70
    58
 90
        0
176
     1
 90
        2
176
     1
 90
        0
176
     1
 90
        0
176
     1
 40
0.6
176
     1
 40
30.0
176
     1
 62
     7
420
 16777215
176
     1
 90
        1
176
     1
 90
        4
176
     1
 62
     7
176
     1
 62
   257
176
     1
 90
        1
176
     1
 90
        1
176
     1
 40
1.0
176
     1
 90
        0
176
     1
 62
   257
176
     1
 40
1.0
176
     1
 90
        1
176
     1
 90
        6
176
     1
 90
        2
176
     1
 62
     7
176
     1
 90
        3
176
     1
 90
        0
176
     1
 90
        0
176
     1
290
     0
176
     1
 90
        1
176
     1
 40
0.0
176
     1
 90
        0
176
     1
290
     0
176
     1
290
     1
176
     1
290
     1
176
     1
290
     0
176
     1
290
     0
176
     1
290
     0
176
     1
290
     0
176
     1
290
     0
176
     1
290
     0
176
     1
 90
       50
176
     1
 40
0.0
176
     1
 40
1.0
176
     1
 90
        0
176
     1
 62
    18
420
        0
176
     1
 90
       50
176
     1
 90
        3
176
     1
 62
     5
420
      255
176
     1
290
     0
176
     1
 90
       50
176
     1
 90
       50
176
     1
 90
       50
176
     1
290
     0
176
     1
 90
       50
176
     1
 62
   256
176
     0
 40
1.0
176
     0
 90
        2
176
     1
  1
strokes_ogs.tif
176
     1
290
     0
176
     1
 40
1.0
176
     1
 40
1.0
176
     1
  0
VISUALSTYLE
  5
1000019
102
{ACAD_REACTORS
330
1000003
102
}
330
1000003
100
AcDbVisualStyle
  2
X-Ray
 70
    25
177
     3
291
     0
 70
    58
 90
        2
176
     1
 90
        2
176
     1
 90
        1
176
     1
 90
        1
176
     1
 40
0.5
176
     1
 40
30.0
176
     1
 62
     7
420
 16777215
176
     1
 90
        1
176
     1
 90
        0
176
     1
 62
     7
176
     1
 62
   257
176
     1
 90
        1
176
     1
 90
        1
176
     1
 40
1.0
176
     1
 90
        8
176
     1
 62
     7
176
     1
 40
1.0
176
     1
 90
        1
176
     1
 90
        6
176
     1
 90
        2
176
     1
 62
     7
176
     1
 90
        3
176
     1
 90
        0
176
     1
 90
        0
176
     1
290
     0
176
     1
 90
       13
176
     1
 40
0.0
176
     1
 90
        0
176
     1
290
     0
176
     1
290
     1
176
     1
290
     1
176
     1
290
     0
176
     1
290
     0
176
     1
290
     0
176
     1
290
     0
176
     1
290
     0
176
     1
290
     0
176
     1
 90
       50
176
     1
 40
0.0
176
     1
 40
1.0
176
     1
 90
        0
176
     1
 62
    18
420
        0
176
     1
 90
       50
176
     1
 90
        3
176
     1
 62
     5
420
      255
176
     1
290
     0
176
     1
 90
       50
176
     1
 90
       50
176
     1
 90
       50
176
     1
290
     0
176
     1
 90
       50
176
     1
 62
   256
176
     0
 40
1.0
176
     0
 90
        2
176
     1
  1
strokes_ogs.tif
176
     1
290
     0
176
     1
 40
1.0
176
     1
 40
1.0
176
     1
  0
DICTIONARYVAR
  5
10001AD
102
{ACAD_REACTORS
330
10001A9
102
}
330
10001A9
100
DictionaryVariables
280
     0
  1
1:1
  0
DICTIONARYVAR
  5
10001AB
102
{ACAD_REACTORS
330
10001A9
102
}
330
10001A9
100
DictionaryVariables
280
     0
  1
Standard
  0
DICTIONARYVAR
  5
10001AA
102
{ACAD_REACTORS
330
10001A9
102
}
330
10001A9
100
DictionaryVariables
280
     0
  1
Standard
  0
DICTIONARYVAR
  5
10001AC
102
{ACAD_REACTORS
330
10001A9
102
}
330
10001A9
100
DictionaryVariables
280
     0
  1
0
  0
ENDSEC
  0
SECTION
  2
ACDSDATA
 70
     2
 71
     2
  0
ACDSSCHEMA
 90
        0
  1
AcDb3DSolid_ASM_Data
  2
AcDbDs::ID
280
    10
 91
        0
  2
ASM_Data
280
    15
 91
        0
101
ACDSRECORD
 95
        0
 90
        1
  2
AcDbDs::TreatedAsObjectData
280
     1
291
     1
101
ACDSRECORD
 95
        0
 90
        2
  2
AcDbDs::Legacy
280
     1
291
     1
101
ACDSRECORD
  1
AcDbDs::ID
 90
        3
  2
AcDs:Indexable
280
     1
291
     1
101
ACDSRECORD
  1
AcDbDs::ID
 90
        4
  2
AcDbDs::HandleAttribute
280
     7
282
     1
  0
ACDSSCHEMA
 90
        1
  1
AcDbDs::TreatedAsObjectDataSchema
  2
AcDbDs::TreatedAsObjectData
280
     1
 91
        0
  0
ACDSSCHEMA
 90
        2
  1
AcDbDs::LegacySchema
  2
AcDbDs::Legacy
280
     1
 91
        0
  0
ACDSSCHEMA
 90
        3
  1
AcDbDs::IndexedPropertySchema
  2
AcDs:Indexable
280
     1
 91
        0
  0
ACDSSCHEMA
 90
        4
  1
AcDbDs::HandleAttributeSchema
  2
AcDbDs::HandleAttribute
280
     7
 91
        8
  0
ENDSEC
  0
EOF
