  0
SECTION
  2
HEADER
  9
$ACADVER
  1
AC1018
  9
$ACADMAINTVER
 70
   104
  9
$DWGCODEPAGE
  3
ANSI_1250
  9
$LASTSAVEDBY
  1
Dell
  9
$INSBASE
 10
0.0
 20
0.0
 30
0.0
  9
$EXTMIN
 10
7569407.32
 20
5714713.28
 30
0.0
  9
$EXTMAX
 10
7570735.66
 20
5715901.539999999
 30
0.18
  9
$LIMMIN
 10
7569407.32
 20
5714713.28
  9
$LIMMAX
 10
7570735.66
 20
5715901.539999999
  9
$ORTHOMODE
 70
     0
  9
$REGENMODE
 70
     1
  9
$FILLMODE
 70
     1
  9
$QTEXTMODE
 70
     0
  9
$MIRRTEXT
 70
     0
  9
$LTSCALE
 40
1.0
  9
$ATTMODE
 70
     1
  9
$TEXTSIZE
 40
0.2
  9
$TRACEWID
 40
0.05
  9
$TEXTSTYLE
  7
STANDARD
  9
$CLAYER
  8
0
  9
$CELTYPE
  6
CONTINUOUS
  9
$CECOLOR
 62
   256
  9
$CELTSCALE
 40
1.0
  9
$DISPSILH
 70
     0
  9
$DIMSCALE
 40
1.0
  9
$DIMASZ
 40
2.5
  9
$DIMEXO
 40
0.625
  9
$DIMDLI
 40
0.38
  9
$DIMRND
 40
0.0
  9
$DIMDLE
 40
0.0
  9
$DIMEXE
 40
1.25
  9
$DIMTP
 40
0.0
  9
$DIMTM
 40
0.0
  9
$DIMTXT
 40
2.5
  9
$DIMCEN
 40
0.09
  9
$DIMTSZ
 40
0.0
  9
$DIMTOL
 70
     0
  9
$DIMLIM
 70
     0
  9
$DIMTIH
 70
     1
  9
$DIMTOH
 70
     1
  9
$DIMSE1
 70
     0
  9
$DIMSE2
 70
     0
  9
$DIMTAD
 70
     0
  9
$DIMZIN
 70
     0
  9
$DIMBLK
  1

  9
$DIMASO
 70
     1
  9
$DIMSHO
 70
     1
  9
$DIMPOST
  1

  9
$DIMAPOST
  1

  9
$DIMALT
 70
     0
  9
$DIMALTD
 70
     2
  9
$DIMALTF
 40
25.4
  9
$DIMLFAC
 40
1.0
  9
$DIMTOFL
 70
     0
  9
$DIMTVP
 40
0.0
  9
$DIMTIX
 70
     0
  9
$DIMSOXD
 70
     0
  9
$DIMSAH
 70
     0
  9
$DIMBLK1
  1

  9
$DIMBLK2
  1

  9
$DIMSTYLE
  2
Standard
  9
$DIMCLRD
 70
     0
  9
$DIMCLRE
 70
     0
  9
$DIMCLRT
 70
     0
  9
$DIMTFAC
 40
1.0
  9
$DIMGAP
 40
0.625
  9
$DIMJUST
 70
     0
  9
$DIMSD1
 70
     0
  9
$DIMSD2
 70
     0
  9
$DIMTOLJ
 70
     1
  9
$DIMTZIN
 70
     0
  9
$DIMALTZ
 70
     0
  9
$DIMALTTZ
 70
     0
  9
$DIMUPT
 70
     0
  9
$DIMDEC
 70
     4
  9
$DIMTDEC
 70
     4
  9
$DIMALTU
 70
     2
  9
$DIMALTTD
 70
     2
  9
$DIMTXSTY
  7
STANDARD
  9
$DIMAUNIT
 70
     0
  9
$DIMADEC
 70
     0
  9
$DIMALTRND
 40
0.0
  9
$DIMAZIN
 70
     0
  9
$DIMDSEP
 70
    46
  9
$DIMATFIT
 70
     3
  9
$DIMFRAC
 70
     0
  9
$DIMLDRBLK
  1

  9
$DIMLUNIT
 70
     2
  9
$DIMLWD
 70
    -2
  9
$DIMLWE
 70
    -2
  9
$DIMTMOVE
 70
     0
  9
$LUNITS
 70
     2
  9
$LUPREC
 70
     4
  9
$SKETCHINC
 40
0.1
  9
$FILLETRAD
 40
0.0
  9
$AUNITS
 70
     0
  9
$AUPREC
 70
     0
  9
$MENU
  1
.
  9
$ELEVATION
 40
0.0
  9
$PELEVATION
 40
0.0
  9
$THICKNESS
 40
0.0
  9
$LIMCHECK
 70
     0
  9
$CHAMFERA
 40
0.0
  9
$CHAMFERB
 40
0.0
  9
$CHAMFERC
 40
0.0
  9
$CHAMFERD
 40
0.0
  9
$SKPOLY
 70
     0
  9
$TDCREATE
 40
2305824.257681887
  9
$TDUCREATE
 40
45027.7866186806
  9
$TDUPDATE
 40
2460046.870427292
  9
$TDUUPDATE
 40
2460046.787093959
  9
$TDINDWG
 40
0.0003846991
  9
$TDUSRTIMER
 40
0.0003845139
  9
$USRTIMER
 70
     1
  9
$ANGBASE
 50
0.0
  9
$ANGDIR
 70
     0
  9
$PDMODE
 70
     0
  9
$PDSIZE
 40
0.0
  9
$PLINEWID
 40
0.0
  9
$SPLFRAME
 70
     0
  9
$SPLINETYPE
 70
     6
  9
$SPLINESEGS
 70
     8
  9
$HANDSEED
  5
100022D
  9
$SURFTAB1
 70
     6
  9
$SURFTAB2
 70
     6
  9
$SURFTYPE
 70
     6
  9
$SURFU
 70
     6
  9
$SURFV
 70
     6
  9
$UCSBASE
  2

  9
$UCSNAME
  2

  9
$UCSORG
 10
0.0
 20
0.0
 30
0.0
  9
$UCSXDIR
 10
1.0
 20
0.0
 30
0.0
  9
$UCSYDIR
 10
0.0
 20
1.0
 30
0.0
  9
$UCSORTHOREF
  2

  9
$UCSORTHOVIEW
 70
     0
  9
$UCSORGTOP
 10
0.0
 20
0.0
 30
0.0
  9
$UCSORGBOTTOM
 10
0.0
 20
0.0
 30
0.0
  9
$UCSORGLEFT
 10
0.0
 20
0.0
 30
0.0
  9
$UCSORGRIGHT
 10
0.0
 20
0.0
 30
0.0
  9
$UCSORGFRONT
 10
0.0
 20
0.0
 30
0.0
  9
$UCSORGBACK
 10
0.0
 20
0.0
 30
0.0
  9
$PUCSBASE
  2

  9
$PUCSNAME
  2

  9
$PUCSORG
 10
0.0
 20
0.0
 30
0.0
  9
$PUCSXDIR
 10
1.0
 20
0.0
 30
0.0
  9
$PUCSYDIR
 10
0.0
 20
1.0
 30
0.0
  9
$PUCSORTHOREF
  2

  9
$PUCSORTHOVIEW
 70
     0
  9
$PUCSORGTOP
 10
0.0
 20
0.0
 30
0.0
  9
$PUCSORGBOTTOM
 10
0.0
 20
0.0
 30
0.0
  9
$PUCSORGLEFT
 10
0.0
 20
0.0
 30
0.0
  9
$PUCSORGRIGHT
 10
0.0
 20
0.0
 30
0.0
  9
$PUCSORGFRONT
 10
0.0
 20
0.0
 30
0.0
  9
$PUCSORGBACK
 10
0.0
 20
0.0
 30
0.0
  9
$USERI1
 70
     0
  9
$USERI2
 70
     0
  9
$USERI3
 70
     0
  9
$USERI4
 70
     0
  9
$USERI5
 70
     0
  9
$USERR1
 40
0.0
  9
$USERR2
 40
0.0
  9
$USERR3
 40
0.0
  9
$USERR4
 40
0.0
  9
$USERR5
 40
0.0
  9
$WORLDVIEW
 70
     1
  9
$SHADEDGE
 70
     3
  9
$SHADEDIF
 70
    70
  9
$TILEMODE
 70
     1
  9
$MAXACTVP
 70
    64
  9
$PINSBASE
 10
0.0
 20
0.0
 30
0.0
  9
$PLIMCHECK
 70
     0
  9
$PEXTMIN
 10
1.000000000000000E+20
 20
1.000000000000000E+20
 30
1.000000000000000E+20
  9
$PEXTMAX
 10
-1.000000000000000E+20
 20
-1.000000000000000E+20
 30
-1.000000000000000E+20
  9
$PLIMMIN
 10
0.0
 20
0.0
  9
$PLIMMAX
 10
210.0
 20
297.0
  9
$UNITMODE
 70
     0
  9
$VISRETAIN
 70
     1
  9
$PLINEGEN
 70
     0
  9
$PSLTSCALE
 70
     1
  9
$TREEDEPTH
 70
  3020
  9
$CMLSTYLE
  2
Standard
  9
$CMLJUST
 70
     0
  9
$CMLSCALE
 40
1.0
  9
$PROXYGRAPHICS
 70
     1
  9
$MEASUREMENT
 70
     0
  9
$CELWEIGHT
370
    -1
  9
$ENDCAPS
280
     0
  9
$JOINSTYLE
280
     0
  9
$LWDISPLAY
290
     1
  9
$INSUNITS
 70
     6
  9
$HYPERLINKBASE
  1

  9
$STYLESHEET
  1

  9
$XEDIT
290
     1
  9
$CEPSNTYPE
380
     0
  9
$PSTYLEMODE
290
     1
  9
$FINGERPRINTGUID
  2
{CD3C6C7E-05E2-4052-813C-7B5C18D3B8A5}
  9
$VERSIONGUID
  2
{E9591283-D15C-46E6-953C-B585FDF3B2B2}
  9
$EXTNAMES
290
     1
  9
$PSVPSCALE
 40
0.0
  9
$OLESTARTUP
290
     0
  9
$SORTENTS
280
   127
  9
$INDEXCTL
280
     0
  9
$HIDETEXT
280
     1
  9
$XCLIPFRAME
290
     0
  9
$HALOGAP
280
     0
  9
$OBSCOLOR
 70
   257
  9
$OBSLTYPE
280
     0
  9
$INTERSECTIONDISPLAY
280
     0
  9
$INTERSECTIONCOLOR
 70
   257
  9
$DIMASSOC
280
     2
  9
$PROJECTNAME
  1

  0
ENDSEC
  0
SECTION
  2
CLASSES
  0
CLASS
  1
ACDBDICTIONARYWDFLT
  2
AcDbDictionaryWithDefault
  3
ObjectDBX Classes
 90
        0
 91
        1
280
     0
281
     0
  0
CLASS
  1
MATERIAL
  2
AcDbMaterial
  3
ObjectDBX Classes
 90
     1153
 91
        3
280
     0
281
     0
  0
CLASS
  1
VISUALSTYLE
  2
AcDbVisualStyle
  3
ObjectDBX Classes
 90
     4095
 91
       24
280
     0
281
     0
  0
CLASS
  1
TABLESTYLE
  2
AcDbTableStyle
  3
ObjectDBX Classes
 90
     4095
 91
        1
280
     0
281
     0
  0
CLASS
  1
SCALE
  2
AcDbScale
  3
ObjectDBX Classes
 90
     1153
 91
       17
280
     0
281
     0
  0
CLASS
  1
MLEADERSTYLE
  2
AcDbMLeaderStyle
  3
ACDB_MLEADERSTYLE_CLASS
 90
     4095
 91
        1
280
     0
281
     0
  0
CLASS
  1
ACDBSECTIONVIEWSTYLE
  2
AcDbSectionViewStyle
  3
ObjectDBX Classes
 90
     1025
 91
        1
280
     0
281
     0
  0
CLASS
  1
ACDBDETAILVIEWSTYLE
  2
AcDbDetailViewStyle
  3
ObjectDBX Classes
 90
     1025
 91
        1
280
     0
281
     0
  0
CLASS
  1
SORTENTSTABLE
  2
AcDbSortentsTable
  3
ObjectDBX Classes
 90
        0
 91
        1
280
     0
281
     0
  0
CLASS
  1
DICTIONARYVAR
  2
AcDbDictionaryVar
  3
ObjectDBX Classes
 90
        0
 91
        6
280
     0
281
     0
  0
CLASS
  1
CELLSTYLEMAP
  2
AcDbCellStyleMap
  3
ObjectDBX Classes
 90
     1152
 91
        1
280
     0
281
     0
  0
ENDSEC
  0
SECTION
  2
TABLES
  0
TABLE
  2
VPORT
  5
1
330
0
100
AcDbSymbolTable
 70
     1
  0
VPORT
  5
2
330
1
100
AcDbSymbolTableRecord
100
AcDbViewportTableRecord
  2
*ACTIVE
 70
     0
 10
0.0
 20
0.0
 11
1.0
 21
1.0
 12
7570548.975777943
 22
5715299.921031841
 13
0.0
 23
0.0
 14
1.0
 24
1.0
 15
0.0
 25
0.0
 16
0.0
 26
0.0
 36
1.0
 17
0.0
 27
0.0
 37
0.0
 40
5158.704571156254
 41
2.2
 42
50.0
 43
0.0
 44
0.0
 50
0.0
 51
0.0
 71
     0
 72
   100
 73
     1
 74
     1
 75
     0
 76
     0
 77
     0
 78
     0
281
     0
 65
     1
110
0.0
120
0.0
130
0.0
111
1.0
121
0.0
131
0.0
112
0.0
122
1.0
132
0.0
 79
     0
146
0.0
1001
ACAD_NAV_VCDISPLAY
1070
     3
  0
ENDTAB
  0
TABLE
  2
LTYPE
  5
3
330
0
100
AcDbSymbolTable
 70
     4
  0
LTYPE
  5
4
330
3
100
AcDbSymbolTableRecord
100
AcDbLinetypeTableRecord
  2
ByBlock
 70
     0
  3

 72
    65
 73
     0
 40
0.0
  0
LTYPE
  5
5
330
3
100
AcDbSymbolTableRecord
100
AcDbLinetypeTableRecord
  2
ByLayer
 70
     0
  3

 72
    65
 73
     0
 40
0.0
  0
LTYPE
  5
6
330
3
100
AcDbSymbolTableRecord
100
AcDbLinetypeTableRecord
  2
CONTINUOUS
 70
     0
  3
Solid line
 72
    65
 73
     0
 40
0.0
  0
LTYPE
  5
7
330
3
100
AcDbSymbolTableRecord
100
AcDbLinetypeTableRecord
  2
L_0_03
 70
     0
  3
Uzytek_gruntowy
 72
    65
 73
     2
 40
1.0
 49
0.5
 74
     0
 49
-0.5
 74
     0
  0
LTYPE
  5
8
330
3
100
AcDbSymbolTableRecord
100
AcDbLinetypeTableRecord
  2
L_0_0A
 70
     0
  3
Gmina
 72
    65
 73
     4
 40
2.5
 49
1.5
 74
     0
 49
-0.5
 74
     0
 49
0.0
 74
     0
 49
-0.5
 74
     0
  0
LTYPE
  5
100004C
330
3
100
AcDbSymbolTableRecord
100
AcDbLinetypeTableRecord
  2
PHANTOM2
 70
     0
  3
___ _ _ ___ _ _ ___ _ _ ___ _ _
 72
    65
 73
     6
 40
1.25
 49
0.625
 74
     0
 49
-0.125
 74
     0
 49
0.125
 74
     0
 49
-0.125
 74
     0
 49
0.125
 74
     0
 49
-0.125
 74
     0
  0
ENDTAB
  0
TABLE
  2
LAYER
  5
9
330
0
100
AcDbSymbolTable
 70
     5
  0
LAYER
  5
A
102
{ACAD_XDICTIONARY
360
10001E3
102
}
330
9
100
AcDbSymbolTableRecord
100
AcDbLayerTableRecord
  2
0
 70
     0
 62
    18
420
        0
  6
CONTINUOUS
370
    18
390
B
  0
LAYER
  5
C
102
{ACAD_XDICTIONARY
360
10001E5
102
}
330
9
100
AcDbSymbolTableRecord
100
AcDbLayerTableRecord
  2
ewns_budynki
 70
     0
 62
   242
420
 14423100
  6
CONTINUOUS
370
    25
390
B
  0
LAYER
  5
D
102
{ACAD_XDICTIONARY
360
10001E7
102
}
330
9
100
AcDbSymbolTableRecord
100
AcDbLayerTableRecord
  2
ewns_dzialki
 70
     0
 62
    18
420
        0
  6
CONTINUOUS
370
    18
390
B
  0
LAYER
  5
E
102
{ACAD_XDICTIONARY
360
10001E9
102
}
330
9
100
AcDbSymbolTableRecord
100
AcDbLayerTableRecord
  2
Obrys_bud
 70
     0
 62
     6
420
 16711935
  6
CONTINUOUS
370
    18
390
B
  0
LAYER
  5
F
102
{ACAD_XDICTIONARY
360
10001EB
102
}
330
9
100
AcDbSymbolTableRecord
100
AcDbLayerTableRecord
  2
projekt_woda
 70
     0
 62
     5
420
      255
  6
L_0_03
370
    35
390
B
  0
ENDTAB
  0
TABLE
  2
STYLE
  5
10
330
0
100
AcDbSymbolTable
 70
     2
  0
STYLE
  5
11
330
10
100
AcDbSymbolTableRecord
100
AcDbTextStyleTableRecord
  2
STANDARD
 70
     0
 40
0.0
 41
1.0
 50
0.0
 71
     0
 42
0.2
  3
simplex.shx
  4

  0
STYLE
  5
12
330
10
100
AcDbSymbolTableRecord
100
AcDbTextStyleTableRecord
  2
STANDARD_ITALIC
 70
     0
 40
0.0
 41
1.0
 50
15.0
 71
     0
 42
0.2
  3
simplex.shx
  4

  0
ENDTAB
  0
TABLE
  2
VIEW
  5
13
330
0
100
AcDbSymbolTable
 70
     0
  0
ENDTAB
  0
TABLE
  2
UCS
  5
14
330
0
100
AcDbSymbolTable
 70
     0
  0
ENDTAB
  0
TABLE
  2
APPID
  5
15
330
0
100
AcDbSymbolTable
 70
     3
  0
APPID
  5
16
330
15
100
AcDbSymbolTableRecord
100
AcDbRegAppTableRecord
  2
ACAD
 70
     0
  0
APPID
  5
10001F4
330
15
100
AcDbSymbolTableRecord
100
AcDbRegAppTableRecord
  2
ACAD_NAV_VCDISPLAY
 70
     0
  0
APPID
  5
100022C
330
15
100
AcDbSymbolTableRecord
100
AcDbRegAppTableRecord
  2
ACAD_MLEADERVER
 70
     0
  0
ENDTAB
  0
TABLE
  2
DIMSTYLE
  5
17
330
0
100
AcDbSymbolTable
 70
     1
100
AcDbDimStyleTable
 71
     0
  0
DIMSTYLE
105
18
330
17
100
AcDbSymbolTableRecord
100
AcDbDimStyleTableRecord
  2
Standard
 70
     0
340
11
  0
ENDTAB
  0
TABLE
  2
BLOCK_RECORD
  5
19
330
0
100
AcDbSymbolTable
 70
     0
  0
BLOCK_RECORD
  5
1A
102
{ACAD_XDICTIONARY
360
1000052
102
}
330
19
100
AcDbSymbolTableRecord
100
AcDbBlockTableRecord
  2
*Model_Space
340
1B
  0
BLOCK_RECORD
  5
1C
330
19
100
AcDbSymbolTableRecord
100
AcDbBlockTableRecord
  2
*Paper_Space
340
1D
  0
ENDTAB
  0
ENDSEC
  0
SECTION
  2
BLOCKS
  0
BLOCK
  5
1E
330
1A
100
AcDbEntity
  8
0
100
AcDbBlockBegin
  2
*Model_Space
 70
     0
 10
0.0
 20
0.0
 30
0.0
  3
*Model_Space
  1

  0
ENDBLK
  5
1F
330
1A
100
AcDbEntity
  8
0
100
AcDbBlockEnd
  0
BLOCK
  5
20
330
1C
100
AcDbEntity
 67
     1
  8
0
100
AcDbBlockBegin
  2
*Paper_Space
 70
     0
 10
0.0
 20
0.0
 30
0.0
  3
*Paper_Space
  1

  0
ENDBLK
  5
21
330
1C
100
AcDbEntity
 67
     1
  8
0
100
AcDbBlockEnd
  0
ENDSEC
  0
SECTION
  2
ENTITIES
  0
POINT
  5
1CC
330
1A
100
AcDbEntity
  8
0
100
AcDbPoint
 10
7569787.564698125
 20
5715488.957446716
 30
0.0
  0
POINT
  5
1CD
330
1A
100
AcDbEntity
  8
0
100
AcDbPoint
 10
7569790.932914195
 20
5715479.43506984
 30
0.0
  0
POINT
  5
1CE
330
1A
100
AcDbEntity
  8
0
100
AcDbPoint
 10
7569783.296851972
 20
5715476.733684878
 30
0.0
  0
POINT
  5
1CF
330
1A
100
AcDbEntity
  8
0
100
AcDbPoint
 10
7569779.92861597
 20
5715486.255955954
 30
0.0
  0
POINT
  5
1D0
330
1A
100
AcDbEntity
  8
0
100
AcDbPoint
 10
7569787.079999996
 20
5715488.779999997
 30
0.0
  0
POINT
  5
1D1
330
1A
100
AcDbEntity
  8
0
100
AcDbPoint
 10
7569786.029999996
 20
5715491.919999996
 30
0.0
  0
POINT
  5
1D2
330
1A
100
AcDbEntity
  8
0
100
AcDbPoint
 10
7569787.499999996
 20
5715495.099999996
 30
0.0
  0
POINT
  5
1D3
330
1A
100
AcDbEntity
  8
0
100
AcDbPoint
 10
7569778.599999996
 20
5715518.169999996
 30
0.0
  0
POINT
  5
1D4
330
1A
100
AcDbEntity
  8
0
100
AcDbPoint
 10
7569775.649999996
 20
5715526.019999996
 30
0.0
  0
POINT
  5
1D5
330
1A
100
AcDbEntity
  8
0
100
AcDbPoint
 10
7569774.840968002
 20
5715528.172847847
 30
0.0
  0
POINT
  5
1D6
330
1A
100
AcDbEntity
  8
0
100
AcDbPoint
 10
7569779.706263327
 20
5715515.30241628
 30
0.0
  0
POINT
  5
1D7
330
1A
100
AcDbEntity
  8
0
100
AcDbPoint
 10
7569778.729494445
 20
5715517.834332926
 30
0.0
  0
TEXT
  5
1D9
330
1A
100
AcDbEntity
  8
Obrys_bud
370
    18
100
AcDbText
 39
0.18
 10
7569781.951596559
 20
5715487.03141969
 30
0.0
 40
0.9
  1
-8.100-
 50
-341.0
 41
0.6600000000000001
 72
     1
 11
7569783.787670444
 21
5715487.346344423
 31
0.0
100
AcDbText
 73
     1
  0
TEXT
  5
1DA
330
1A
100
AcDbEntity
  8
Obrys_bud
370
    18
100
AcDbText
 39
0.18
 10
7569788.746747773
 20
5715486.207221331
 30
0.0
 40
0.9
  1
-10.100-
 50
-71.0
 41
0.6600000000000001
 72
     1
 11
7569789.135343929
 21
5715484.1571901
 31
0.0
100
AcDbText
 73
     1
  0
TEXT
  5
1DB
330
1A
100
AcDbEntity
  8
Obrys_bud
370
    18
100
AcDbText
 39
0.18
 10
7569785.499596563
 20
5715477.301419695
 30
0.0
 40
0.9
  1
-8.100-
 50
-341.0
 41
0.6600000000000001
 72
     1
 11
7569787.335670448
 21
5715477.616344428
 31
0.0
100
AcDbText
 73
     1
  0
TEXT
  5
1DC
330
1A
100
AcDbEntity
  8
Obrys_bud
370
    18
100
AcDbText
 39
0.18
 10
7569780.587748266
 20
5715483.382360782
 30
0.0
 40
0.9
  1
-10.100-
 50
-71.0
 41
0.6600000000000001
 72
     1
 11
7569780.976344422
 21
5715481.332329552
 31
0.0
100
AcDbText
 73
     1
  0
TEXT
  5
1DD
330
1A
100
AcDbEntity
  8
projekt_woda
370
    18
100
AcDbText
 39
0.18
 10
7569784.779257843
 20
5715491.249572205
 30
0.0
 40
0.9
  1
-3.31-
 50
-72.0
 41
0.6600000000000001
 72
     1
 11
7569784.97468304
 21
5715489.677294899
 31
0.0
100
AcDbText
 73
     1
  0
TEXT
  5
1DE
330
1A
100
AcDbEntity
  8
projekt_woda
370
    18
100
AcDbText
 39
0.18
 10
7569785.920483209
 20
5715492.124844185
 30
0.0
 40
0.9
  1
-3.50-
 50
-295.0
 41
0.6600000000000001
 72
     1
 11
7569786.873756932
 21
5715493.459285806
 31
0.0
100
AcDbText
 73
     1
  0
TEXT
  5
1DF
330
1A
100
AcDbEntity
  8
projekt_woda
370
    18
100
AcDbText
 39
0.18
 10
7569783.112291067
 20
5715506.982168668
 30
0.0
 40
0.9
  1
-21.65-
 50
-69.0
 41
0.6600000000000001
 72
     1
 11
7569783.491102011
 21
5715505.158203984
 31
0.0
100
AcDbText
 73
     1
  0
TEXT
  5
1E0
330
1A
100
AcDbEntity
  8
projekt_woda
370
    18
100
AcDbText
 39
0.18
 10
7569777.702481858
 20
5715516.812384404
 30
0.0
 40
0.9
  1
-2.71-
 50
-69.0
 41
0.6600000000000001
 72
     1
 11
7569777.979925869
 21
5715515.252489613
 31
0.0
100
AcDbText
 73
     1
  0
TEXT
  5
1E1
330
1A
100
AcDbEntity
  8
projekt_woda
370
    18
100
AcDbText
 39
0.18
 10
7569776.792208472
 20
5715519.325198382
 30
0.0
 40
0.9
  1
-0.36-
 50
-69.0
 41
0.6600000000000001
 72
     1
 11
7569777.089925868
 21
5715517.712489612
 31
0.0
100
AcDbText
 73
     1
  0
TEXT
  5
1E2
330
1A
100
AcDbEntity
  8
projekt_woda
370
    18
100
AcDbText
 39
0.18
 10
7569776.715252948
 20
5715523.664704612
 30
0.0
 40
0.9
  1
-8.39-
 50
-69.0
 41
0.6600000000000001
 72
     1
 11
7569777.012970344
 21
5715522.051995842
 31
0.0
100
AcDbText
 73
     1
  0
TEXT
  5
1E3
330
1A
100
AcDbEntity
  8
projekt_woda
370
    18
100
AcDbText
 39
0.18
 10
7569773.472208472
 20
5715527.945198382
 30
0.0
 40
0.9
  1
-2.30-
 50
-69.0
 41
0.6600000000000001
 72
     1
 11
7569773.76992587
 21
5715526.332489612
 31
0.0
100
AcDbText
 73
     1
  0
TEXT
  5
1E4
330
1A
100
AcDbEntity
  8
0
370
    18
100
AcDbText
 39
0.18
 10
7569784.205411579
 20
5715483.56884587
 30
0.0
 40
0.9
  1
-12.95-
 50
-31.8
 41
0.6600000000000001
 72
     1
 11
7569785.609913262
 21
5715482.345032194
 31
0.0
100
AcDbText
 73
     1
  0
TEXT
  5
1000051
330
1A
100
AcDbEntity
  8
ewns_dzialki
  6
Continuous
100
AcDbText
 10
7569778.486469285
 20
5715464.809285714
 30
0.0
 40
0.9
  1
786/1
 41
0.6563
100
AcDbText
  0
LINE
  5
1000054
330
1A
100
AcDbEntity
  8
projekt_woda
370
    35
100
AcDbLine
 10
7569787.079999996
 20
5715488.779999997
 30
0.0
 11
7569786.029999996
 21
5715491.919999996
 31
0.0
  0
LINE
  5
1000055
330
1A
100
AcDbEntity
  8
projekt_woda
370
    35
100
AcDbLine
 10
7569786.029999996
 20
5715491.919999996
 30
0.0
 11
7569787.499999996
 21
5715495.099999996
 31
0.0
  0
LINE
  5
1000056
330
1A
100
AcDbEntity
  8
projekt_woda
370
    35
100
AcDbLine
 10
7569787.499999996
 20
5715495.099999996
 30
0.0
 11
7569779.706263327
 21
5715515.30241628
 31
0.0
  0
LINE
  5
1000057
330
1A
100
AcDbEntity
  8
projekt_woda
370
    35
100
AcDbLine
 10
7569779.706263327
 20
5715515.30241628
 30
0.0
 11
7569778.729494445
 21
5715517.834332926
 31
0.0
  0
LINE
  5
1000058
330
1A
100
AcDbEntity
  8
projekt_woda
370
    35
100
AcDbLine
 10
7569778.729494445
 20
5715517.834332926
 30
0.0
 11
7569778.599999996
 21
5715518.169999996
 31
0.0
  0
LINE
  5
1000059
330
1A
100
AcDbEntity
  8
projekt_woda
370
    35
100
AcDbLine
 10
7569778.599999996
 20
5715518.169999996
 30
0.0
 11
7569775.649999996
 21
5715526.019999996
 31
0.0
  0
LINE
  5
100005A
330
1A
100
AcDbEntity
  8
projekt_woda
370
    35
100
AcDbLine
 10
7569775.649999996
 20
5715526.019999996
 30
0.0
 11
7569774.840968002
 21
5715528.172847847
 31
0.0
  0
LINE
  5
100005B
330
1A
100
AcDbEntity
  8
Obrys_bud
  6
Continuous
370
    18
100
AcDbLine
 10
7569779.92861597
 20
5715486.255955954
 30
0.0
 11
7569787.564698125
 21
5715488.957446716
 31
0.0
  0
LINE
  5
100005C
330
1A
100
AcDbEntity
  8
Obrys_bud
  6
Continuous
370
    18
100
AcDbLine
 10
7569787.564698125
 20
5715488.957446716
 30
0.0
 11
7569790.932914195
 21
5715479.43506984
 31
0.0
  0
LINE
  5
100005D
330
1A
100
AcDbEntity
  8
Obrys_bud
  6
Continuous
370
    18
100
AcDbLine
 10
7569790.932914195
 20
5715479.43506984
 30
0.0
 11
7569783.296851972
 21
5715476.733684878
 31
0.0
  0
LINE
  5
100005E
330
1A
100
AcDbEntity
  8
Obrys_bud
  6
Continuous
370
    18
100
AcDbLine
 10
7569783.296851972
 20
5715476.733684878
 30
0.0
 11
7569779.92861597
 21
5715486.255955954
 31
0.0
  0
LINE
  5
100005F
330
1A
100
AcDbEntity
  8
ewns_dzialki
  6
Continuous
370
    18
100
AcDbLine
 10
7570273.94
 20
5714744.59
 30
0.0
 11
7570245.919999999
 21
5714713.28
 31
0.0
  0
LINE
  5
1000060
330
1A
100
AcDbEntity
  8
ewns_dzialki
  6
Continuous
370
    18
100
AcDbLine
 10
7570245.919999999
 20
5714713.28
 30
0.0
 11
7570239.190000001
 21
5714721.95
 31
0.0
  0
LINE
  5
1000061
330
1A
100
AcDbEntity
  8
ewns_dzialki
  6
Continuous
370
    18
100
AcDbLine
 10
7570239.190000001
 20
5714721.95
 30
0.0
 11
7570212.42
 21
5714759.9
 31
0.0
  0
LINE
  5
1000062
330
1A
100
AcDbEntity
  8
ewns_dzialki
  6
Continuous
370
    18
100
AcDbLine
 10
7570212.42
 20
5714759.9
 30
0.0
 11
7570148.719999999
 21
5714850.19
 31
0.0
  0
LINE
  5
1000063
330
1A
100
AcDbEntity
  8
ewns_dzialki
  6
Continuous
370
    18
100
AcDbLine
 10
7570148.719999999
 20
5714850.19
 30
0.0
 11
7570142.67
 21
5714858.769999999
 31
0.0
  0
LINE
  5
1000064
330
1A
100
AcDbEntity
  8
ewns_dzialki
  6
Continuous
370
    18
100
AcDbLine
 10
7570142.67
 20
5714858.769999999
 30
0.0
 11
7570026.219999999
 21
5715023.819999999
 31
0.0
  0
LINE
  5
1000065
330
1A
100
AcDbEntity
  8
ewns_dzialki
  6
Continuous
370
    18
100
AcDbLine
 10
7570026.219999999
 20
5715023.819999999
 30
0.0
 11
7569968.580000001
 21
5715104.28
 31
0.0
  0
LINE
  5
1000066
330
1A
100
AcDbEntity
  8
ewns_dzialki
  6
Continuous
370
    18
100
AcDbLine
 10
7569968.580000001
 20
5715104.28
 30
0.0
 11
7569946.009999998
 21
5715135.78
 31
0.0
  0
LINE
  5
1000067
330
1A
100
AcDbEntity
  8
ewns_dzialki
  6
Continuous
370
    18
100
AcDbLine
 10
7569946.009999998
 20
5715135.78
 30
0.0
 11
7569923.88
 21
5715166.299999999
 31
0.0
  0
LINE
  5
1000068
330
1A
100
AcDbEntity
  8
ewns_dzialki
  6
Continuous
370
    18
100
AcDbLine
 10
7569923.88
 20
5715166.299999999
 30
0.0
 11
7569884.96
 21
5715219.97
 31
0.0
  0
LINE
  5
1000069
330
1A
100
AcDbEntity
  8
ewns_dzialki
  6
Continuous
370
    18
100
AcDbLine
 10
7569884.96
 20
5715219.97
 30
0.0
 11
7569882.79
 21
5715222.97
 31
0.0
  0
LINE
  5
100006A
330
1A
100
AcDbEntity
  8
ewns_dzialki
  6
Continuous
370
    18
100
AcDbLine
 10
7569882.79
 20
5715222.97
 30
0.0
 11
7569810.64
 21
5715323.24
 31
0.0
  0
LINE
  5
100006B
330
1A
100
AcDbEntity
  8
ewns_dzialki
  6
Continuous
370
    18
100
AcDbLine
 10
7569810.64
 20
5715323.24
 30
0.0
 11
7569694.379999999
 21
5715483.78
 31
0.0
  0
LINE
  5
100006C
330
1A
100
AcDbEntity
  8
ewns_dzialki
  6
Continuous
370
    18
100
AcDbLine
 10
7569694.379999999
 20
5715483.78
 30
0.0
 11
7569682.489999999
 21
5715500.009999999
 31
0.0
  0
LINE
  5
100006D
330
1A
100
AcDbEntity
  8
ewns_dzialki
  6
Continuous
370
    18
100
AcDbLine
 10
7569682.489999999
 20
5715500.009999999
 30
0.0
 11
7569624.540000001
 21
5715582.910000001
 31
0.0
  0
LINE
  5
100006E
330
1A
100
AcDbEntity
  8
ewns_dzialki
  6
Continuous
370
    18
100
AcDbLine
 10
7569624.540000001
 20
5715582.910000001
 30
0.0
 11
7569588.95
 21
5715633.82
 31
0.0
  0
LINE
  5
100006F
330
1A
100
AcDbEntity
  8
ewns_dzialki
  6
Continuous
370
    18
100
AcDbLine
 10
7569588.95
 20
5715633.82
 30
0.0
 11
7569582.45
 21
5715643.13
 31
0.0
  0
LINE
  5
1000070
330
1A
100
AcDbEntity
  8
ewns_dzialki
  6
Continuous
370
    18
100
AcDbLine
 10
7569582.45
 20
5715643.13
 30
0.0
 11
7569581.33
 21
5715644.339999999
 31
0.0
  0
LINE
  5
1000071
330
1A
100
AcDbEntity
  8
ewns_dzialki
  6
Continuous
370
    18
100
AcDbLine
 10
7569581.33
 20
5715644.339999999
 30
0.0
 11
7569444.33
 21
5715826.48
 31
0.0
  0
LINE
  5
1000072
330
1A
100
AcDbEntity
  8
ewns_dzialki
  6
Continuous
370
    18
100
AcDbLine
 10
7569444.33
 20
5715826.48
 30
0.0
 11
7569407.32
 21
5715876.69
 31
0.0
  0
LINE
  5
1000073
330
1A
100
AcDbEntity
  8
ewns_dzialki
  6
Continuous
370
    18
100
AcDbLine
 10
7569407.32
 20
5715876.69
 30
0.0
 11
7569435.679999998
 21
5715894.19
 31
0.0
  0
LINE
  5
1000074
330
1A
100
AcDbEntity
  8
ewns_dzialki
  6
Continuous
370
    18
100
AcDbLine
 10
7569435.679999998
 20
5715894.19
 30
0.0
 11
7569447.740000001
 21
5715901.539999999
 31
0.0
  0
LINE
  5
1000075
330
1A
100
AcDbEntity
  8
ewns_dzialki
  6
Continuous
370
    18
100
AcDbLine
 10
7569447.740000001
 20
5715901.539999999
 30
0.0
 11
7569448.94
 21
5715899.83
 31
0.0
  0
LINE
  5
1000076
330
1A
100
AcDbEntity
  8
ewns_dzialki
  6
Continuous
370
    18
100
AcDbLine
 10
7569448.94
 20
5715899.83
 30
0.0
 11
7569480.490000001
 21
5715867.059999999
 31
0.0
  0
LINE
  5
1000077
330
1A
100
AcDbEntity
  8
ewns_dzialki
  6
Continuous
370
    18
100
AcDbLine
 10
7569480.490000001
 20
5715867.059999999
 30
0.0
 11
7569499.460000001
 21
5715838.75
 31
0.0
  0
LINE
  5
1000078
330
1A
100
AcDbEntity
  8
ewns_dzialki
  6
Continuous
370
    18
100
AcDbLine
 10
7569499.460000001
 20
5715838.75
 30
0.0
 11
7569549.009999999
 21
5715758.820000001
 31
0.0
  0
LINE
  5
1000079
330
1A
100
AcDbEntity
  8
ewns_dzialki
  6
Continuous
370
    18
100
AcDbLine
 10
7569549.009999999
 20
5715758.820000001
 30
0.0
 11
7569628.019999998
 21
5715638.509999999
 31
0.0
  0
LINE
  5
100007A
330
1A
100
AcDbEntity
  8
ewns_dzialki
  6
Continuous
370
    18
100
AcDbLine
 10
7569628.019999998
 20
5715638.509999999
 30
0.0
 11
7569636.410000001
 21
5715626.76
 31
0.0
  0
LINE
  5
100007B
330
1A
100
AcDbEntity
  8
ewns_dzialki
  6
Continuous
370
    18
100
AcDbLine
 10
7569636.410000001
 20
5715626.76
 30
0.0
 11
7569720.150000001
 21
5715509.469999999
 31
0.0
  0
LINE
  5
100007C
330
1A
100
AcDbEntity
  8
ewns_dzialki
  6
Continuous
370
    18
100
AcDbLine
 10
7569720.150000001
 20
5715509.469999999
 30
0.0
 11
7569727.929999999
 21
5715498.559999999
 31
0.0
  0
LINE
  5
100007D
330
1A
100
AcDbEntity
  8
ewns_dzialki
  6
Continuous
370
    18
100
AcDbLine
 10
7569727.929999999
 20
5715498.559999999
 30
0.0
 11
7569782.21
 21
5715422.440000001
 31
0.0
  0
LINE
  5
100007E
330
1A
100
AcDbEntity
  8
ewns_dzialki
  6
Continuous
370
    18
100
AcDbLine
 10
7569782.21
 20
5715422.440000001
 30
0.0
 11
7569794.759999999
 21
5715405.009999999
 31
0.0
  0
LINE
  5
100007F
330
1A
100
AcDbEntity
  8
ewns_dzialki
  6
Continuous
370
    18
100
AcDbLine
 10
7569794.759999999
 20
5715405.009999999
 30
0.0
 11
7569796.75
 21
5715402.250000001
 31
0.0
  0
LINE
  5
1000080
330
1A
100
AcDbEntity
  8
ewns_dzialki
  6
Continuous
370
    18
100
AcDbLine
 10
7569796.75
 20
5715402.250000001
 30
0.0
 11
7569810.99
 21
5715382.46
 31
0.0
  0
LINE
  5
1000081
330
1A
100
AcDbEntity
  8
ewns_dzialki
  6
Continuous
370
    18
100
AcDbLine
 10
7569810.99
 20
5715382.46
 30
0.0
 11
7569820.559999999
 21
5715369.17
 31
0.0
  0
LINE
  5
1000082
330
1A
100
AcDbEntity
  8
ewns_dzialki
  6
Continuous
370
    18
100
AcDbLine
 10
7569820.559999999
 20
5715369.17
 30
0.0
 11
7569831.469999999
 21
5715354.0
 31
0.0
  0
LINE
  5
1000083
330
1A
100
AcDbEntity
  8
ewns_dzialki
  6
Continuous
370
    18
100
AcDbLine
 10
7569831.469999999
 20
5715354.0
 30
0.0
 11
7569838.83
 21
5715343.8
 31
0.0
  0
LINE
  5
1000084
330
1A
100
AcDbEntity
  8
ewns_dzialki
  6
Continuous
370
    18
100
AcDbLine
 10
7569838.83
 20
5715343.8
 30
0.0
 11
7569846.3
 21
5715333.42
 31
0.0
  0
LINE
  5
1000085
330
1A
100
AcDbEntity
  8
ewns_dzialki
  6
Continuous
370
    18
100
AcDbLine
 10
7569846.3
 20
5715333.42
 30
0.0
 11
7569853.53
 21
5715323.360000001
 31
0.0
  0
LINE
  5
1000086
330
1A
100
AcDbEntity
  8
ewns_dzialki
  6
Continuous
370
    18
100
AcDbLine
 10
7569853.53
 20
5715323.360000001
 30
0.0
 11
7569860.009999999
 21
5715314.369999999
 31
0.0
  0
LINE
  5
1000087
330
1A
100
AcDbEntity
  8
ewns_dzialki
  6
Continuous
370
    18
100
AcDbLine
 10
7569860.009999999
 20
5715314.369999999
 30
0.0
 11
7569867.19
 21
5715304.39
 31
0.0
  0
LINE
  5
1000088
330
1A
100
AcDbEntity
  8
ewns_dzialki
  6
Continuous
370
    18
100
AcDbLine
 10
7569867.19
 20
5715304.39
 30
0.0
 11
7569874.019999998
 21
5715294.909999999
 31
0.0
  0
LINE
  5
1000089
330
1A
100
AcDbEntity
  8
ewns_dzialki
  6
Continuous
370
    18
100
AcDbLine
 10
7569874.019999998
 20
5715294.909999999
 30
0.0
 11
7569882.670000001
 21
5715282.91
 31
0.0
  0
LINE
  5
100008A
330
1A
100
AcDbEntity
  8
ewns_dzialki
  6
Continuous
370
    18
100
AcDbLine
 10
7569882.670000001
 20
5715282.91
 30
0.0
 11
7569890.86
 21
5715271.559999999
 31
0.0
  0
LINE
  5
100008B
330
1A
100
AcDbEntity
  8
ewns_dzialki
  6
Continuous
370
    18
100
AcDbLine
 10
7569890.86
 20
5715271.559999999
 30
0.0
 11
7569899.5
 21
5715259.559999999
 31
0.0
  0
LINE
  5
100008C
330
1A
100
AcDbEntity
  8
ewns_dzialki
  6
Continuous
370
    18
100
AcDbLine
 10
7569899.5
 20
5715259.559999999
 30
0.0
 11
7569915.299999999
 21
5715237.66
 31
0.0
  0
LINE
  5
100008D
330
1A
100
AcDbEntity
  8
ewns_dzialki
  6
Continuous
370
    18
100
AcDbLine
 10
7569915.299999999
 20
5715237.66
 30
0.0
 11
7569919.219999999
 21
5715232.23
 31
0.0
  0
LINE
  5
100008E
330
1A
100
AcDbEntity
  8
ewns_dzialki
  6
Continuous
370
    18
100
AcDbLine
 10
7569919.219999999
 20
5715232.23
 30
0.0
 11
7569922.9
 21
5715227.13
 31
0.0
  0
LINE
  5
100008F
330
1A
100
AcDbEntity
  8
ewns_dzialki
  6
Continuous
370
    18
100
AcDbLine
 10
7569922.9
 20
5715227.13
 30
0.0
 11
7569930.900000001
 21
5715216.01
 31
0.0
  0
LINE
  5
1000090
330
1A
100
AcDbEntity
  8
ewns_dzialki
  6
Continuous
370
    18
100
AcDbLine
 10
7569930.900000001
 20
5715216.01
 30
0.0
 11
7569945.759999999
 21
5715195.419999999
 31
0.0
  0
LINE
  5
1000091
330
1A
100
AcDbEntity
  8
ewns_dzialki
  6
Continuous
370
    18
100
AcDbLine
 10
7569945.759999999
 20
5715195.419999999
 30
0.0
 11
7569960.719999999
 21
5715174.66
 31
0.0
  0
LINE
  5
1000092
330
1A
100
AcDbEntity
  8
ewns_dzialki
  6
Continuous
370
    18
100
AcDbLine
 10
7569960.719999999
 20
5715174.66
 30
0.0
 11
7569963.94
 21
5715170.2
 31
0.0
  0
LINE
  5
1000093
330
1A
100
AcDbEntity
  8
ewns_dzialki
  6
Continuous
370
    18
100
AcDbLine
 10
7569963.94
 20
5715170.2
 30
0.0
 11
7569975.34
 21
5715154.39
 31
0.0
  0
LINE
  5
1000094
330
1A
100
AcDbEntity
  8
ewns_dzialki
  6
Continuous
370
    18
100
AcDbLine
 10
7569975.34
 20
5715154.39
 30
0.0
 11
7569992.179999999
 21
5715131.03
 31
0.0
  0
LINE
  5
1000095
330
1A
100
AcDbEntity
  8
ewns_dzialki
  6
Continuous
370
    18
100
AcDbLine
 10
7569992.179999999
 20
5715131.03
 30
0.0
 11
7570009.05
 21
5715107.64
 31
0.0
  0
LINE
  5
1000096
330
1A
100
AcDbEntity
  8
ewns_dzialki
  6
Continuous
370
    18
100
AcDbLine
 10
7570009.05
 20
5715107.64
 30
0.0
 11
7570026.110000001
 21
5715083.990000001
 31
0.0
  0
LINE
  5
1000097
330
1A
100
AcDbEntity
  8
ewns_dzialki
  6
Continuous
370
    18
100
AcDbLine
 10
7570026.110000001
 20
5715083.990000001
 30
0.0
 11
7570035.759999999
 21
5715070.62
 31
0.0
  0
LINE
  5
1000098
330
1A
100
AcDbEntity
  8
ewns_dzialki
  6
Continuous
370
    18
100
AcDbLine
 10
7570035.759999999
 20
5715070.62
 30
0.0
 11
7570048.159999999
 21
5715053.43
 31
0.0
  0
LINE
  5
1000099
330
1A
100
AcDbEntity
  8
ewns_dzialki
  6
Continuous
370
    18
100
AcDbLine
 10
7570048.159999999
 20
5715053.43
 30
0.0
 11
7570055.049999999
 21
5715043.88
 31
0.0
  0
LINE
  5
100009A
330
1A
100
AcDbEntity
  8
ewns_dzialki
  6
Continuous
370
    18
100
AcDbLine
 10
7570055.049999999
 20
5715043.88
 30
0.0
 11
7570062.650000001
 21
5715033.339999999
 31
0.0
  0
LINE
  5
100009B
330
1A
100
AcDbEntity
  8
ewns_dzialki
  6
Continuous
370
    18
100
AcDbLine
 10
7570062.650000001
 20
5715033.339999999
 30
0.0
 11
7570069.96
 21
5715023.22
 31
0.0
  0
LINE
  5
100009C
330
1A
100
AcDbEntity
  8
ewns_dzialki
  6
Continuous
370
    18
100
AcDbLine
 10
7570069.96
 20
5715023.22
 30
0.0
 11
7570077.620000001
 21
5715012.589999999
 31
0.0
  0
LINE
  5
100009D
330
1A
100
AcDbEntity
  8
ewns_dzialki
  6
Continuous
370
    18
100
AcDbLine
 10
7570077.620000001
 20
5715012.589999999
 30
0.0
 11
7570085.4
 21
5715001.820000001
 31
0.0
  0
LINE
  5
100009E
330
1A
100
AcDbEntity
  8
ewns_dzialki
  6
Continuous
370
    18
100
AcDbLine
 10
7570085.4
 20
5715001.820000001
 30
0.0
 11
7570092.99
 21
5714991.269999999
 31
0.0
  0
LINE
  5
100009F
330
1A
100
AcDbEntity
  8
ewns_dzialki
  6
Continuous
370
    18
100
AcDbLine
 10
7570092.99
 20
5714991.269999999
 30
0.0
 11
7570101.24
 21
5714979.849999999
 31
0.0
  0
LINE
  5
10000A0
330
1A
100
AcDbEntity
  8
ewns_dzialki
  6
Continuous
370
    18
100
AcDbLine
 10
7570101.24
 20
5714979.849999999
 30
0.0
 11
7570109.429999998
 21
5714968.639999999
 31
0.0
  0
LINE
  5
10000A1
330
1A
100
AcDbEntity
  8
ewns_dzialki
  6
Continuous
370
    18
100
AcDbLine
 10
7570109.429999998
 20
5714968.639999999
 30
0.0
 11
7570116.849999999
 21
5714958.47
 31
0.0
  0
LINE
  5
10000A2
330
1A
100
AcDbEntity
  8
ewns_dzialki
  6
Continuous
370
    18
100
AcDbLine
 10
7570116.849999999
 20
5714958.47
 30
0.0
 11
7570132.009999999
 21
5714937.73
 31
0.0
  0
LINE
  5
10000A3
330
1A
100
AcDbEntity
  8
ewns_dzialki
  6
Continuous
370
    18
100
AcDbLine
 10
7570132.009999999
 20
5714937.73
 30
0.0
 11
7570135.610000001
 21
5714932.81
 31
0.0
  0
LINE
  5
10000A4
330
1A
100
AcDbEntity
  8
ewns_dzialki
  6
Continuous
370
    18
100
AcDbLine
 10
7570135.610000001
 20
5714932.81
 30
0.0
 11
7570139.259999999
 21
5714927.81
 31
0.0
  0
LINE
  5
10000A5
330
1A
100
AcDbEntity
  8
ewns_dzialki
  6
Continuous
370
    18
100
AcDbLine
 10
7570139.259999999
 20
5714927.81
 30
0.0
 11
7570146.69
 21
5714917.64
 31
0.0
  0
LINE
  5
10000A6
330
1A
100
AcDbEntity
  8
ewns_dzialki
  6
Continuous
370
    18
100
AcDbLine
 10
7570146.69
 20
5714917.64
 30
0.0
 11
7570162.599999998
 21
5714895.85
 31
0.0
  0
LINE
  5
10000A7
330
1A
100
AcDbEntity
  8
ewns_dzialki
  6
Continuous
370
    18
100
AcDbLine
 10
7570162.599999998
 20
5714895.85
 30
0.0
 11
7570175.11
 21
5714878.75
 31
0.0
  0
LINE
  5
10000A8
330
1A
100
AcDbEntity
  8
ewns_dzialki
  6
Continuous
370
    18
100
AcDbLine
 10
7570175.11
 20
5714878.75
 30
0.0
 11
7570178.28
 21
5714874.39
 31
0.0
  0
LINE
  5
10000A9
330
1A
100
AcDbEntity
  8
ewns_dzialki
  6
Continuous
370
    18
100
AcDbLine
 10
7570178.28
 20
5714874.39
 30
0.0
 11
7570194.190000001
 21
5714852.61
 31
0.0
  0
LINE
  5
10000AA
330
1A
100
AcDbEntity
  8
ewns_dzialki
  6
Continuous
370
    18
100
AcDbLine
 10
7570194.190000001
 20
5714852.61
 30
0.0
 11
7570202.209999999
 21
5714841.629999999
 31
0.0
  0
LINE
  5
10000AB
330
1A
100
AcDbEntity
  8
ewns_dzialki
  6
Continuous
370
    18
100
AcDbLine
 10
7570202.209999999
 20
5714841.629999999
 30
0.0
 11
7570210.94
 21
5714829.68
 31
0.0
  0
LINE
  5
10000AC
330
1A
100
AcDbEntity
  8
ewns_dzialki
  6
Continuous
370
    18
100
AcDbLine
 10
7570210.94
 20
5714829.68
 30
0.0
 11
7570227.48
 21
5714807.35
 31
0.0
  0
LINE
  5
10000AD
330
1A
100
AcDbEntity
  8
ewns_dzialki
  6
Continuous
370
    18
100
AcDbLine
 10
7570227.48
 20
5714807.35
 30
0.0
 11
7570242.11
 21
5714787.589999999
 31
0.0
  0
LINE
  5
10000AE
330
1A
100
AcDbEntity
  8
ewns_dzialki
  6
Continuous
370
    18
100
AcDbLine
 10
7570242.11
 20
5714787.589999999
 30
0.0
 11
7570258.179999999
 21
5714765.900000001
 31
0.0
  0
LINE
  5
10000AF
330
1A
100
AcDbEntity
  8
ewns_dzialki
  6
Continuous
370
    18
100
AcDbLine
 10
7570258.179999999
 20
5714765.900000001
 30
0.0
 11
7570272.469999999
 21
5714746.61
 31
0.0
  0
LINE
  5
10000B0
330
1A
100
AcDbEntity
  8
ewns_dzialki
  6
Continuous
370
    18
100
AcDbLine
 10
7570272.469999999
 20
5714746.61
 30
0.0
 11
7570273.94
 21
5714744.59
 31
0.0
  0
LINE
  5
10000B1
330
1A
100
AcDbEntity
  8
ewns_dzialki
  6
Continuous
370
    18
100
AcDbLine
 10
7569735.5
 20
5715515.83
 30
0.0
 11
7569749.269999999
 21
5715518.83
 31
0.0
  0
LINE
  5
10000B2
330
1A
100
AcDbEntity
  8
ewns_dzialki
  6
Continuous
370
    18
100
AcDbLine
 10
7569749.269999999
 20
5715518.83
 30
0.0
 11
7569778.29
 21
5715527.11
 31
0.0
  0
LINE
  5
10000B3
330
1A
100
AcDbEntity
  8
ewns_dzialki
  6
Continuous
370
    18
100
AcDbLine
 10
7569778.29
 20
5715527.11
 30
0.0
 11
7569805.170000001
 21
5715536.410000001
 31
0.0
  0
LINE
  5
10000B4
330
1A
100
AcDbEntity
  8
ewns_dzialki
  6
Continuous
370
    18
100
AcDbLine
 10
7569805.170000001
 20
5715536.410000001
 30
0.0
 11
7569845.309999999
 21
5715548.55
 31
0.0
  0
LINE
  5
10000B5
330
1A
100
AcDbEntity
  8
ewns_dzialki
  6
Continuous
370
    18
100
AcDbLine
 10
7569845.309999999
 20
5715548.55
 30
0.0
 11
7569870.230000001
 21
5715556.24
 31
0.0
  0
LINE
  5
10000B6
330
1A
100
AcDbEntity
  8
ewns_dzialki
  6
Continuous
370
    18
100
AcDbLine
 10
7569870.230000001
 20
5715556.24
 30
0.0
 11
7569889.46
 21
5715561.83
 31
0.0
  0
LINE
  5
10000B7
330
1A
100
AcDbEntity
  8
ewns_dzialki
  6
Continuous
370
    18
100
AcDbLine
 10
7569889.46
 20
5715561.83
 30
0.0
 11
7569894.49
 21
5715563.26
 31
0.0
  0
LINE
  5
10000B8
330
1A
100
AcDbEntity
  8
ewns_dzialki
  6
Continuous
370
    18
100
AcDbLine
 10
7569894.49
 20
5715563.26
 30
0.0
 11
7569916.95
 21
5715569.34
 31
0.0
  0
LINE
  5
10000B9
330
1A
100
AcDbEntity
  8
ewns_dzialki
  6
Continuous
370
    18
100
AcDbLine
 10
7569916.95
 20
5715569.34
 30
0.0
 11
7569941.490000001
 21
5715575.969999999
 31
0.0
  0
LINE
  5
10000BA
330
1A
100
AcDbEntity
  8
ewns_dzialki
  6
Continuous
370
    18
100
AcDbLine
 10
7569941.490000001
 20
5715575.969999999
 30
0.0
 11
7569949.110000001
 21
5715577.75
 31
0.0
  0
LINE
  5
10000BB
330
1A
100
AcDbEntity
  8
ewns_dzialki
  6
Continuous
370
    18
100
AcDbLine
 10
7569949.110000001
 20
5715577.75
 30
0.0
 11
7569964.009999998
 21
5715579.32
 31
0.0
  0
LINE
  5
10000BC
330
1A
100
AcDbEntity
  8
ewns_dzialki
  6
Continuous
370
    18
100
AcDbLine
 10
7569964.009999998
 20
5715579.32
 30
0.0
 11
7569985.009999999
 21
5715577.780000001
 31
0.0
  0
LINE
  5
10000BD
330
1A
100
AcDbEntity
  8
ewns_dzialki
  6
Continuous
370
    18
100
AcDbLine
 10
7569985.009999999
 20
5715577.780000001
 30
0.0
 11
7570004.8
 21
5715576.35
 31
0.0
  0
LINE
  5
10000BE
330
1A
100
AcDbEntity
  8
ewns_dzialki
  6
Continuous
370
    18
100
AcDbLine
 10
7570004.8
 20
5715576.35
 30
0.0
 11
7570036.8
 21
5715572.48
 31
0.0
  0
LINE
  5
10000BF
330
1A
100
AcDbEntity
  8
ewns_dzialki
  6
Continuous
370
    18
100
AcDbLine
 10
7570036.8
 20
5715572.48
 30
0.0
 11
7570047.19
 21
5715571.419999999
 31
0.0
  0
LINE
  5
10000C0
330
1A
100
AcDbEntity
  8
ewns_dzialki
  6
Continuous
370
    18
100
AcDbLine
 10
7570047.19
 20
5715571.419999999
 30
0.0
 11
7570061.05
 21
5715569.91
 31
0.0
  0
LINE
  5
10000C1
330
1A
100
AcDbEntity
  8
ewns_dzialki
  6
Continuous
370
    18
100
AcDbLine
 10
7570061.05
 20
5715569.91
 30
0.0
 11
7570067.849999999
 21
5715569.16
 31
0.0
  0
LINE
  5
10000C2
330
1A
100
AcDbEntity
  8
ewns_dzialki
  6
Continuous
370
    18
100
AcDbLine
 10
7570067.849999999
 20
5715569.16
 30
0.0
 11
7570075.860000001
 21
5715568.329999999
 31
0.0
  0
LINE
  5
10000C3
330
1A
100
AcDbEntity
  8
ewns_dzialki
  6
Continuous
370
    18
100
AcDbLine
 10
7570075.860000001
 20
5715568.329999999
 30
0.0
 11
7570083.769999999
 21
5715567.459999999
 31
0.0
  0
LINE
  5
10000C4
330
1A
100
AcDbEntity
  8
ewns_dzialki
  6
Continuous
370
    18
100
AcDbLine
 10
7570083.769999999
 20
5715567.459999999
 30
0.0
 11
7570099.32
 21
5715565.85
 31
0.0
  0
LINE
  5
10000C5
330
1A
100
AcDbEntity
  8
ewns_dzialki
  6
Continuous
370
    18
100
AcDbLine
 10
7570099.32
 20
5715565.85
 30
0.0
 11
7570115.179999999
 21
5715564.14
 31
0.0
  0
LINE
  5
10000C6
330
1A
100
AcDbEntity
  8
ewns_dzialki
  6
Continuous
370
    18
100
AcDbLine
 10
7570115.179999999
 20
5715564.14
 30
0.0
 11
7570131.269999999
 21
5715562.160000001
 31
0.0
  0
LINE
  5
10000C7
330
1A
100
AcDbEntity
  8
ewns_dzialki
  6
Continuous
370
    18
100
AcDbLine
 10
7570131.269999999
 20
5715562.160000001
 30
0.0
 11
7570148.750000001
 21
5715559.88
 31
0.0
  0
LINE
  5
10000C8
330
1A
100
AcDbEntity
  8
ewns_dzialki
  6
Continuous
370
    18
100
AcDbLine
 10
7570148.750000001
 20
5715559.88
 30
0.0
 11
7570152.33
 21
5715559.41
 31
0.0
  0
LINE
  5
10000C9
330
1A
100
AcDbEntity
  8
ewns_dzialki
  6
Continuous
370
    18
100
AcDbLine
 10
7570152.33
 20
5715559.41
 30
0.0
 11
7570165.04
 21
5715557.84
 31
0.0
  0
LINE
  5
10000CA
330
1A
100
AcDbEntity
  8
ewns_dzialki
  6
Continuous
370
    18
100
AcDbLine
 10
7570165.04
 20
5715557.84
 30
0.0
 11
7570196.84
 21
5715553.85
 31
0.0
  0
LINE
  5
10000CB
330
1A
100
AcDbEntity
  8
ewns_dzialki
  6
Continuous
370
    18
100
AcDbLine
 10
7570196.84
 20
5715553.85
 30
0.0
 11
7570212.69
 21
5715552.8
 31
0.0
  0
LINE
  5
10000CC
330
1A
100
AcDbEntity
  8
ewns_dzialki
  6
Continuous
370
    18
100
AcDbLine
 10
7570212.69
 20
5715552.8
 30
0.0
 11
7570228.820000001
 21
5715552.92
 31
0.0
  0
LINE
  5
10000CD
330
1A
100
AcDbEntity
  8
ewns_dzialki
  6
Continuous
370
    18
100
AcDbLine
 10
7570228.820000001
 20
5715552.92
 30
0.0
 11
7570237.139999999
 21
5715552.839999999
 31
0.0
  0
LINE
  5
10000CE
330
1A
100
AcDbEntity
  8
ewns_dzialki
  6
Continuous
370
    18
100
AcDbLine
 10
7570237.139999999
 20
5715552.839999999
 30
0.0
 11
7570245.63
 21
5715552.76
 31
0.0
  0
LINE
  5
10000CF
330
1A
100
AcDbEntity
  8
ewns_dzialki
  6
Continuous
370
    18
100
AcDbLine
 10
7570245.63
 20
5715552.76
 30
0.0
 11
7570262.259999999
 21
5715552.660000001
 31
0.0
  0
LINE
  5
10000D0
330
1A
100
AcDbEntity
  8
ewns_dzialki
  6
Continuous
370
    18
100
AcDbLine
 10
7570262.259999999
 20
5715552.660000001
 30
0.0
 11
7570278.820000001
 21
5715552.38
 31
0.0
  0
LINE
  5
10000D1
330
1A
100
AcDbEntity
  8
ewns_dzialki
  6
Continuous
370
    18
100
AcDbLine
 10
7570278.820000001
 20
5715552.38
 30
0.0
 11
7570295.59
 21
5715552.230000001
 31
0.0
  0
LINE
  5
10000D2
330
1A
100
AcDbEntity
  8
ewns_dzialki
  6
Continuous
370
    18
100
AcDbLine
 10
7570295.59
 20
5715552.230000001
 30
0.0
 11
7570306.58
 21
5715551.91
 31
0.0
  0
LINE
  5
10000D3
330
1A
100
AcDbEntity
  8
ewns_dzialki
  6
Continuous
370
    18
100
AcDbLine
 10
7570306.58
 20
5715551.91
 30
0.0
 11
7570328.790000001
 21
5715551.01
 31
0.0
  0
LINE
  5
10000D4
330
1A
100
AcDbEntity
  8
ewns_dzialki
  6
Continuous
370
    18
100
AcDbLine
 10
7570328.790000001
 20
5715551.01
 30
0.0
 11
7570345.51
 21
5715549.69
 31
0.0
  0
LINE
  5
10000D5
330
1A
100
AcDbEntity
  8
ewns_dzialki
  6
Continuous
370
    18
100
AcDbLine
 10
7570345.51
 20
5715549.69
 30
0.0
 11
7570363.2
 21
5715547.82
 31
0.0
  0
LINE
  5
10000D6
330
1A
100
AcDbEntity
  8
ewns_dzialki
  6
Continuous
370
    18
100
AcDbLine
 10
7570363.2
 20
5715547.82
 30
0.0
 11
7570368.57
 21
5715547.209999999
 31
0.0
  0
LINE
  5
10000D7
330
1A
100
AcDbEntity
  8
ewns_dzialki
  6
Continuous
370
    18
100
AcDbLine
 10
7570368.57
 20
5715547.209999999
 30
0.0
 11
7570380.55
 21
5715545.839999999
 31
0.0
  0
LINE
  5
10000D8
330
1A
100
AcDbEntity
  8
ewns_dzialki
  6
Continuous
370
    18
100
AcDbLine
 10
7570380.55
 20
5715545.839999999
 30
0.0
 11
7570392.400000001
 21
5715544.17
 31
0.0
  0
LINE
  5
10000D9
330
1A
100
AcDbEntity
  8
ewns_dzialki
  6
Continuous
370
    18
100
AcDbLine
 10
7570392.400000001
 20
5715544.17
 30
0.0
 11
7570417.83
 21
5715543.45
 31
0.0
  0
LINE
  5
10000DA
330
1A
100
AcDbEntity
  8
ewns_dzialki
  6
Continuous
370
    18
100
AcDbLine
 10
7570417.83
 20
5715543.45
 30
0.0
 11
7570432.519999999
 21
5715543.14
 31
0.0
  0
LINE
  5
10000DB
330
1A
100
AcDbEntity
  8
ewns_dzialki
  6
Continuous
370
    18
100
AcDbLine
 10
7570432.519999999
 20
5715543.14
 30
0.0
 11
7570450.29
 21
5715542.259999999
 31
0.0
  0
LINE
  5
10000DC
330
1A
100
AcDbEntity
  8
ewns_dzialki
  6
Continuous
370
    18
100
AcDbLine
 10
7570450.29
 20
5715542.259999999
 30
0.0
 11
7570455.25
 21
5715544.89
 31
0.0
  0
LINE
  5
10000DD
330
1A
100
AcDbEntity
  8
ewns_dzialki
  6
Continuous
370
    18
100
AcDbLine
 10
7570455.25
 20
5715544.89
 30
0.0
 11
7570459.15
 21
5715550.98
 31
0.0
  0
LINE
  5
10000DE
330
1A
100
AcDbEntity
  8
ewns_dzialki
  6
Continuous
370
    18
100
AcDbLine
 10
7570459.15
 20
5715550.98
 30
0.0
 11
7570460.599999998
 21
5715554.51
 31
0.0
  0
LINE
  5
10000DF
330
1A
100
AcDbEntity
  8
ewns_dzialki
  6
Continuous
370
    18
100
AcDbLine
 10
7570460.599999998
 20
5715554.51
 30
0.0
 11
7570461.480000001
 21
5715558.12
 31
0.0
  0
LINE
  5
10000E0
330
1A
100
AcDbEntity
  8
ewns_dzialki
  6
Continuous
370
    18
100
AcDbLine
 10
7570461.480000001
 20
5715558.12
 30
0.0
 11
7570463.400000001
 21
5715583.86
 31
0.0
  0
LINE
  5
10000E1
330
1A
100
AcDbEntity
  8
ewns_dzialki
  6
Continuous
370
    18
100
AcDbLine
 10
7570463.400000001
 20
5715583.86
 30
0.0
 11
7570464.04
 21
5715591.0
 31
0.0
  0
LINE
  5
10000E2
330
1A
100
AcDbEntity
  8
ewns_dzialki
  6
Continuous
370
    18
100
AcDbLine
 10
7570464.04
 20
5715591.0
 30
0.0
 11
7570472.55
 21
5715601.97
 31
0.0
  0
LINE
  5
10000E3
330
1A
100
AcDbEntity
  8
ewns_dzialki
  6
Continuous
370
    18
100
AcDbLine
 10
7570472.55
 20
5715601.97
 30
0.0
 11
7570491.699999999
 21
5715606.37
 31
0.0
  0
LINE
  5
10000E4
330
1A
100
AcDbEntity
  8
ewns_dzialki
  6
Continuous
370
    18
100
AcDbLine
 10
7570491.699999999
 20
5715606.37
 30
0.0
 11
7570507.23
 21
5715607.789999999
 31
0.0
  0
LINE
  5
10000E5
330
1A
100
AcDbEntity
  8
ewns_dzialki
  6
Continuous
370
    18
100
AcDbLine
 10
7570507.23
 20
5715607.789999999
 30
0.0
 11
7570520.83
 21
5715605.43
 31
0.0
  0
LINE
  5
10000E6
330
1A
100
AcDbEntity
  8
ewns_dzialki
  6
Continuous
370
    18
100
AcDbLine
 10
7570520.83
 20
5715605.43
 30
0.0
 11
7570551.78
 21
5715600.93
 31
0.0
  0
LINE
  5
10000E7
330
1A
100
AcDbEntity
  8
ewns_dzialki
  6
Continuous
370
    18
100
AcDbLine
 10
7570551.78
 20
5715600.93
 30
0.0
 11
7570578.42
 21
5715597.08
 31
0.0
  0
LINE
  5
10000E8
330
1A
100
AcDbEntity
  8
ewns_dzialki
  6
Continuous
370
    18
100
AcDbLine
 10
7570578.42
 20
5715597.08
 30
0.0
 11
7570607.69
 21
5715592.82
 31
0.0
  0
LINE
  5
10000E9
330
1A
100
AcDbEntity
  8
ewns_dzialki
  6
Continuous
370
    18
100
AcDbLine
 10
7570607.69
 20
5715592.82
 30
0.0
 11
7570624.150000001
 21
5715590.419999999
 31
0.0
  0
LINE
  5
10000EA
330
1A
100
AcDbEntity
  8
ewns_dzialki
  6
Continuous
370
    18
100
AcDbLine
 10
7570624.150000001
 20
5715590.419999999
 30
0.0
 11
7570626.15
 21
5715589.88
 31
0.0
  0
LINE
  5
10000EB
330
1A
100
AcDbEntity
  8
ewns_dzialki
  6
Continuous
370
    18
100
AcDbLine
 10
7570626.15
 20
5715589.88
 30
0.0
 11
7570679.150000001
 21
5715575.7
 31
0.0
  0
LINE
  5
10000EC
330
1A
100
AcDbEntity
  8
ewns_dzialki
  6
Continuous
370
    18
100
AcDbLine
 10
7570679.150000001
 20
5715575.7
 30
0.0
 11
7570700.17
 21
5715573.5
 31
0.0
  0
LINE
  5
10000ED
330
1A
100
AcDbEntity
  8
ewns_dzialki
  6
Continuous
370
    18
100
AcDbLine
 10
7570700.17
 20
5715573.5
 30
0.0
 11
7570716.179999999
 21
5715568.280000001
 31
0.0
  0
LINE
  5
10000EE
330
1A
100
AcDbEntity
  8
ewns_dzialki
  6
Continuous
370
    18
100
AcDbLine
 10
7570716.179999999
 20
5715568.280000001
 30
0.0
 11
7570735.66
 21
5715560.759999999
 31
0.0
  0
LINE
  5
10000EF
330
1A
100
AcDbEntity
  8
ewns_dzialki
  6
Continuous
370
    18
100
AcDbLine
 10
7570735.66
 20
5715560.759999999
 30
0.0
 11
7570734.919999999
 21
5715556.959999999
 31
0.0
  0
LINE
  5
10000F0
330
1A
100
AcDbEntity
  8
ewns_dzialki
  6
Continuous
370
    18
100
AcDbLine
 10
7570734.919999999
 20
5715556.959999999
 30
0.0
 11
7570733.580000001
 21
5715550.07
 31
0.0
  0
LINE
  5
10000F1
330
1A
100
AcDbEntity
  8
ewns_dzialki
  6
Continuous
370
    18
100
AcDbLine
 10
7570733.580000001
 20
5715550.07
 30
0.0
 11
7570713.5
 21
5715554.62
 31
0.0
  0
LINE
  5
10000F2
330
1A
100
AcDbEntity
  8
ewns_dzialki
  6
Continuous
370
    18
100
AcDbLine
 10
7570713.5
 20
5715554.62
 30
0.0
 11
7570693.610000001
 21
5715559.789999999
 31
0.0
  0
LINE
  5
10000F3
330
1A
100
AcDbEntity
  8
ewns_dzialki
  6
Continuous
370
    18
100
AcDbLine
 10
7570693.610000001
 20
5715559.789999999
 30
0.0
 11
7570675.37
 21
5715564.59
 31
0.0
  0
LINE
  5
10000F4
330
1A
100
AcDbEntity
  8
ewns_dzialki
  6
Continuous
370
    18
100
AcDbLine
 10
7570675.37
 20
5715564.59
 30
0.0
 11
7570655.259999999
 21
5715569.849999999
 31
0.0
  0
LINE
  5
10000F5
330
1A
100
AcDbEntity
  8
ewns_dzialki
  6
Continuous
370
    18
100
AcDbLine
 10
7570655.259999999
 20
5715569.849999999
 30
0.0
 11
7570636.460000001
 21
5715574.87
 31
0.0
  0
LINE
  5
10000F6
330
1A
100
AcDbEntity
  8
ewns_dzialki
  6
Continuous
370
    18
100
AcDbLine
 10
7570636.460000001
 20
5715574.87
 30
0.0
 11
7570621.8
 21
5715578.68
 31
0.0
  0
LINE
  5
10000F7
330
1A
100
AcDbEntity
  8
ewns_dzialki
  6
Continuous
370
    18
100
AcDbLine
 10
7570621.8
 20
5715578.68
 30
0.0
 11
7570616.08
 21
5715579.769999999
 31
0.0
  0
LINE
  5
10000F8
330
1A
100
AcDbEntity
  8
ewns_dzialki
  6
Continuous
370
    18
100
AcDbLine
 10
7570616.08
 20
5715579.769999999
 30
0.0
 11
7570603.400000001
 21
5715582.379999999
 31
0.0
  0
LINE
  5
10000F9
330
1A
100
AcDbEntity
  8
ewns_dzialki
  6
Continuous
370
    18
100
AcDbLine
 10
7570603.400000001
 20
5715582.379999999
 30
0.0
 11
7570584.349999998
 21
5715584.57
 31
0.0
  0
LINE
  5
10000FA
330
1A
100
AcDbEntity
  8
ewns_dzialki
  6
Continuous
370
    18
100
AcDbLine
 10
7570584.349999998
 20
5715584.57
 30
0.0
 11
7570568.249999999
 21
5715586.379999999
 31
0.0
  0
LINE
  5
10000FB
330
1A
100
AcDbEntity
  8
ewns_dzialki
  6
Continuous
370
    18
100
AcDbLine
 10
7570568.249999999
 20
5715586.379999999
 30
0.0
 11
7570543.86
 21
5715589.549999999
 31
0.0
  0
LINE
  5
10000FC
330
1A
100
AcDbEntity
  8
ewns_dzialki
  6
Continuous
370
    18
100
AcDbLine
 10
7570543.86
 20
5715589.549999999
 30
0.0
 11
7570536.46
 21
5715591.09
 31
0.0
  0
LINE
  5
10000FD
330
1A
100
AcDbEntity
  8
ewns_dzialki
  6
Continuous
370
    18
100
AcDbLine
 10
7570536.46
 20
5715591.09
 30
0.0
 11
7570523.17
 21
5715593.049999999
 31
0.0
  0
LINE
  5
10000FE
330
1A
100
AcDbEntity
  8
ewns_dzialki
  6
Continuous
370
    18
100
AcDbLine
 10
7570523.17
 20
5715593.049999999
 30
0.0
 11
7570504.62
 21
5715594.359999999
 31
0.0
  0
LINE
  5
10000FF
330
1A
100
AcDbEntity
  8
ewns_dzialki
  6
Continuous
370
    18
100
AcDbLine
 10
7570504.62
 20
5715594.359999999
 30
0.0
 11
7570501.469999999
 21
5715594.53
 31
0.0
  0
LINE
  5
1000100
330
1A
100
AcDbEntity
  8
ewns_dzialki
  6
Continuous
370
    18
100
AcDbLine
 10
7570501.469999999
 20
5715594.53
 30
0.0
 11
7570488.679999998
 21
5715593.070000001
 31
0.0
  0
LINE
  5
1000101
330
1A
100
AcDbEntity
  8
ewns_dzialki
  6
Continuous
370
    18
100
AcDbLine
 10
7570488.679999998
 20
5715593.070000001
 30
0.0
 11
7570486.12
 21
5715592.45
 31
0.0
  0
LINE
  5
1000102
330
1A
100
AcDbEntity
  8
ewns_dzialki
  6
Continuous
370
    18
100
AcDbLine
 10
7570486.12
 20
5715592.45
 30
0.0
 11
7570480.2
 21
5715590.950000001
 31
0.0
  0
LINE
  5
1000103
330
1A
100
AcDbEntity
  8
ewns_dzialki
  6
Continuous
370
    18
100
AcDbLine
 10
7570480.2
 20
5715590.950000001
 30
0.0
 11
7570477.3
 21
5715589.94
 31
0.0
  0
LINE
  5
1000104
330
1A
100
AcDbEntity
  8
ewns_dzialki
  6
Continuous
370
    18
100
AcDbLine
 10
7570477.3
 20
5715589.94
 30
0.0
 11
7570474.71
 21
5715588.59
 31
0.0
  0
LINE
  5
1000105
330
1A
100
AcDbEntity
  8
ewns_dzialki
  6
Continuous
370
    18
100
AcDbLine
 10
7570474.71
 20
5715588.59
 30
0.0
 11
7570472.460000001
 21
5715586.64
 31
0.0
  0
LINE
  5
1000106
330
1A
100
AcDbEntity
  8
ewns_dzialki
  6
Continuous
370
    18
100
AcDbLine
 10
7570472.460000001
 20
5715586.64
 30
0.0
 11
7570470.87
 21
5715584.11
 31
0.0
  0
LINE
  5
1000107
330
1A
100
AcDbEntity
  8
ewns_dzialki
  6
Continuous
370
    18
100
AcDbLine
 10
7570470.87
 20
5715584.11
 30
0.0
 11
7570469.690000001
 21
5715581.33
 31
0.0
  0
LINE
  5
1000108
330
1A
100
AcDbEntity
  8
ewns_dzialki
  6
Continuous
370
    18
100
AcDbLine
 10
7570469.690000001
 20
5715581.33
 30
0.0
 11
7570468.91
 21
5715578.46
 31
0.0
  0
LINE
  5
1000109
330
1A
100
AcDbEntity
  8
ewns_dzialki
  6
Continuous
370
    18
100
AcDbLine
 10
7570468.91
 20
5715578.46
 30
0.0
 11
7570468.28
 21
5715572.39
 31
0.0
  0
LINE
  5
100010A
330
1A
100
AcDbEntity
  8
ewns_dzialki
  6
Continuous
370
    18
100
AcDbLine
 10
7570468.28
 20
5715572.39
 30
0.0
 11
7570465.780000001
 21
5715534.39
 31
0.0
  0
LINE
  5
100010B
330
1A
100
AcDbEntity
  8
ewns_dzialki
  6
Continuous
370
    18
100
AcDbLine
 10
7570465.780000001
 20
5715534.39
 30
0.0
 11
7570454.8
 21
5715534.629999999
 31
0.0
  0
LINE
  5
100010C
330
1A
100
AcDbEntity
  8
ewns_dzialki
  6
Continuous
370
    18
100
AcDbLine
 10
7570454.8
 20
5715534.629999999
 30
0.0
 11
7570450.29
 21
5715534.95
 31
0.0
  0
LINE
  5
100010D
330
1A
100
AcDbEntity
  8
ewns_dzialki
  6
Continuous
370
    18
100
AcDbLine
 10
7570450.29
 20
5715534.95
 30
0.0
 11
7570432.54
 21
5715536.08
 31
0.0
  0
LINE
  5
100010E
330
1A
100
AcDbEntity
  8
ewns_dzialki
  6
Continuous
370
    18
100
AcDbLine
 10
7570432.54
 20
5715536.08
 30
0.0
 11
7570417.500000001
 21
5715536.12
 31
0.0
  0
LINE
  5
100010F
330
1A
100
AcDbEntity
  8
ewns_dzialki
  6
Continuous
370
    18
100
AcDbLine
 10
7570417.500000001
 20
5715536.12
 30
0.0
 11
7570394.83
 21
5715537.14
 31
0.0
  0
LINE
  5
1000110
330
1A
100
AcDbEntity
  8
ewns_dzialki
  6
Continuous
370
    18
100
AcDbLine
 10
7570394.83
 20
5715537.14
 30
0.0
 11
7570380.280000001
 21
5715538.529999999
 31
0.0
  0
LINE
  5
1000111
330
1A
100
AcDbEntity
  8
ewns_dzialki
  6
Continuous
370
    18
100
AcDbLine
 10
7570380.280000001
 20
5715538.529999999
 30
0.0
 11
7570362.88
 21
5715540.599999999
 31
0.0
  0
LINE
  5
1000112
330
1A
100
AcDbEntity
  8
ewns_dzialki
  6
Continuous
370
    18
100
AcDbLine
 10
7570362.88
 20
5715540.599999999
 30
0.0
 11
7570345.389999999
 21
5715542.44
 31
0.0
  0
LINE
  5
1000113
330
1A
100
AcDbEntity
  8
ewns_dzialki
  6
Continuous
370
    18
100
AcDbLine
 10
7570345.389999999
 20
5715542.44
 30
0.0
 11
7570328.7
 21
5715543.769999999
 31
0.0
  0
LINE
  5
1000114
330
1A
100
AcDbEntity
  8
ewns_dzialki
  6
Continuous
370
    18
100
AcDbLine
 10
7570328.7
 20
5715543.769999999
 30
0.0
 11
7570306.610000001
 21
5715544.419999999
 31
0.0
  0
LINE
  5
1000115
330
1A
100
AcDbEntity
  8
ewns_dzialki
  6
Continuous
370
    18
100
AcDbLine
 10
7570306.610000001
 20
5715544.419999999
 30
0.0
 11
7570295.29
 21
5715544.23
 31
0.0
  0
LINE
  5
1000116
330
1A
100
AcDbEntity
  8
ewns_dzialki
  6
Continuous
370
    18
100
AcDbLine
 10
7570295.29
 20
5715544.23
 30
0.0
 11
7570278.65
 21
5715544.13
 31
0.0
  0
LINE
  5
1000117
330
1A
100
AcDbEntity
  8
ewns_dzialki
  6
Continuous
370
    18
100
AcDbLine
 10
7570278.65
 20
5715544.13
 30
0.0
 11
7570262.190000001
 21
5715544.35
 31
0.0
  0
LINE
  5
1000118
330
1A
100
AcDbEntity
  8
ewns_dzialki
  6
Continuous
370
    18
100
AcDbLine
 10
7570262.190000001
 20
5715544.35
 30
0.0
 11
7570245.42
 21
5715544.819999999
 31
0.0
  0
LINE
  5
1000119
330
1A
100
AcDbEntity
  8
ewns_dzialki
  6
Continuous
370
    18
100
AcDbLine
 10
7570245.42
 20
5715544.819999999
 30
0.0
 11
7570228.63
 21
5715544.809999999
 31
0.0
  0
LINE
  5
100011A
330
1A
100
AcDbEntity
  8
ewns_dzialki
  6
Continuous
370
    18
100
AcDbLine
 10
7570228.63
 20
5715544.809999999
 30
0.0
 11
7570212.570000001
 21
5715544.88
 31
0.0
  0
LINE
  5
100011B
330
1A
100
AcDbEntity
  8
ewns_dzialki
  6
Continuous
370
    18
100
AcDbLine
 10
7570212.570000001
 20
5715544.88
 30
0.0
 11
7570196.599999999
 21
5715546.259999999
 31
0.0
  0
LINE
  5
100011C
330
1A
100
AcDbEntity
  8
ewns_dzialki
  6
Continuous
370
    18
100
AcDbLine
 10
7570196.599999999
 20
5715546.259999999
 30
0.0
 11
7570181.099999999
 21
5715547.579999999
 31
0.0
  0
LINE
  5
100011D
330
1A
100
AcDbEntity
  8
ewns_dzialki
  6
Continuous
370
    18
100
AcDbLine
 10
7570181.099999999
 20
5715547.579999999
 30
0.0
 11
7570164.94
 21
5715549.88
 31
0.0
  0
LINE
  5
100011E
330
1A
100
AcDbEntity
  8
ewns_dzialki
  6
Continuous
370
    18
100
AcDbLine
 10
7570164.94
 20
5715549.88
 30
0.0
 11
7570156.49
 21
5715551.18
 31
0.0
  0
LINE
  5
100011F
330
1A
100
AcDbEntity
  8
ewns_dzialki
  6
Continuous
370
    18
100
AcDbLine
 10
7570156.49
 20
5715551.18
 30
0.0
 11
7570148.04
 21
5715552.49
 31
0.0
  0
LINE
  5
1000120
330
1A
100
AcDbEntity
  8
ewns_dzialki
  6
Continuous
370
    18
100
AcDbLine
 10
7570148.04
 20
5715552.49
 30
0.0
 11
7570130.980000001
 21
5715554.369999999
 31
0.0
  0
LINE
  5
1000121
330
1A
100
AcDbEntity
  8
ewns_dzialki
  6
Continuous
370
    18
100
AcDbLine
 10
7570130.980000001
 20
5715554.369999999
 30
0.0
 11
7570114.91
 21
5715555.339999999
 31
0.0
  0
LINE
  5
1000122
330
1A
100
AcDbEntity
  8
ewns_dzialki
  6
Continuous
370
    18
100
AcDbLine
 10
7570114.91
 20
5715555.339999999
 30
0.0
 11
7570099.070000001
 21
5715557.11
 31
0.0
  0
LINE
  5
1000123
330
1A
100
AcDbEntity
  8
ewns_dzialki
  6
Continuous
370
    18
100
AcDbLine
 10
7570099.070000001
 20
5715557.11
 30
0.0
 11
7570083.49
 21
5715558.81
 31
0.0
  0
LINE
  5
1000124
330
1A
100
AcDbEntity
  8
ewns_dzialki
  6
Continuous
370
    18
100
AcDbLine
 10
7570083.49
 20
5715558.81
 30
0.0
 11
7570059.610000001
 21
5715561.169999999
 31
0.0
  0
LINE
  5
1000125
330
1A
100
AcDbEntity
  8
ewns_dzialki
  6
Continuous
370
    18
100
AcDbLine
 10
7570059.610000001
 20
5715561.169999999
 30
0.0
 11
7570047.070000001
 21
5715562.590000001
 31
0.0
  0
LINE
  5
1000126
330
1A
100
AcDbEntity
  8
ewns_dzialki
  6
Continuous
370
    18
100
AcDbLine
 10
7570047.070000001
 20
5715562.590000001
 30
0.0
 11
7570036.66
 21
5715563.64
 31
0.0
  0
LINE
  5
1000127
330
1A
100
AcDbEntity
  8
ewns_dzialki
  6
Continuous
370
    18
100
AcDbLine
 10
7570036.66
 20
5715563.64
 30
0.0
 11
7570020.17
 21
5715565.52
 31
0.0
  0
LINE
  5
1000128
330
1A
100
AcDbEntity
  8
ewns_dzialki
  6
Continuous
370
    18
100
AcDbLine
 10
7570020.17
 20
5715565.52
 30
0.0
 11
7570002.8
 21
5715567.71
 31
0.0
  0
LINE
  5
1000129
330
1A
100
AcDbEntity
  8
ewns_dzialki
  6
Continuous
370
    18
100
AcDbLine
 10
7570002.8
 20
5715567.71
 30
0.0
 11
7569982.87
 21
5715569.299999999
 31
0.0
  0
LINE
  5
100012A
330
1A
100
AcDbEntity
  8
ewns_dzialki
  6
Continuous
370
    18
100
AcDbLine
 10
7569982.87
 20
5715569.299999999
 30
0.0
 11
7569965.490000001
 21
5715569.48
 31
0.0
  0
LINE
  5
100012B
330
1A
100
AcDbEntity
  8
ewns_dzialki
  6
Continuous
370
    18
100
AcDbLine
 10
7569965.490000001
 20
5715569.48
 30
0.0
 11
7569949.34
 21
5715568.189999999
 31
0.0
  0
LINE
  5
100012C
330
1A
100
AcDbEntity
  8
ewns_dzialki
  6
Continuous
370
    18
100
AcDbLine
 10
7569949.34
 20
5715568.189999999
 30
0.0
 11
7569926.48
 21
5715562.48
 31
0.0
  0
LINE
  5
100012D
330
1A
100
AcDbEntity
  8
ewns_dzialki
  6
Continuous
370
    18
100
AcDbLine
 10
7569926.48
 20
5715562.48
 30
0.0
 11
7569909.92
 21
5715557.51
 31
0.0
  0
LINE
  5
100012E
330
1A
100
AcDbEntity
  8
ewns_dzialki
  6
Continuous
370
    18
100
AcDbLine
 10
7569909.92
 20
5715557.51
 30
0.0
 11
7569887.839999999
 21
5715550.740000001
 31
0.0
  0
LINE
  5
100012F
330
1A
100
AcDbEntity
  8
ewns_dzialki
  6
Continuous
370
    18
100
AcDbLine
 10
7569887.839999999
 20
5715550.740000001
 30
0.0
 11
7569848.3
 21
5715539.04
 31
0.0
  0
LINE
  5
1000130
330
1A
100
AcDbEntity
  8
ewns_dzialki
  6
Continuous
370
    18
100
AcDbLine
 10
7569848.3
 20
5715539.04
 30
0.0
 11
7569823.120000001
 21
5715531.34
 31
0.0
  0
LINE
  5
1000131
330
1A
100
AcDbEntity
  8
ewns_dzialki
  6
Continuous
370
    18
100
AcDbLine
 10
7569823.120000001
 20
5715531.34
 30
0.0
 11
7569805.480000001
 21
5715526.13
 31
0.0
  0
LINE
  5
1000132
330
1A
100
AcDbEntity
  8
ewns_dzialki
  6
Continuous
370
    18
100
AcDbLine
 10
7569805.480000001
 20
5715526.13
 30
0.0
 11
7569792.099999999
 21
5715522.09
 31
0.0
  0
LINE
  5
1000133
330
1A
100
AcDbEntity
  8
ewns_dzialki
  6
Continuous
370
    18
100
AcDbLine
 10
7569792.099999999
 20
5715522.09
 30
0.0
 11
7569781.719999999
 21
5715518.36
 31
0.0
  0
LINE
  5
1000134
330
1A
100
AcDbEntity
  8
ewns_dzialki
  6
Continuous
370
    18
100
AcDbLine
 10
7569781.719999999
 20
5715518.36
 30
0.0
 11
7569751.639999999
 21
5715507.179999999
 31
0.0
  0
LINE
  5
1000135
330
1A
100
AcDbEntity
  8
ewns_dzialki
  6
Continuous
370
    18
100
AcDbLine
 10
7569751.639999999
 20
5715507.179999999
 30
0.0
 11
7569727.929999999
 21
5715498.559999999
 31
0.0
  0
LINE
  5
1000136
330
1A
100
AcDbEntity
  8
ewns_dzialki
  6
Continuous
370
    18
100
AcDbLine
 10
7569727.929999999
 20
5715498.559999999
 30
0.0
 11
7569720.150000001
 21
5715509.469999999
 31
0.0
  0
LINE
  5
1000137
330
1A
100
AcDbEntity
  8
ewns_dzialki
  6
Continuous
370
    18
100
AcDbLine
 10
7569720.150000001
 20
5715509.469999999
 30
0.0
 11
7569727.33
 21
5715514.01
 31
0.0
  0
LINE
  5
1000138
330
1A
100
AcDbEntity
  8
ewns_dzialki
  6
Continuous
370
    18
100
AcDbLine
 10
7569727.33
 20
5715514.01
 30
0.0
 11
7569735.5
 21
5715515.83
 31
0.0
  0
LINE
  5
1000139
330
1A
100
AcDbEntity
  8
ewns_dzialki
  6
Continuous
370
    18
100
AcDbLine
 10
7569818.5
 20
5715420.39
 30
0.0
 11
7569816.389999998
 21
5715425.43
 31
0.0
  0
LINE
  5
100013A
330
1A
100
AcDbEntity
  8
ewns_dzialki
  6
Continuous
370
    18
100
AcDbLine
 10
7569816.389999998
 20
5715425.43
 30
0.0
 11
7569825.309999998
 21
5715429.33
 31
0.0
  0
LINE
  5
100013B
330
1A
100
AcDbEntity
  8
ewns_dzialki
  6
Continuous
370
    18
100
AcDbLine
 10
7569825.309999998
 20
5715429.33
 30
0.0
 11
7569858.28
 21
5715437.259999999
 31
0.0
  0
LINE
  5
100013C
330
1A
100
AcDbEntity
  8
ewns_dzialki
  6
Continuous
370
    18
100
AcDbLine
 10
7569858.28
 20
5715437.259999999
 30
0.0
 11
7569865.410000001
 21
5715418.21
 31
0.0
  0
LINE
  5
100013D
330
1A
100
AcDbEntity
  8
ewns_dzialki
  6
Continuous
370
    18
100
AcDbLine
 10
7569865.410000001
 20
5715418.21
 30
0.0
 11
7569835.679999998
 21
5715419.6
 31
0.0
  0
LINE
  5
100013E
330
1A
100
AcDbEntity
  8
ewns_dzialki
  6
Continuous
370
    18
100
AcDbLine
 10
7569835.679999998
 20
5715419.6
 30
0.0
 11
7569818.5
 21
5715420.39
 31
0.0
  0
LINE
  5
100013F
330
1A
100
AcDbEntity
  8
ewns_dzialki
  6
Continuous
370
    18
100
AcDbLine
 10
7569784.24
 20
5715423.889999999
 30
0.0
 11
7569749.69
 21
5715472.769999999
 31
0.0
  0
LINE
  5
1000140
330
1A
100
AcDbEntity
  8
ewns_dzialki
  6
Continuous
370
    18
100
AcDbLine
 10
7569749.69
 20
5715472.769999999
 30
0.0
 11
7569740.92
 21
5715489.75
 31
0.0
  0
LINE
  5
1000141
330
1A
100
AcDbEntity
  8
ewns_dzialki
  6
Continuous
370
    18
100
AcDbLine
 10
7569740.92
 20
5715489.75
 30
0.0
 11
7569741.34
 21
5715492.91
 31
0.0
  0
LINE
  5
1000142
330
1A
100
AcDbEntity
  8
ewns_dzialki
  6
Continuous
370
    18
100
AcDbLine
 10
7569741.34
 20
5715492.91
 30
0.0
 11
7569746.940000001
 21
5715501.92
 31
0.0
  0
LINE
  5
1000143
330
1A
100
AcDbEntity
  8
ewns_dzialki
  6
Continuous
370
    18
100
AcDbLine
 10
7569746.940000001
 20
5715501.92
 30
0.0
 11
7569751.639999999
 21
5715507.179999999
 31
0.0
  0
LINE
  5
1000144
330
1A
100
AcDbEntity
  8
ewns_dzialki
  6
Continuous
370
    18
100
AcDbLine
 10
7569751.639999999
 20
5715507.179999999
 30
0.0
 11
7569781.719999999
 21
5715518.36
 31
0.0
  0
LINE
  5
1000145
330
1A
100
AcDbEntity
  8
ewns_dzialki
  6
Continuous
370
    18
100
AcDbLine
 10
7569781.719999999
 20
5715518.36
 30
0.0
 11
7569794.59
 21
5715481.98
 31
0.0
  0
LINE
  5
1000146
330
1A
100
AcDbEntity
  8
ewns_dzialki
  6
Continuous
370
    18
100
AcDbLine
 10
7569794.59
 20
5715481.98
 30
0.0
 11
7569816.389999998
 21
5715425.43
 31
0.0
  0
LINE
  5
1000147
330
1A
100
AcDbEntity
  8
ewns_dzialki
  6
Continuous
370
    18
100
AcDbLine
 10
7569816.389999998
 20
5715425.43
 30
0.0
 11
7569818.5
 21
5715420.39
 31
0.0
  0
LINE
  5
1000148
330
1A
100
AcDbEntity
  8
ewns_dzialki
  6
Continuous
370
    18
100
AcDbLine
 10
7569818.5
 20
5715420.39
 30
0.0
 11
7569796.36
 21
5715412.030000001
 31
0.0
  0
LINE
  5
1000149
330
1A
100
AcDbEntity
  8
ewns_dzialki
  6
Continuous
370
    18
100
AcDbLine
 10
7569796.36
 20
5715412.030000001
 30
0.0
 11
7569791.8
 21
5715413.4
 31
0.0
  0
LINE
  5
100014A
330
1A
100
AcDbEntity
  8
ewns_dzialki
  6
Continuous
370
    18
100
AcDbLine
 10
7569791.8
 20
5715413.4
 30
0.0
 11
7569784.24
 21
5715423.889999999
 31
0.0
  0
LINE
  5
100014B
330
1A
100
AcDbEntity
  8
ewns_dzialki
  6
Continuous
370
    18
100
AcDbLine
 10
7569805.480000001
 20
5715526.13
 30
0.0
 11
7569813.190000001
 21
5715505.09
 31
0.0
  0
LINE
  5
100014C
330
1A
100
AcDbEntity
  8
ewns_dzialki
  6
Continuous
370
    18
100
AcDbLine
 10
7569813.190000001
 20
5715505.09
 30
0.0
 11
7569830.44
 21
5715511.769999999
 31
0.0
  0
LINE
  5
100014D
330
1A
100
AcDbEntity
  8
ewns_dzialki
  6
Continuous
370
    18
100
AcDbLine
 10
7569830.44
 20
5715511.769999999
 30
0.0
 11
7569855.429999998
 21
5715444.900000001
 31
0.0
  0
LINE
  5
100014E
330
1A
100
AcDbEntity
  8
ewns_dzialki
  6
Continuous
370
    18
100
AcDbLine
 10
7569855.429999998
 20
5715444.900000001
 30
0.0
 11
7569894.259999998
 21
5715465.83
 31
0.0
  0
LINE
  5
100014F
330
1A
100
AcDbEntity
  8
ewns_dzialki
  6
Continuous
370
    18
100
AcDbLine
 10
7569894.259999998
 20
5715465.83
 30
0.0
 11
7569894.509999999
 21
5715445.980000001
 31
0.0
  0
LINE
  5
1000150
330
1A
100
AcDbEntity
  8
ewns_dzialki
  6
Continuous
370
    18
100
AcDbLine
 10
7569894.509999999
 20
5715445.980000001
 30
0.0
 11
7569858.28
 21
5715437.259999999
 31
0.0
  0
LINE
  5
1000151
330
1A
100
AcDbEntity
  8
ewns_dzialki
  6
Continuous
370
    18
100
AcDbLine
 10
7569858.28
 20
5715437.259999999
 30
0.0
 11
7569825.309999998
 21
5715429.33
 31
0.0
  0
LINE
  5
1000152
330
1A
100
AcDbEntity
  8
ewns_dzialki
  6
Continuous
370
    18
100
AcDbLine
 10
7569825.309999998
 20
5715429.33
 30
0.0
 11
7569816.389999998
 21
5715425.43
 31
0.0
  0
LINE
  5
1000153
330
1A
100
AcDbEntity
  8
ewns_dzialki
  6
Continuous
370
    18
100
AcDbLine
 10
7569816.389999998
 20
5715425.43
 30
0.0
 11
7569794.59
 21
5715481.98
 31
0.0
  0
LINE
  5
1000154
330
1A
100
AcDbEntity
  8
ewns_dzialki
  6
Continuous
370
    18
100
AcDbLine
 10
7569794.59
 20
5715481.98
 30
0.0
 11
7569781.719999999
 21
5715518.36
 31
0.0
  0
LINE
  5
1000155
330
1A
100
AcDbEntity
  8
ewns_dzialki
  6
Continuous
370
    18
100
AcDbLine
 10
7569781.719999999
 20
5715518.36
 30
0.0
 11
7569792.099999999
 21
5715522.09
 31
0.0
  0
LINE
  5
1000156
330
1A
100
AcDbEntity
  8
ewns_dzialki
  6
Continuous
370
    18
100
AcDbLine
 10
7569792.099999999
 20
5715522.09
 30
0.0
 11
7569805.480000001
 21
5715526.13
 31
0.0
  0
LINE
  5
1000157
330
1A
100
AcDbEntity
  8
ewns_dzialki
  6
Continuous
370
    18
100
AcDbLine
 10
7569797.179999999
 20
5715405.929999999
 30
0.0
 11
7569791.8
 21
5715413.4
 31
0.0
  0
LINE
  5
1000158
330
1A
100
AcDbEntity
  8
ewns_dzialki
  6
Continuous
370
    18
100
AcDbLine
 10
7569791.8
 20
5715413.4
 30
0.0
 11
7569796.36
 21
5715412.030000001
 31
0.0
  0
LINE
  5
1000159
330
1A
100
AcDbEntity
  8
ewns_dzialki
  6
Continuous
370
    18
100
AcDbLine
 10
7569796.36
 20
5715412.030000001
 30
0.0
 11
7569818.5
 21
5715420.39
 31
0.0
  0
LINE
  5
100015A
330
1A
100
AcDbEntity
  8
ewns_dzialki
  6
Continuous
370
    18
100
AcDbLine
 10
7569818.5
 20
5715420.39
 30
0.0
 11
7569835.679999998
 21
5715419.6
 31
0.0
  0
LINE
  5
100015B
330
1A
100
AcDbEntity
  8
ewns_dzialki
  6
Continuous
370
    18
100
AcDbLine
 10
7569835.679999998
 20
5715419.6
 30
0.0
 11
7569843.15
 21
5715409.23
 31
0.0
  0
LINE
  5
100015C
330
1A
100
AcDbEntity
  8
ewns_dzialki
  6
Continuous
370
    18
100
AcDbLine
 10
7569843.15
 20
5715409.23
 30
0.0
 11
7569849.740000001
 21
5715400.080000001
 31
0.0
  0
LINE
  5
100015D
330
1A
100
AcDbEntity
  8
ewns_dzialki
  6
Continuous
370
    18
100
AcDbLine
 10
7569849.740000001
 20
5715400.080000001
 30
0.0
 11
7569864.269999999
 21
5715379.9
 31
0.0
  0
LINE
  5
100015E
330
1A
100
AcDbEntity
  8
ewns_dzialki
  6
Continuous
370
    18
100
AcDbLine
 10
7569864.269999999
 20
5715379.9
 30
0.0
 11
7569873.769999999
 21
5715366.71
 31
0.0
  0
LINE
  5
100015F
330
1A
100
AcDbEntity
  8
ewns_dzialki
  6
Continuous
370
    18
100
AcDbLine
 10
7569873.769999999
 20
5715366.71
 30
0.0
 11
7569884.96
 21
5715351.169999999
 31
0.0
  0
LINE
  5
1000160
330
1A
100
AcDbEntity
  8
ewns_dzialki
  6
Continuous
370
    18
100
AcDbLine
 10
7569884.96
 20
5715351.169999999
 30
0.0
 11
7569899.04
 21
5715331.63
 31
0.0
  0
LINE
  5
1000161
330
1A
100
AcDbEntity
  8
ewns_dzialki
  6
Continuous
370
    18
100
AcDbLine
 10
7569899.04
 20
5715331.63
 30
0.0
 11
7569906.53
 21
5715321.219999999
 31
0.0
  0
LINE
  5
1000162
330
1A
100
AcDbEntity
  8
ewns_dzialki
  6
Continuous
370
    18
100
AcDbLine
 10
7569906.53
 20
5715321.219999999
 30
0.0
 11
7569920.059999999
 21
5715302.44
 31
0.0
  0
LINE
  5
1000163
330
1A
100
AcDbEntity
  8
ewns_dzialki
  6
Continuous
370
    18
100
AcDbLine
 10
7569920.059999999
 20
5715302.44
 30
0.0
 11
7569936.039999999
 21
5715280.250000001
 31
0.0
  0
LINE
  5
1000164
330
1A
100
AcDbEntity
  8
ewns_dzialki
  6
Continuous
370
    18
100
AcDbLine
 10
7569936.039999999
 20
5715280.250000001
 30
0.0
 11
7569955.38
 21
5715253.4
 31
0.0
  0
LINE
  5
1000165
330
1A
100
AcDbEntity
  8
ewns_dzialki
  6
Continuous
370
    18
100
AcDbLine
 10
7569955.38
 20
5715253.4
 30
0.0
 11
7569994.04
 21
5715199.71
 31
0.0
  0
LINE
  5
1000166
330
1A
100
AcDbEntity
  8
ewns_dzialki
  6
Continuous
370
    18
100
AcDbLine
 10
7569994.04
 20
5715199.71
 30
0.0
 11
7569994.690000001
 21
5715198.809999999
 31
0.0
  0
LINE
  5
1000167
330
1A
100
AcDbEntity
  8
ewns_dzialki
  6
Continuous
370
    18
100
AcDbLine
 10
7569994.690000001
 20
5715198.809999999
 30
0.0
 11
7570010.509999999
 21
5715176.85
 31
0.0
  0
LINE
  5
1000168
330
1A
100
AcDbEntity
  8
ewns_dzialki
  6
Continuous
370
    18
100
AcDbLine
 10
7570010.509999999
 20
5715176.85
 30
0.0
 11
7570027.559999998
 21
5715153.169999999
 31
0.0
  0
LINE
  5
1000169
330
1A
100
AcDbEntity
  8
ewns_dzialki
  6
Continuous
370
    18
100
AcDbLine
 10
7570027.559999998
 20
5715153.169999999
 30
0.0
 11
7570037.67
 21
5715139.109999999
 31
0.0
  0
LINE
  5
100016A
330
1A
100
AcDbEntity
  8
ewns_dzialki
  6
Continuous
370
    18
100
AcDbLine
 10
7570037.67
 20
5715139.109999999
 30
0.0
 11
7570049.759999999
 21
5715122.33
 31
0.0
  0
LINE
  5
100016B
330
1A
100
AcDbEntity
  8
ewns_dzialki
  6
Continuous
370
    18
100
AcDbLine
 10
7570049.759999999
 20
5715122.33
 30
0.0
 11
7570071.599999998
 21
5715091.990000001
 31
0.0
  0
LINE
  5
100016C
330
1A
100
AcDbEntity
  8
ewns_dzialki
  6
Continuous
370
    18
100
AcDbLine
 10
7570071.599999998
 20
5715091.990000001
 30
0.0
 11
7570087.17
 21
5715070.370000001
 31
0.0
  0
LINE
  5
100016D
330
1A
100
AcDbEntity
  8
ewns_dzialki
  6
Continuous
370
    18
100
AcDbLine
 10
7570087.17
 20
5715070.370000001
 30
0.0
 11
7570102.96
 21
5715048.46
 31
0.0
  0
LINE
  5
100016E
330
1A
100
AcDbEntity
  8
ewns_dzialki
  6
Continuous
370
    18
100
AcDbLine
 10
7570102.96
 20
5715048.46
 30
0.0
 11
7570118.55
 21
5715026.809999999
 31
0.0
  0
LINE
  5
100016F
330
1A
100
AcDbEntity
  8
ewns_dzialki
  6
Continuous
370
    18
100
AcDbLine
 10
7570118.55
 20
5715026.809999999
 30
0.0
 11
7570133.769999999
 21
5715005.67
 31
0.0
  0
LINE
  5
1000170
330
1A
100
AcDbEntity
  8
ewns_dzialki
  6
Continuous
370
    18
100
AcDbLine
 10
7570133.769999999
 20
5715005.67
 30
0.0
 11
7570144.61
 21
5714990.62
 31
0.0
  0
LINE
  5
1000171
330
1A
100
AcDbEntity
  8
ewns_dzialki
  6
Continuous
370
    18
100
AcDbLine
 10
7570144.61
 20
5714990.62
 30
0.0
 11
7570148.59
 21
5714985.07
 31
0.0
  0
LINE
  5
1000172
330
1A
100
AcDbEntity
  8
ewns_dzialki
  6
Continuous
370
    18
100
AcDbLine
 10
7570148.59
 20
5714985.07
 30
0.0
 11
7570164.639999999
 21
5714962.79
 31
0.0
  0
LINE
  5
1000173
330
1A
100
AcDbEntity
  8
ewns_dzialki
  6
Continuous
370
    18
100
AcDbLine
 10
7570164.639999999
 20
5714962.79
 30
0.0
 11
7570171.59
 21
5714953.14
 31
0.0
  0
LINE
  5
1000174
330
1A
100
AcDbEntity
  8
ewns_dzialki
  6
Continuous
370
    18
100
AcDbLine
 10
7570171.59
 20
5714953.14
 30
0.0
 11
7570178.75
 21
5714943.19
 31
0.0
  0
LINE
  5
1000175
330
1A
100
AcDbEntity
  8
ewns_dzialki
  6
Continuous
370
    18
100
AcDbLine
 10
7570178.75
 20
5714943.19
 30
0.0
 11
7570195.990000001
 21
5714919.24
 31
0.0
  0
LINE
  5
1000176
330
1A
100
AcDbEntity
  8
ewns_dzialki
  6
Continuous
370
    18
100
AcDbLine
 10
7570195.990000001
 20
5714919.24
 30
0.0
 11
7570196.24
 21
5714918.899999999
 31
0.0
  0
LINE
  5
1000177
330
1A
100
AcDbEntity
  8
ewns_dzialki
  6
Continuous
370
    18
100
AcDbLine
 10
7570196.24
 20
5714918.899999999
 30
0.0
 11
7570210.740000001
 21
5714898.759999999
 31
0.0
  0
LINE
  5
1000178
330
1A
100
AcDbEntity
  8
ewns_dzialki
  6
Continuous
370
    18
100
AcDbLine
 10
7570210.740000001
 20
5714898.759999999
 30
0.0
 11
7570228.21
 21
5714874.519999999
 31
0.0
  0
LINE
  5
1000179
330
1A
100
AcDbEntity
  8
ewns_dzialki
  6
Continuous
370
    18
100
AcDbLine
 10
7570228.21
 20
5714874.519999999
 30
0.0
 11
7570243.139999998
 21
5714853.780000001
 31
0.0
  0
LINE
  5
100017A
330
1A
100
AcDbEntity
  8
ewns_dzialki
  6
Continuous
370
    18
100
AcDbLine
 10
7570243.139999998
 20
5714853.780000001
 30
0.0
 11
7570259.429999999
 21
5714831.150000001
 31
0.0
  0
LINE
  5
100017B
330
1A
100
AcDbEntity
  8
ewns_dzialki
  6
Continuous
370
    18
100
AcDbLine
 10
7570259.429999999
 20
5714831.150000001
 30
0.0
 11
7570276.019999998
 21
5714808.119999999
 31
0.0
  0
LINE
  5
100017C
330
1A
100
AcDbEntity
  8
ewns_dzialki
  6
Continuous
370
    18
100
AcDbLine
 10
7570276.019999998
 20
5714808.119999999
 30
0.0
 11
7570286.440000001
 21
5714793.65
 31
0.0
  0
LINE
  5
100017D
330
1A
100
AcDbEntity
  8
ewns_dzialki
  6
Continuous
370
    18
100
AcDbLine
 10
7570286.440000001
 20
5714793.65
 30
0.0
 11
7570307.67
 21
5714764.169999999
 31
0.0
  0
LINE
  5
100017E
330
1A
100
AcDbEntity
  8
ewns_dzialki
  6
Continuous
370
    18
100
AcDbLine
 10
7570307.67
 20
5714764.169999999
 30
0.0
 11
7570323.43
 21
5714742.28
 31
0.0
  0
LINE
  5
100017F
330
1A
100
AcDbEntity
  8
ewns_dzialki
  6
Continuous
370
    18
100
AcDbLine
 10
7570323.43
 20
5714742.28
 30
0.0
 11
7570324.249999999
 21
5714741.15
 31
0.0
  0
LINE
  5
1000180
330
1A
100
AcDbEntity
  8
ewns_dzialki
  6
Continuous
370
    18
100
AcDbLine
 10
7570324.249999999
 20
5714741.15
 30
0.0
 11
7570360.370000001
 21
5714746.91
 31
0.0
  0
LINE
  5
1000181
330
1A
100
AcDbEntity
  8
ewns_dzialki
  6
Continuous
370
    18
100
AcDbLine
 10
7570360.370000001
 20
5714746.91
 30
0.0
 11
7570390.950000001
 21
5714751.79
 31
0.0
  0
LINE
  5
1000182
330
1A
100
AcDbEntity
  8
ewns_dzialki
  6
Continuous
370
    18
100
AcDbLine
 10
7570390.950000001
 20
5714751.79
 30
0.0
 11
7570411.929999998
 21
5714754.6
 31
0.0
  0
LINE
  5
1000183
330
1A
100
AcDbEntity
  8
ewns_dzialki
  6
Continuous
370
    18
100
AcDbLine
 10
7570411.929999998
 20
5714754.6
 30
0.0
 11
7570418.400000001
 21
5714755.47
 31
0.0
  0
LINE
  5
1000184
330
1A
100
AcDbEntity
  8
ewns_dzialki
  6
Continuous
370
    18
100
AcDbLine
 10
7570418.400000001
 20
5714755.47
 30
0.0
 11
7570437.679999998
 21
5714754.98
 31
0.0
  0
LINE
  5
1000185
330
1A
100
AcDbEntity
  8
ewns_dzialki
  6
Continuous
370
    18
100
AcDbLine
 10
7570437.679999998
 20
5714754.98
 30
0.0
 11
7570437.509999999
 21
5714748.97
 31
0.0
  0
LINE
  5
1000186
330
1A
100
AcDbEntity
  8
ewns_dzialki
  6
Continuous
370
    18
100
AcDbLine
 10
7570437.509999999
 20
5714748.97
 30
0.0
 11
7570418.73
 21
5714749.46
 31
0.0
  0
LINE
  5
1000187
330
1A
100
AcDbEntity
  8
ewns_dzialki
  6
Continuous
370
    18
100
AcDbLine
 10
7570418.73
 20
5714749.46
 30
0.0
 11
7570391.820000001
 21
5714745.849999999
 31
0.0
  0
LINE
  5
1000188
330
1A
100
AcDbEntity
  8
ewns_dzialki
  6
Continuous
370
    18
100
AcDbLine
 10
7570391.820000001
 20
5714745.849999999
 30
0.0
 11
7570383.41
 21
5714744.51
 31
0.0
  0
LINE
  5
1000189
330
1A
100
AcDbEntity
  8
ewns_dzialki
  6
Continuous
370
    18
100
AcDbLine
 10
7570383.41
 20
5714744.51
 30
0.0
 11
7570321.54
 21
5714734.64
 31
0.0
  0
LINE
  5
100018A
330
1A
100
AcDbEntity
  8
ewns_dzialki
  6
Continuous
370
    18
100
AcDbLine
 10
7570321.54
 20
5714734.64
 30
0.0
 11
7570317.469999999
 21
5714740.29
 31
0.0
  0
LINE
  5
100018B
330
1A
100
AcDbEntity
  8
ewns_dzialki
  6
Continuous
370
    18
100
AcDbLine
 10
7570317.469999999
 20
5714740.29
 30
0.0
 11
7570312.429999999
 21
5714747.28
 31
0.0
  0
LINE
  5
100018C
330
1A
100
AcDbEntity
  8
ewns_dzialki
  6
Continuous
370
    18
100
AcDbLine
 10
7570312.429999999
 20
5714747.28
 30
0.0
 11
7570307.92
 21
5714753.56
 31
0.0
  0
LINE
  5
100018D
330
1A
100
AcDbEntity
  8
ewns_dzialki
  6
Continuous
370
    18
100
AcDbLine
 10
7570307.92
 20
5714753.56
 30
0.0
 11
7570297.04
 21
5714768.66
 31
0.0
  0
LINE
  5
100018E
330
1A
100
AcDbEntity
  8
ewns_dzialki
  6
Continuous
370
    18
100
AcDbLine
 10
7570297.04
 20
5714768.66
 30
0.0
 11
7570286.2
 21
5714783.71
 31
0.0
  0
LINE
  5
100018F
330
1A
100
AcDbEntity
  8
ewns_dzialki
  6
Continuous
370
    18
100
AcDbLine
 10
7570286.2
 20
5714783.71
 30
0.0
 11
7570281.74
 21
5714789.91
 31
0.0
  0
LINE
  5
1000190
330
1A
100
AcDbEntity
  8
ewns_dzialki
  6
Continuous
370
    18
100
AcDbLine
 10
7570281.74
 20
5714789.91
 30
0.0
 11
7570275.309999999
 21
5714798.830000001
 31
0.0
  0
LINE
  5
1000191
330
1A
100
AcDbEntity
  8
ewns_dzialki
  6
Continuous
370
    18
100
AcDbLine
 10
7570275.309999999
 20
5714798.830000001
 30
0.0
 11
7570259.59
 21
5714820.659999999
 31
0.0
  0
LINE
  5
1000192
330
1A
100
AcDbEntity
  8
ewns_dzialki
  6
Continuous
370
    18
100
AcDbLine
 10
7570259.59
 20
5714820.659999999
 30
0.0
 11
7570243.5
 21
5714843.019999999
 31
0.0
  0
LINE
  5
1000193
330
1A
100
AcDbEntity
  8
ewns_dzialki
  6
Continuous
370
    18
100
AcDbLine
 10
7570243.5
 20
5714843.019999999
 30
0.0
 11
7570228.89
 21
5714863.299999999
 31
0.0
  0
LINE
  5
1000194
330
1A
100
AcDbEntity
  8
ewns_dzialki
  6
Continuous
370
    18
100
AcDbLine
 10
7570228.89
 20
5714863.299999999
 30
0.0
 11
7570212.349999999
 21
5714886.259999999
 31
0.0
  0
LINE
  5
1000195
330
1A
100
AcDbEntity
  8
ewns_dzialki
  6
Continuous
370
    18
100
AcDbLine
 10
7570212.349999999
 20
5714886.259999999
 30
0.0
 11
7570203.769999999
 21
5714898.16
 31
0.0
  0
LINE
  5
1000196
330
1A
100
AcDbEntity
  8
ewns_dzialki
  6
Continuous
370
    18
100
AcDbLine
 10
7570203.769999999
 20
5714898.16
 30
0.0
 11
7570195.74
 21
5714909.32
 31
0.0
  0
LINE
  5
1000197
330
1A
100
AcDbEntity
  8
ewns_dzialki
  6
Continuous
370
    18
100
AcDbLine
 10
7570195.74
 20
5714909.32
 30
0.0
 11
7570191.369999999
 21
5714915.400000001
 31
0.0
  0
LINE
  5
1000198
330
1A
100
AcDbEntity
  8
ewns_dzialki
  6
Continuous
370
    18
100
AcDbLine
 10
7570191.369999999
 20
5714915.400000001
 30
0.0
 11
7570179.84
 21
5714931.41
 31
0.0
  0
LINE
  5
1000199
330
1A
100
AcDbEntity
  8
ewns_dzialki
  6
Continuous
370
    18
100
AcDbLine
 10
7570179.84
 20
5714931.41
 30
0.0
 11
7570176.629999999
 21
5714935.88
 31
0.0
  0
LINE
  5
100019A
330
1A
100
AcDbEntity
  8
ewns_dzialki
  6
Continuous
370
    18
100
AcDbLine
 10
7570176.629999999
 20
5714935.88
 30
0.0
 11
7570164.19
 21
5714953.14
 31
0.0
  0
LINE
  5
100019B
330
1A
100
AcDbEntity
  8
ewns_dzialki
  6
Continuous
370
    18
100
AcDbLine
 10
7570164.19
 20
5714953.14
 30
0.0
 11
7570148.320000001
 21
5714975.190000001
 31
0.0
  0
LINE
  5
100019C
330
1A
100
AcDbEntity
  8
ewns_dzialki
  6
Continuous
370
    18
100
AcDbLine
 10
7570148.320000001
 20
5714975.190000001
 30
0.0
 11
7570140.900000001
 21
5714985.49
 31
0.0
  0
LINE
  5
100019D
330
1A
100
AcDbEntity
  8
ewns_dzialki
  6
Continuous
370
    18
100
AcDbLine
 10
7570140.900000001
 20
5714985.49
 30
0.0
 11
7570137.16
 21
5714990.69
 31
0.0
  0
LINE
  5
100019E
330
1A
100
AcDbEntity
  8
ewns_dzialki
  6
Continuous
370
    18
100
AcDbLine
 10
7570137.16
 20
5714990.69
 30
0.0
 11
7570133.509999999
 21
5714995.74
 31
0.0
  0
LINE
  5
100019F
330
1A
100
AcDbEntity
  8
ewns_dzialki
  6
Continuous
370
    18
100
AcDbLine
 10
7570133.509999999
 20
5714995.74
 30
0.0
 11
7570118.3
 21
5715016.88
 31
0.0
  0
LINE
  5
10001A0
330
1A
100
AcDbEntity
  8
ewns_dzialki
  6
Continuous
370
    18
100
AcDbLine
 10
7570118.3
 20
5715016.88
 30
0.0
 11
7570110.839999999
 21
5715027.24
 31
0.0
  0
LINE
  5
10001A1
330
1A
100
AcDbEntity
  8
ewns_dzialki
  6
Continuous
370
    18
100
AcDbLine
 10
7570110.839999999
 20
5715027.24
 30
0.0
 11
7570102.71
 21
5715038.519999999
 31
0.0
  0
LINE
  5
10001A2
330
1A
100
AcDbEntity
  8
ewns_dzialki
  6
Continuous
370
    18
100
AcDbLine
 10
7570102.71
 20
5715038.519999999
 30
0.0
 11
7570094.570000001
 21
5715049.83
 31
0.0
  0
LINE
  5
10001A3
330
1A
100
AcDbEntity
  8
ewns_dzialki
  6
Continuous
370
    18
100
AcDbLine
 10
7570094.570000001
 20
5715049.83
 30
0.0
 11
7570086.91
 21
5715060.46
 31
0.0
  0
LINE
  5
10001A4
330
1A
100
AcDbEntity
  8
ewns_dzialki
  6
Continuous
370
    18
100
AcDbLine
 10
7570086.91
 20
5715060.46
 30
0.0
 11
7570079.259999999
 21
5715071.08
 31
0.0
  0
LINE
  5
10001A5
330
1A
100
AcDbEntity
  8
ewns_dzialki
  6
Continuous
370
    18
100
AcDbLine
 10
7570079.259999999
 20
5715071.08
 30
0.0
 11
7570071.37
 21
5715082.059999999
 31
0.0
  0
LINE
  5
10001A6
330
1A
100
AcDbEntity
  8
ewns_dzialki
  6
Continuous
370
    18
100
AcDbLine
 10
7570071.37
 20
5715082.059999999
 30
0.0
 11
7570064.09
 21
5715092.16
 31
0.0
  0
LINE
  5
10001A7
330
1A
100
AcDbEntity
  8
ewns_dzialki
  6
Continuous
370
    18
100
AcDbLine
 10
7570064.09
 20
5715092.16
 30
0.0
 11
7570056.730000001
 21
5715102.380000001
 31
0.0
  0
LINE
  5
10001A8
330
1A
100
AcDbEntity
  8
ewns_dzialki
  6
Continuous
370
    18
100
AcDbLine
 10
7570056.730000001
 20
5715102.380000001
 30
0.0
 11
7570049.530000001
 21
5715112.39
 31
0.0
  0
LINE
  5
10001A9
330
1A
100
AcDbEntity
  8
ewns_dzialki
  6
Continuous
370
    18
100
AcDbLine
 10
7570049.530000001
 20
5715112.39
 30
0.0
 11
7570037.130000001
 21
5715129.609999999
 31
0.0
  0
LINE
  5
10001AA
330
1A
100
AcDbEntity
  8
ewns_dzialki
  6
Continuous
370
    18
100
AcDbLine
 10
7570037.130000001
 20
5715129.609999999
 30
0.0
 11
7570027.33
 21
5715143.209999999
 31
0.0
  0
LINE
  5
10001AB
330
1A
100
AcDbEntity
  8
ewns_dzialki
  6
Continuous
370
    18
100
AcDbLine
 10
7570027.33
 20
5715143.209999999
 30
0.0
 11
7570010.279999999
 21
5715166.9
 31
0.0
  0
LINE
  5
10001AC
330
1A
100
AcDbEntity
  8
ewns_dzialki
  6
Continuous
370
    18
100
AcDbLine
 10
7570010.279999999
 20
5715166.9
 30
0.0
 11
7569993.769999999
 21
5715189.82
 31
0.0
  0
LINE
  5
10001AD
330
1A
100
AcDbEntity
  8
ewns_dzialki
  6
Continuous
370
    18
100
AcDbLine
 10
7569993.769999999
 20
5715189.82
 30
0.0
 11
7569991.36
 21
5715193.17
 31
0.0
  0
LINE
  5
10001AE
330
1A
100
AcDbEntity
  8
ewns_dzialki
  6
Continuous
370
    18
100
AcDbLine
 10
7569991.36
 20
5715193.17
 30
0.0
 11
7569977.05
 21
5715213.04
 31
0.0
  0
LINE
  5
10001AF
330
1A
100
AcDbEntity
  8
ewns_dzialki
  6
Continuous
370
    18
100
AcDbLine
 10
7569977.05
 20
5715213.04
 30
0.0
 11
7569968.599999998
 21
5715224.769999999
 31
0.0
  0
LINE
  5
10001B0
330
1A
100
AcDbEntity
  8
ewns_dzialki
  6
Continuous
370
    18
100
AcDbLine
 10
7569968.599999998
 20
5715224.769999999
 30
0.0
 11
7569964.480000001
 21
5715230.49
 31
0.0
  0
LINE
  5
10001B1
330
1A
100
AcDbEntity
  8
ewns_dzialki
  6
Continuous
370
    18
100
AcDbLine
 10
7569964.480000001
 20
5715230.49
 30
0.0
 11
7569960.940000001
 21
5715235.4
 31
0.0
  0
LINE
  5
10001B2
330
1A
100
AcDbEntity
  8
ewns_dzialki
  6
Continuous
370
    18
100
AcDbLine
 10
7569960.940000001
 20
5715235.4
 30
0.0
 11
7569945.169999999
 21
5715257.309999999
 31
0.0
  0
LINE
  5
10001B3
330
1A
100
AcDbEntity
  8
ewns_dzialki
  6
Continuous
370
    18
100
AcDbLine
 10
7569945.169999999
 20
5715257.309999999
 30
0.0
 11
7569936.519999998
 21
5715269.329999999
 31
0.0
  0
LINE
  5
10001B4
330
1A
100
AcDbEntity
  8
ewns_dzialki
  6
Continuous
370
    18
100
AcDbLine
 10
7569936.519999998
 20
5715269.329999999
 30
0.0
 11
7569928.32
 21
5715280.7
 31
0.0
  0
LINE
  5
10001B5
330
1A
100
AcDbEntity
  8
ewns_dzialki
  6
Continuous
370
    18
100
AcDbLine
 10
7569928.32
 20
5715280.7
 30
0.0
 11
7569919.809999999
 21
5715292.519999999
 31
0.0
  0
LINE
  5
10001B6
330
1A
100
AcDbEntity
  8
ewns_dzialki
  6
Continuous
370
    18
100
AcDbLine
 10
7569919.809999999
 20
5715292.519999999
 30
0.0
 11
7569912.59
 21
5715302.54
 31
0.0
  0
LINE
  5
10001B7
330
1A
100
AcDbEntity
  8
ewns_dzialki
  6
Continuous
370
    18
100
AcDbLine
 10
7569912.59
 20
5715302.54
 30
0.0
 11
7569905.48
 21
5715312.41
 31
0.0
  0
LINE
  5
10001B8
330
1A
100
AcDbEntity
  8
ewns_dzialki
  6
Continuous
370
    18
100
AcDbLine
 10
7569905.48
 20
5715312.41
 30
0.0
 11
7569898.84
 21
5715321.63
 31
0.0
  0
LINE
  5
10001B9
330
1A
100
AcDbEntity
  8
ewns_dzialki
  6
Continuous
370
    18
100
AcDbLine
 10
7569898.84
 20
5715321.63
 30
0.0
 11
7569891.679999999
 21
5715331.58
 31
0.0
  0
LINE
  5
10001BA
330
1A
100
AcDbEntity
  8
ewns_dzialki
  6
Continuous
370
    18
100
AcDbLine
 10
7569891.679999999
 20
5715331.58
 30
0.0
 11
7569884.349999998
 21
5715341.75
 31
0.0
  0
LINE
  5
10001BB
330
1A
100
AcDbEntity
  8
ewns_dzialki
  6
Continuous
370
    18
100
AcDbLine
 10
7569884.349999998
 20
5715341.75
 30
0.0
 11
7569877.179999998
 21
5715351.71
 31
0.0
  0
LINE
  5
10001BC
330
1A
100
AcDbEntity
  8
ewns_dzialki
  6
Continuous
370
    18
100
AcDbLine
 10
7569877.179999998
 20
5715351.71
 30
0.0
 11
7569866.12
 21
5715367.06
 31
0.0
  0
LINE
  5
10001BD
330
1A
100
AcDbEntity
  8
ewns_dzialki
  6
Continuous
370
    18
100
AcDbLine
 10
7569866.12
 20
5715367.06
 30
0.0
 11
7569856.57
 21
5715380.32
 31
0.0
  0
LINE
  5
10001BE
330
1A
100
AcDbEntity
  8
ewns_dzialki
  6
Continuous
370
    18
100
AcDbLine
 10
7569856.57
 20
5715380.32
 30
0.0
 11
7569842.23
 21
5715400.24
 31
0.0
  0
LINE
  5
10001BF
330
1A
100
AcDbEntity
  8
ewns_dzialki
  6
Continuous
370
    18
100
AcDbLine
 10
7569842.23
 20
5715400.24
 30
0.0
 11
7569832.509999998
 21
5715413.74
 31
0.0
  0
LINE
  5
10001C0
330
1A
100
AcDbEntity
  8
ewns_dzialki
  6
Continuous
370
    18
100
AcDbLine
 10
7569832.509999998
 20
5715413.74
 30
0.0
 11
7569819.459999999
 21
5715414.349999999
 31
0.0
  0
LINE
  5
10001C1
330
1A
100
AcDbEntity
  8
ewns_dzialki
  6
Continuous
370
    18
100
AcDbLine
 10
7569819.459999999
 20
5715414.349999999
 30
0.0
 11
7569797.179999999
 21
5715405.929999999
 31
0.0
  0
LINE
  5
10001C2
330
1A
100
AcDbEntity
  8
ewns_dzialki
  6
Continuous
370
    18
100
AcDbLine
 10
7569784.24
 20
5715423.889999999
 30
0.0
 11
7569791.8
 21
5715413.4
 31
0.0
  0
LINE
  5
10001C3
330
1A
100
AcDbEntity
  8
ewns_dzialki
  6
Continuous
370
    18
100
AcDbLine
 10
7569791.8
 20
5715413.4
 30
0.0
 11
7569797.179999999
 21
5715405.929999999
 31
0.0
  0
LINE
  5
10001C4
330
1A
100
AcDbEntity
  8
ewns_dzialki
  6
Continuous
370
    18
100
AcDbLine
 10
7569797.179999999
 20
5715405.929999999
 30
0.0
 11
7569794.759999999
 21
5715405.009999999
 31
0.0
  0
LINE
  5
10001C5
330
1A
100
AcDbEntity
  8
ewns_dzialki
  6
Continuous
370
    18
100
AcDbLine
 10
7569794.759999999
 20
5715405.009999999
 30
0.0
 11
7569782.21
 21
5715422.440000001
 31
0.0
  0
LINE
  5
10001C6
330
1A
100
AcDbEntity
  8
ewns_dzialki
  6
Continuous
370
    18
100
AcDbLine
 10
7569782.21
 20
5715422.440000001
 30
0.0
 11
7569727.929999999
 21
5715498.559999999
 31
0.0
  0
LINE
  5
10001C7
330
1A
100
AcDbEntity
  8
ewns_dzialki
  6
Continuous
370
    18
100
AcDbLine
 10
7569727.929999999
 20
5715498.559999999
 30
0.0
 11
7569751.639999999
 21
5715507.179999999
 31
0.0
  0
LINE
  5
10001C8
330
1A
100
AcDbEntity
  8
ewns_dzialki
  6
Continuous
370
    18
100
AcDbLine
 10
7569751.639999999
 20
5715507.179999999
 30
0.0
 11
7569746.940000001
 21
5715501.92
 31
0.0
  0
LINE
  5
10001C9
330
1A
100
AcDbEntity
  8
ewns_dzialki
  6
Continuous
370
    18
100
AcDbLine
 10
7569746.940000001
 20
5715501.92
 30
0.0
 11
7569741.34
 21
5715492.91
 31
0.0
  0
LINE
  5
10001CA
330
1A
100
AcDbEntity
  8
ewns_dzialki
  6
Continuous
370
    18
100
AcDbLine
 10
7569741.34
 20
5715492.91
 30
0.0
 11
7569740.92
 21
5715489.75
 31
0.0
  0
LINE
  5
10001CB
330
1A
100
AcDbEntity
  8
ewns_dzialki
  6
Continuous
370
    18
100
AcDbLine
 10
7569740.92
 20
5715489.75
 30
0.0
 11
7569749.69
 21
5715472.769999999
 31
0.0
  0
LINE
  5
10001CC
330
1A
100
AcDbEntity
  8
ewns_dzialki
  6
Continuous
370
    18
100
AcDbLine
 10
7569749.69
 20
5715472.769999999
 30
0.0
 11
7569784.24
 21
5715423.889999999
 31
0.0
  0
LINE
  5
10001CD
330
1A
100
AcDbEntity
  8
ewns_budynki
  6
Continuous
370
    25
100
AcDbLine
 10
7569779.346999999
 20
5715509.524
 30
0.0
 11
7569783.681
 21
5715498.268
 31
0.0
  0
LINE
  5
10001CE
330
1A
100
AcDbEntity
  8
ewns_budynki
  6
Continuous
370
    25
100
AcDbLine
 10
7569783.681
 20
5715498.268
 30
0.0
 11
7569778.412999998
 21
5715496.242
 31
0.0
  0
LINE
  5
10001CF
330
1A
100
AcDbEntity
  8
ewns_budynki
  6
Continuous
370
    25
100
AcDbLine
 10
7569778.412999998
 20
5715496.242
 30
0.0
 11
7569775.273
 21
5715504.419
 31
0.0
  0
LINE
  5
10001D0
330
1A
100
AcDbEntity
  8
ewns_budynki
  6
Continuous
370
    25
100
AcDbLine
 10
7569775.273
 20
5715504.419
 30
0.0
 11
7569772.904
 21
5715503.506
 31
0.0
  0
LINE
  5
10001D1
330
1A
100
AcDbEntity
  8
ewns_budynki
  6
Continuous
370
    25
100
AcDbLine
 10
7569772.904
 20
5715503.506
 30
0.0
 11
7569771.719999998
 21
5715506.694
 31
0.0
  0
LINE
  5
10001D2
330
1A
100
AcDbEntity
  8
ewns_budynki
  6
Continuous
370
    25
100
AcDbLine
 10
7569771.719999998
 20
5715506.694
 30
0.0
 11
7569779.346999999
 21
5715509.524
 31
0.0
  0
LINE
  5
10001D3
330
1A
100
AcDbEntity
  8
ewns_budynki
  6
Continuous
370
    25
100
AcDbLine
 10
7569752.174999999
 20
5715500.709999999
 30
0.0
 11
7569756.473
 21
5715502.865000001
 31
0.0
  0
LINE
  5
10001D4
330
1A
100
AcDbEntity
  8
ewns_budynki
  6
Continuous
370
    25
100
AcDbLine
 10
7569756.473
 20
5715502.865000001
 30
0.0
 11
7569763.4
 21
5715489.062999999
 31
0.0
  0
LINE
  5
10001D5
330
1A
100
AcDbEntity
  8
ewns_budynki
  6
Continuous
370
    25
100
AcDbLine
 10
7569763.4
 20
5715489.062999999
 30
0.0
 11
7569758.883
 21
5715486.797000001
 31
0.0
  0
LINE
  5
10001D6
330
1A
100
AcDbEntity
  8
ewns_budynki
  6
Continuous
370
    25
100
AcDbLine
 10
7569758.883
 20
5715486.797000001
 30
0.0
 11
7569752.174999999
 21
5715500.709999999
 31
0.0
  0
LINE
  5
10001D7
330
1A
100
AcDbEntity
  8
ewns_budynki
  6
Continuous
370
    25
100
AcDbLine
 10
7569790.519999998
 20
5715511.828
 30
0.0
 11
7569793.989
 21
5715512.850999999
 31
0.0
  0
LINE
  5
10001D8
330
1A
100
AcDbEntity
  8
ewns_budynki
  6
Continuous
370
    25
100
AcDbLine
 10
7569793.989
 20
5715512.850999999
 30
0.0
 11
7569796.962
 21
5715502.771999999
 31
0.0
  0
LINE
  5
10001D9
330
1A
100
AcDbEntity
  8
ewns_budynki
  6
Continuous
370
    25
100
AcDbLine
 10
7569796.962
 20
5715502.771999999
 30
0.0
 11
7569788.190999998
 21
5715500.184999999
 31
0.0
  0
LINE
  5
10001DA
330
1A
100
AcDbEntity
  8
ewns_budynki
  6
Continuous
370
    25
100
AcDbLine
 10
7569788.190999998
 20
5715500.184999999
 30
0.0
 11
7569785.218999999
 21
5715510.263000001
 31
0.0
  0
LINE
  5
10001DB
330
1A
100
AcDbEntity
  8
ewns_budynki
  6
Continuous
370
    25
100
AcDbLine
 10
7569785.218999999
 20
5715510.263000001
 30
0.0
 11
7569787.144000001
 21
5715510.83
 31
0.0
  0
LINE
  5
10001DC
330
1A
100
AcDbEntity
  8
ewns_budynki
  6
Continuous
370
    25
100
AcDbLine
 10
7569787.144000001
 20
5715510.83
 30
0.0
 11
7569786.326999999
 21
5715513.6
 31
0.0
  0
LINE
  5
10001DD
330
1A
100
AcDbEntity
  8
ewns_budynki
  6
Continuous
370
    25
100
AcDbLine
 10
7569786.326999999
 20
5715513.6
 30
0.0
 11
7569789.696999999
 21
5715514.594
 31
0.0
  0
LINE
  5
10001DE
330
1A
100
AcDbEntity
  8
ewns_budynki
  6
Continuous
370
    25
100
AcDbLine
 10
7569789.696999999
 20
5715514.594
 30
0.0
 11
7569790.519999998
 21
5715511.828
 31
0.0
  0
LINE
  5
10001DF
330
1A
100
AcDbEntity
  8
ewns_budynki
  6
Continuous
370
    25
100
AcDbLine
 10
7569795.75
 20
5715483.991999999
 30
0.0
 11
7569802.257
 21
5715486.5
 31
0.0
  0
LINE
  5
10001E0
330
1A
100
AcDbEntity
  8
ewns_budynki
  6
Continuous
370
    25
100
AcDbLine
 10
7569802.257
 20
5715486.5
 30
0.0
 11
7569807.162999999
 21
5715473.844999999
 31
0.0
  0
LINE
  5
10001E1
330
1A
100
AcDbEntity
  8
ewns_budynki
  6
Continuous
370
    25
100
AcDbLine
 10
7569807.162999999
 20
5715473.844999999
 30
0.0
 11
7569800.636
 21
5715471.327
 31
0.0
  0
LINE
  5
10001E2
330
1A
100
AcDbEntity
  8
ewns_budynki
  6
Continuous
370
    25
100
AcDbLine
 10
7569800.636
 20
5715471.327
 30
0.0
 11
7569795.75
 21
5715483.991999999
 31
0.0
  0
ENDSEC
  0
SECTION
  2
OBJECTS
  0
DICTIONARY
  5
1E5
330
0
100
AcDbDictionary
281
     1
  3
ACAD_CIP_PREVIOUS_PRODUCT_INFO
350
1000050
  3
ACAD_COLOR
350
1000034
  3
ACAD_DETAILVIEWSTYLE
350
100004E
  3
ACAD_GROUP
350
1E6
  3
ACAD_LAYOUT
350
1E7
  3
ACAD_MATERIAL
350
1000002
  3
ACAD_MLEADERSTYLE
350
1000049
  3
ACAD_MLINESTYLE
350
1E8
  3
ACAD_PLOTSETTINGS
350
1E9
  3
ACAD_PLOTSTYLENAME
350
1EA
  3
ACAD_SCALELIST
350
1000037
  3
ACAD_SECTIONVIEWSTYLE
350
100004B
  3
ACAD_TABLESTYLE
350
1000035
  3
ACAD_VISUALSTYLE
350
100001B
  3
ACDB_RECOMPOSE_DATA
350
10001F7
  3
AcDbVariableDictionary
350
10001ED
  0
DICTIONARY
  5
10001E3
330
A
100
AcDbDictionary
280
     1
281
     1
  3
ADSK_XREC_LAYER_RECONCILED
360
10001E4
  0
DICTIONARY
  5
10001E5
330
C
100
AcDbDictionary
280
     1
281
     1
  3
ADSK_XREC_LAYER_RECONCILED
360
10001E6
  0
DICTIONARY
  5
10001E7
330
D
100
AcDbDictionary
280
     1
281
     1
  3
ADSK_XREC_LAYER_RECONCILED
360
10001E8
  0
DICTIONARY
  5
10001E9
330
E
100
AcDbDictionary
280
     1
281
     1
  3
ADSK_XREC_LAYER_RECONCILED
360
10001EA
  0
DICTIONARY
  5
10001EB
330
F
100
AcDbDictionary
280
     1
281
     1
  3
ADSK_XREC_LAYER_RECONCILED
360
10001EC
  0
DICTIONARY
  5
1000052
330
1A
100
AcDbDictionary
280
     1
281
     1
  3
ACAD_SORTENTS
360
1000053
  0
XRECORD
  5
1000050
102
{ACAD_REACTORS
330
1E5
102
}
330
1E5
100
AcDbXrecord
280
     1
300
CIV3D
300
2013
300
CIV3D_F_S
  0
DICTIONARY
  5
1000034
102
{ACAD_REACTORS
330
1E5
102
}
330
1E5
100
AcDbDictionary
281
     1
  0
DICTIONARY
  5
100004E
102
{ACAD_REACTORS
330
1E5
102
}
330
1E5
100
AcDbDictionary
281
     1
  3
Imperial24
350
100004F
  0
DICTIONARY
  5
1E6
102
{ACAD_REACTORS
330
1E5
102
}
330
1E5
100
AcDbDictionary
281
     1
  0
DICTIONARY
  5
1E7
102
{ACAD_REACTORS
330
1E5
102
}
330
1E5
100
AcDbDictionary
281
     1
  3
Layout
350
1D
  3
Model
350
1B
  0
DICTIONARY
  5
1000002
102
{ACAD_REACTORS
330
1E5
102
}
330
1E5
100
AcDbDictionary
281
     1
  3
ByBlock
350
100000B
  3
ByLayer
350
1000003
  3
Global
350
1000013
  0
DICTIONARY
  5
1000049
102
{ACAD_REACTORS
330
1E5
102
}
330
1E5
100
AcDbDictionary
281
     1
  3
Standard
350
100004A
  0
DICTIONARY
  5
1E8
102
{ACAD_REACTORS
330
1E5
102
}
330
1E5
100
AcDbDictionary
281
     1
  3
Standard
350
1EB
  0
DICTIONARY
  5
1E9
102
{ACAD_REACTORS
330
1E5
102
}
330
1E5
100
AcDbDictionary
281
     1
  0
ACDBDICTIONARYWDFLT
  5
1EA
102
{ACAD_REACTORS
330
1E5
102
}
330
1E5
100
AcDbDictionary
281
     1
  3
Normal
350
B
100
AcDbDictionaryWithDefault
340
B
  0
DICTIONARY
  5
1000037
102
{ACAD_REACTORS
330
1E5
102
}
330
1E5
100
AcDbDictionary
281
     1
  3
A0
350
1000038
  3
A1
350
1000039
  3
A2
350
100003A
  3
A3
350
100003B
  3
A4
350
100003C
  3
A5
350
100003D
  3
A6
350
100003E
  3
A7
350
100003F
  3
A8
350
1000040
  3
A9
350
1000041
  3
B0
350
1000042
  3
B1
350
1000043
  3
B2
350
1000044
  3
B3
350
1000045
  3
B4
350
1000046
  3
B5
350
1000047
  3
B6
350
1000048
  0
DICTIONARY
  5
100004B
102
{ACAD_REACTORS
330
1E5
102
}
330
1E5
100
AcDbDictionary
281
     1
  3
Imperial24
350
100004D
  0
DICTIONARY
  5
1000035
102
{ACAD_REACTORS
330
1E5
102
}
330
1E5
100
AcDbDictionary
281
     1
  3
Standard
350
1000036
  0
DICTIONARY
  5
100001B
102
{ACAD_REACTORS
330
1E5
102
}
330
1E5
100
AcDbDictionary
281
     1
  3
2dWireframe
350
1000021
  3
Basic
350
1000020
  3
Brighten
350
1000027
  3
ColorChange
350
100002B
  3
Conceptual
350
1000024
  3
Dim
350
1000026
  3
EdgeColorOff
350
1000033
  3
Facepattern
350
100002A
  3
Flat
350
100001C
  3
FlatWithEdges
350
100001D
  3
Gouraud
350
100001E
  3
GouraudWithEdges
350
100001F
  3
Hidden
350
1000023
  3
JitterOff
350
1000031
  3
Linepattern
350
1000029
  3
OverhangOff
350
1000032
  3
Realistic
350
1000025
  3
Shaded
350
1000030
  3
Shaded with edges
350
100002F
  3
Shades of Gray
350
100002C
  3
Sketchy
350
100002D
  3
Thicken
350
1000028
  3
Wireframe
350
1000022
  3
X-Ray
350
100002E
  0
XRECORD
  5
10001F7
102
{ACAD_REACTORS
330
1E5
102
}
330
1E5
100
AcDbXrecord
280
     1
 90
        1
330
1000036
  0
DICTIONARY
  5
10001ED
102
{ACAD_REACTORS
330
1E5
102
}
330
1E5
100
AcDbDictionary
281
     1
  3
CANNOSCALE
350
10001F2
  3
CMLEADERSTYLE
350
10001EF
  3
CTABLESTYLE
350
10001EE
  3
CVIEWDETAILSTYLE
350
10001F0
  3
CVIEWSECTIONSTYLE
350
10001F1
  3
XCLIPFRAME
350
10001F3
  0
XRECORD
  5
10001E4
102
{ACAD_REACTORS
330
10001E3
102
}
330
10001E3
100
AcDbXrecord
280
     1
290
     1
  0
XRECORD
  5
10001E6
102
{ACAD_REACTORS
330
10001E5
102
}
330
10001E5
100
AcDbXrecord
280
     1
290
     1
  0
XRECORD
  5
10001E8
102
{ACAD_REACTORS
330
10001E7
102
}
330
10001E7
100
AcDbXrecord
280
     1
290
     1
  0
XRECORD
  5
10001EA
102
{ACAD_REACTORS
330
10001E9
102
}
330
10001E9
100
AcDbXrecord
280
     1
290
     1
  0
XRECORD
  5
10001EC
102
{ACAD_REACTORS
330
10001EB
102
}
330
10001EB
100
AcDbXrecord
280
     1
290
     1
  0
SORTENTSTABLE
  5
1000053
102
{ACAD_REACTORS
330
1000052
102
}
330
1000052
100
AcDbSortentsTable
330
1A
331
10000B0
  5
10001BE
331
1E1
  5
10001DF
331
1000190
  5
1000095
331
10000C1
  5
10000F5
331
10000D2
  5
1000106
331
10001A1
  5
10000A6
331
10000E3
  5
1000117
331
10001B2
  5
10000B7
331
10001C3
  5
1E4
331
10000FE
  5
1000132
331
10000ED
  5
1000121
331
10001D4
  5
1DA
331
1000131
  5
1000165
331
1000120
  5
1000154
331
100010F
  5
1000143
331
10001DE
  5
1D7
331
1000055
  5
10001C4
331
100007D
  5
100018B
331
1000153
  5
10000CF
331
100008E
  5
100019C
331
1D7
  5
10001D5
331
1000066
  5
1000174
331
100016E
  5
1000073
331
100009F
  5
10001AD
331
100017F
  5
1000084
331
1000142
  5
10000D6
331
10000A0
  5
10001AE
331
10000B1
  5
10000E5
331
1000180
  5
1000085
331
1E2
  5
10001E0
331
1000191
  5
1000096
331
10000C2
  5
10000F6
331
10000D3
  5
1000107
331
10001A2
  5
10000A7
331
10000E4
  5
1000118
331
10001B3
  5
10000B8
331
10001C4
  5
1000051
331
10000FF
  5
1000133
331
10000EE
  5
1000122
331
1000132
  5
1000166
331
1000121
  5
1000155
331
1000110
  5
1000144
331
1000143
  5
10000D7
331
10001DF
  5
1CC
331
10001D5
  5
1DB
331
1000056
  5
10001C5
331
100007E
  5
100018C
331
100008F
  5
100019D
331
1000067
  5
1000175
331
100016F
  5
1000074
331
1000154
  5
10000D0
331
1000090
  5
100019E
331
1D9
  5
10001D7
331
1000068
  5
1000176
331
1000170
  5
1000075
331
10000A1
  5
10001AF
331
10000B2
  5
10000E6
331
1000181
  5
1000086
331
1E3
  5
10001E1
331
1000192
  5
1000097
331
10000C3
  5
10000F7
331
10000D4
  5
1000108
331
10001A3
  5
10000A8
331
10000E5
  5
1000119
331
10001B4
  5
10000B9
331
10001C5
  5
1000054
331
1000100
  5
1000134
331
10000EF
  5
1000123
331
1000133
  5
1000167
331
1000122
  5
1000156
331
1000111
  5
1000145
331
1000144
  5
10000D8
331
10001E0
  5
1CD
331
10001D6
  5
1DC
331
1000057
  5
10001C6
331
100007F
  5
100018D
331
1000155
  5
10000D1
331
1000080
  5
100018E
331
1000058
  5
10001C7
331
1000160
  5
1000065
331
1000091
  5
100019F
331
1DA
  5
10001D8
331
1000069
  5
1000177
331
1000171
  5
1000076
331
10000A2
  5
10001B0
331
10000B3
  5
10000E7
331
1000182
  5
1000087
331
1E4
  5
10001E2
331
1000193
  5
1000098
331
10000C4
  5
10000F8
331
10000D5
  5
1000109
331
10001A4
  5
10000A9
331
10000E6
  5
100011A
331
10001B5
  5
10000BA
331
10001C6
  5
1000055
331
1000101
  5
1000135
331
10000F0
  5
1000124
331
1000134
  5
1000168
331
1000123
  5
1000157
331
1000112
  5
1000146
331
1000145
  5
10000D9
331
10001E1
  5
1CE
331
1000156
  5
10000D2
331
10001D7
  5
1D0
331
1000081
  5
100018F
331
1000070
  5
100017E
331
1000059
  5
10001C8
331
1000161
  5
1000066
331
1000092
  5
10001A0
331
1DB
  5
10001D9
331
100006A
  5
1000178
331
1000172
  5
1000077
331
10000A3
  5
10001B1
331
10000B4
  5
10000E8
331
1000183
  5
1000088
331
10000C5
  5
10000F9
331
10000D6
  5
100010A
331
10001A5
  5
10000AA
331
1000194
  5
1000099
331
10000E7
  5
100011B
331
10001B6
  5
10000BB
331
1000102
  5
1000136
331
10000F1
  5
1000125
331
10001C7
  5
1000056
331
1000135
  5
1000169
331
1000124
  5
1000158
331
1000113
  5
1000147
331
1000146
  5
10000DA
331
10001E2
  5
1CF
331
1000157
  5
100005C
331
1000082
  5
1000190
331
1000071
  5
100017F
331
1000158
  5
100005D
331
100005A
  5
10001C9
331
1000162
  5
1000067
331
1000093
  5
10001A1
331
1DC
  5
10001DA
331
100006B
  5
1000179
331
1000173
  5
1000078
331
10000A4
  5
10001B2
331
10000B5
  5
10000E9
331
1000184
  5
1000089
331
10000C6
  5
10000FA
331
10000D7
  5
100010B
331
10001A6
  5
10000AB
331
1000195
  5
100009A
331
10001B7
  5
10000BC
331
1000136
  5
100016A
331
1000125
  5
1000159
331
1000114
  5
1000148
331
1000103
  5
1000137
331
10000F2
  5
1000126
331
10001C8
  5
1000057
331
1000147
  5
10000DB
331
1000148
  5
10000DC
331
1000083
  5
1000191
331
1000072
  5
1000180
331
1000159
  5
100005E
331
1CC
  5
10001CA
331
100005B
  5
10001BF
331
1000163
  5
1000068
331
1000094
  5
10001A2
331
1DD
  5
10001DB
331
100006C
  5
100017A
331
1000174
  5
1000079
331
10000A5
  5
10001B3
331
10000B6
  5
10000EA
331
1000185
  5
100008A
331
10000C7
  5
10000FB
331
10000D8
  5
100010C
331
10001A7
  5
10000AC
331
1000196
  5
100009B
331
10001B8
  5
10000BD
331
1000137
  5
100016B
331
1000126
  5
100015A
331
1000115
  5
1000149
331
1000104
  5
1000138
331
10000F3
  5
1000127
331
10001C9
  5
1000058
331
1000138
  5
100016C
331
1000149
  5
10000DD
331
1000084
  5
1000192
331
1000073
  5
1000181
331
100015A
  5
100005F
331
1CD
  5
10001CB
331
100005C
  5
10001C0
331
1000164
  5
1000069
331
1000095
  5
10001A3
331
1DE
  5
10001DC
331
100006D
  5
100017B
331
1000175
  5
100007A
331
10000A6
  5
10001B4
331
10000B7
  5
10000EB
331
10000C8
  5
10000FC
331
1000197
  5
100009C
331
10000D9
  5
100010D
331
10001A8
  5
10000AD
331
1000186
  5
100008B
331
10001B9
  5
10000BE
331
1000127
  5
100015B
331
1000116
  5
100014A
331
1000105
  5
1000139
331
10000F4
  5
1000128
331
10001CA
  5
1000059
331
1000128
  5
100015C
331
1000139
  5
10000DF
331
100014A
  5
10000DE
331
1000085
  5
1000193
331
1000074
  5
1000182
331
100015B
  5
1000060
331
1CE
  5
10001CC
331
100005D
  5
10001C1
331
1000165
  5
100006A
331
1000096
  5
10001A4
331
1DF
  5
10001DD
331
100006E
  5
100017C
331
1000176
  5
100007B
331
10000A7
  5
10001B5
331
10000B8
  5
10000EC
331
10000C9
  5
10000FD
331
1000198
  5
100009D
331
10000DA
  5
100010E
331
10001A9
  5
10000AE
331
1000187
  5
100008C
331
1000117
  5
100014B
331
1000106
  5
100013A
331
10000F5
  5
1000129
331
10001CB
  5
100005A
331
10001BA
  5
10000BF
331
1000129
  5
100015D
331
1000118
  5
100014C
331
100013A
  5
10000E0
331
100014B
  5
10000C7
331
1000086
  5
1000194
331
1000075
  5
1000183
331
1CF
  5
10001CD
331
100005E
  5
10001C2
331
1000166
  5
100006B
331
1000097
  5
10001A5
331
10000A8
  5
10001B6
331
100006F
  5
100017D
331
1000177
  5
100007C
331
10000B9
  5
10000ED
331
1000188
  5
100008D
331
10000CA
  5
10000FE
331
10000DB
  5
100010F
331
10001AA
  5
10000AF
331
10001BB
  5
10000C0
331
1000199
  5
100009E
331
1000107
  5
100013B
331
10000F6
  5
100012A
331
10001CC
  5
100005B
331
100015C
  5
1000061
331
1000119
  5
100014D
331
1000108
  5
100013C
331
100012A
  5
100015E
331
100013B
  5
10000E1
331
100014C
  5
10000C8
331
1000087
  5
1000195
331
1000076
  5
1000184
331
100015D
  5
1000062
331
1D0
  5
10001CE
331
100005F
  5
100016D
331
1000167
  5
100006C
331
1000098
  5
10001A6
331
10000A9
  5
10001B7
331
1000178
  5
100007D
331
10000BA
  5
10000EE
331
1000189
  5
100008E
331
10000CB
  5
10000FF
331
10000DC
  5
1000110
331
10001AB
  5
10000B0
331
10001BC
  5
10000C1
331
100019A
  5
100009F
331
10000F7
  5
100012B
331
10001CD
  5
1DD
331
10000F8
  5
100012C
331
100012B
  5
100015F
331
100011A
  5
100014E
331
1000109
  5
100013D
331
10001D8
  5
1D1
331
100013C
  5
10000E2
331
100014D
  5
10000C9
331
1000088
  5
1000196
331
1000077
  5
1000185
331
100015E
  5
1000063
331
1D1
  5
10001CF
331
1000060
  5
100016E
331
1000168
  5
100006D
331
1000099
  5
10001A7
331
10000AA
  5
10001B8
331
1000179
  5
100007E
331
10000BB
  5
10000EF
331
100018A
  5
100008F
331
10000CC
  5
1000100
331
10000DD
  5
1000111
331
10001AC
  5
10000B1
331
10001BD
  5
10000C2
331
100019B
  5
10000A0
331
10001CE
  5
1DE
331
10000F9
  5
100012D
331
10000E8
  5
100011C
331
100012C
  5
1000160
331
100011B
  5
100014F
331
100010A
  5
100013E
331
10001D9
  5
1D2
331
100014E
  5
10000CA
331
100013D
  5
10000E3
331
1000089
  5
1000197
331
1000078
  5
1000186
331
100015F
  5
1000064
331
1D2
  5
10001D0
331
1000061
  5
100016F
331
1000169
  5
100006E
331
100009A
  5
10001A8
331
10000AB
  5
10001B9
331
100017A
  5
100007F
331
10000BC
  5
10000F0
331
100018B
  5
1000090
331
10000CD
  5
1000101
331
10000DE
  5
1000112
331
10001AD
  5
10000B2
331
10001BE
  5
10000C3
331
100019C
  5
10000A1
331
10001CF
  5
1DF
331
10000FA
  5
100012E
331
10000E9
  5
100011D
331
10001D0
  5
1E0
331
100012D
  5
1000161
331
100011C
  5
1000150
331
100010B
  5
100013F
331
10001DA
  5
1D3
331
1000051
  5
10001D6
331
1000079
  5
1000187
331
100014F
  5
10000CB
331
100013E
  5
10000E4
331
100008A
  5
1000198
331
1D3
  5
10001D1
331
1000062
  5
1000170
331
100016A
  5
100006F
331
100009B
  5
10001A9
331
10000AC
  5
10001BA
331
100017B
  5
1000080
331
10000BD
  5
10000F1
331
100018C
  5
1000091
331
10000CE
  5
1000102
331
10000DF
  5
1000113
331
10001AE
  5
10000B3
331
100019D
  5
10000A2
331
10001BF
  5
10000C4
331
10000E0
  5
1000114
331
10001C0
  5
10000C5
331
10000FB
  5
100012F
331
10000EA
  5
100011E
331
10001D1
  5
1E1
331
100012E
  5
1000162
331
100011D
  5
1000151
331
100010C
  5
1000140
331
10001DB
  5
1D4
331
100008B
  5
1000199
331
100007A
  5
1000188
331
1000150
  5
10000CC
331
100013F
  5
10000D3
331
1D4
  5
10001D2
331
1000063
  5
1000171
331
100009C
  5
10001AA
331
100016B
  5
1000070
331
10000AD
  5
10001BB
331
100017C
  5
1000081
331
10000BE
  5
10000F2
331
100018D
  5
1000092
331
10000CF
  5
1000103
331
100019E
  5
10000A3
331
10001AF
  5
10000B4
331
10000D0
  5
1000104
331
10000E1
  5
1000115
331
10001B0
  5
10000B5
331
10001C1
  5
10000C6
331
10000FC
  5
1000130
331
10000EB
  5
100011F
331
10001D2
  5
1E2
331
100012F
  5
1000163
331
100011E
  5
1000152
331
100010D
  5
1000141
331
10001DC
  5
1D5
331
100008C
  5
100019A
331
100007B
  5
1000189
331
1000151
  5
10000CD
331
1000140
  5
10000D4
331
1D5
  5
10001D3
331
1000064
  5
1000172
331
100016C
  5
1000071
331
10000AE
  5
10001BC
331
100017D
  5
1000082
331
10000BF
  5
10000F3
331
100018E
  5
1000093
331
100019F
  5
10000A4
331
100009D
  5
10001AB
331
1E0
  5
10001DE
331
10000C0
  5
10000F4
331
10000D1
  5
1000105
331
10001A0
  5
10000A5
331
10000E2
  5
1000116
331
10001B1
  5
10000B6
331
10001C2
  5
1E3
331
10000FD
  5
1000131
331
10000EC
  5
1000120
331
10001D3
  5
1D9
331
1000130
  5
1000164
331
100011F
  5
1000153
331
100010E
  5
1000142
331
10001DD
  5
1D6
331
1000054
  5
10001C3
331
100007C
  5
100018A
331
1000152
  5
10000CE
331
100008D
  5
100019B
331
1D6
  5
10001D4
331
1000065
  5
1000173
331
100016D
  5
1000072
331
100009E
  5
10001AC
331
10000AF
  5
10001BD
331
100017E
  5
1000083
331
100018F
  5
1000094
331
1000141
  5
10000D5
  0
ACDBDETAILVIEWSTYLE
  5
100004F
102
{ACAD_REACTORS
330
100004E
102
}
330
100004E
100
AcDbModelDocViewStyle
 70
     0
  3
Imperial24
290
     0
100
AcDbDetailViewStyle
 70
     0
 71
     0
 90
        3
 71
     1
340
11
 62
   256
 40
0.24
340
0
 62
   256
 40
0.24
300

 40
0.36
280
     3
 71
     2
340
6
 90
       25
 62
   256
 71
     3
340
11
 62
   256
 40
0.24
 90
        1
 40
0.75
 90
        1
300
%<\AcVar ViewType \f "%tc1">% %<\AcVar ViewDetailId>%\PSKALA %<\AcVar ViewScale \f "%sn">%
 71
     4
340
6
 90
       25
 62
   256
340
6
 90
       25
 62
   256
280
     0
  0
LAYOUT
  5
1D
330
1E7
100
AcDbPlotSettings
  1

  2

  4

  6

 40
0.0
 41
0.0
 42
0.0
 43
0.0
 44
0.0
 45
0.0
 46
0.0
 47
0.0
 48
0.0
 49
0.0
140
0.0
141
0.0
142
1.0
143
1.0
 70
   688
 72
     1
 73
     0
 74
     5
  7

 75
     0
147
1.0
 76
     0
 77
     2
 78
   300
148
0.0
149
0.0
100
AcDbLayout
  1
Layout
 70
     1
 71
     1
 10
0.0
 20
0.0
 11
210.0
 21
297.0
 12
0.0
 22
0.0
 32
0.0
 14
1.000000000000000E+20
 24
1.000000000000000E+20
 34
1.000000000000000E+20
 15
-1.000000000000000E+20
 25
-1.000000000000000E+20
 35
-1.000000000000000E+20
146
0.0
 13
0.0
 23
0.0
 33
0.0
 16
1.0
 26
0.0
 36
0.0
 17
0.0
 27
1.0
 37
0.0
 76
     0
330
1C
  0
LAYOUT
  5
1B
330
1E7
100
AcDbPlotSettings
  1

  2

  4

  6

 40
0.0
 41
0.0
 42
0.0
 43
0.0
 44
0.0
 45
0.0
 46
0.0
 47
0.0
 48
0.0
 49
0.0
140
0.0
141
0.0
142
1.0
143
1.0
 70
  1712
 72
     1
 73
     0
 74
     0
  7

 75
     0
147
1.0
 76
     0
 77
     2
 78
   300
148
0.0
149
0.0
100
AcDbLayout
  1
Model
 70
     1
 71
     0
 10
0.0
 20
0.0
 11
12.0
 21
9.0
 12
0.0
 22
0.0
 32
0.0
 14
0.0
 24
0.0
 34
0.0
 15
0.0
 25
0.0
 35
0.0
146
0.0
 13
0.0
 23
0.0
 33
0.0
 16
1.0
 26
0.0
 36
0.0
 17
0.0
 27
1.0
 37
0.0
 76
     0
330
1A
331
2
  0
MATERIAL
  5
100000B
102
{ACAD_XDICTIONARY
360
100000C
102
}
102
{ACAD_REACTORS
330
1000002
102
}
330
1000002
100
AcDbMaterial
  1
ByBlock
 72
     0
 43
0.820209973753281
 43
0.0
 43
0.0
 43
0.0
 43
0.0
 43
0.820209973753281
 43
0.0
 43
0.0
 43
0.0
 43
0.0
 43
1.0
 43
0.0
 43
0.0
 43
0.0
 43
0.0
 43
1.0
 77
     0
 47
0.820209973753281
 47
0.0
 47
0.0
 47
0.0
 47
0.0
 47
0.820209973753281
 47
0.0
 47
0.0
 47
0.0
 47
0.0
 47
1.0
 47
0.0
 47
0.0
 47
0.0
 47
0.0
 47
1.0
171
     0
 49
0.820209973753281
 49
0.0
 49
0.0
 49
0.0
 49
0.0
 49
0.820209973753281
 49
0.0
 49
0.0
 49
0.0
 49
0.0
 49
1.0
 49
0.0
 49
0.0
 49
0.0
 49
0.0
 49
1.0
175
     0
142
0.820209973753281
142
0.0
142
0.0
142
0.0
142
0.0
142
0.820209973753281
142
0.0
142
0.0
142
0.0
142
0.0
142
1.0
142
0.0
142
0.0
142
0.0
142
0.0
142
1.0
179
     0
144
0.820209973753281
144
0.0
144
0.0
144
0.0
144
0.0
144
0.820209973753281
144
0.0
144
0.0
144
0.0
144
0.0
144
1.0
144
0.0
144
0.0
144
0.0
144
0.0
144
1.0
147
0.820209973753281
147
0.0
147
0.0
147
0.0
147
0.0
147
0.820209973753281
147
0.0
147
0.0
147
0.0
147
0.0
147
1.0
147
0.0
147
0.0
147
0.0
147
0.0
147
1.0
  0
MATERIAL
  5
1000003
102
{ACAD_XDICTIONARY
360
1000004
102
}
102
{ACAD_REACTORS
330
1000002
102
}
330
1000002
100
AcDbMaterial
  1
ByLayer
 72
     0
 43
0.820209973753281
 43
0.0
 43
0.0
 43
0.0
 43
0.0
 43
0.820209973753281
 43
0.0
 43
0.0
 43
0.0
 43
0.0
 43
1.0
 43
0.0
 43
0.0
 43
0.0
 43
0.0
 43
1.0
 77
     0
 47
0.820209973753281
 47
0.0
 47
0.0
 47
0.0
 47
0.0
 47
0.820209973753281
 47
0.0
 47
0.0
 47
0.0
 47
0.0
 47
1.0
 47
0.0
 47
0.0
 47
0.0
 47
0.0
 47
1.0
171
     0
 49
0.820209973753281
 49
0.0
 49
0.0
 49
0.0
 49
0.0
 49
0.820209973753281
 49
0.0
 49
0.0
 49
0.0
 49
0.0
 49
1.0
 49
0.0
 49
0.0
 49
0.0
 49
0.0
 49
1.0
175
     0
142
0.820209973753281
142
0.0
142
0.0
142
0.0
142
0.0
142
0.820209973753281
142
0.0
142
0.0
142
0.0
142
0.0
142
1.0
142
0.0
142
0.0
142
0.0
142
0.0
142
1.0
179
     0
144
0.820209973753281
144
0.0
144
0.0
144
0.0
144
0.0
144
0.820209973753281
144
0.0
144
0.0
144
0.0
144
0.0
144
1.0
144
0.0
144
0.0
144
0.0
144
0.0
144
1.0
147
0.820209973753281
147
0.0
147
0.0
147
0.0
147
0.0
147
0.820209973753281
147
0.0
147
0.0
147
0.0
147
0.0
147
1.0
147
0.0
147
0.0
147
0.0
147
0.0
147
1.0
  0
MATERIAL
  5
1000013
102
{ACAD_XDICTIONARY
360
1000014
102
}
102
{ACAD_REACTORS
330
1000002
102
}
330
1000002
100
AcDbMaterial
  1
Global
 72
     0
 43
0.820209973753281
 43
0.0
 43
0.0
 43
0.0
 43
0.0
 43
0.820209973753281
 43
0.0
 43
0.0
 43
0.0
 43
0.0
 43
1.0
 43
0.0
 43
0.0
 43
0.0
 43
0.0
 43
1.0
 77
     0
 47
0.820209973753281
 47
0.0
 47
0.0
 47
0.0
 47
0.0
 47
0.820209973753281
 47
0.0
 47
0.0
 47
0.0
 47
0.0
 47
1.0
 47
0.0
 47
0.0
 47
0.0
 47
0.0
 47
1.0
171
     0
 49
0.820209973753281
 49
0.0
 49
0.0
 49
0.0
 49
0.0
 49
0.820209973753281
 49
0.0
 49
0.0
 49
0.0
 49
0.0
 49
1.0
 49
0.0
 49
0.0
 49
0.0
 49
0.0
 49
1.0
175
     0
142
0.820209973753281
142
0.0
142
0.0
142
0.0
142
0.0
142
0.820209973753281
142
0.0
142
0.0
142
0.0
142
0.0
142
1.0
142
0.0
142
0.0
142
0.0
142
0.0
142
1.0
179
     0
144
0.820209973753281
144
0.0
144
0.0
144
0.0
144
0.0
144
0.820209973753281
144
0.0
144
0.0
144
0.0
144
0.0
144
1.0
144
0.0
144
0.0
144
0.0
144
0.0
144
1.0
147
0.820209973753281
147
0.0
147
0.0
147
0.0
147
0.0
147
0.820209973753281
147
0.0
147
0.0
147
0.0
147
0.0
147
1.0
147
0.0
147
0.0
147
0.0
147
0.0
147
1.0
  0
MLEADERSTYLE
  5
100004A
102
{ACAD_REACTORS
330
1000049
102
}
330
1000049
100
AcDbMLeaderStyle
170
     2
171
     1
172
     0
 90
        2
 40
0.0
 41
0.0
173
     1
 91
-1056964608
340
4
 92
       -2
290
     1
 42
0.09
291
     1
 43
0.36
  3
Standard
 44
0.18
300

342
11
174
     1
178
     6
175
     1
176
     0
 93
-1056964608
 45
0.18
292
     0
297
     0
 46
0.18
 94
-1056964608
 47
1.0
 49
1.0
140
1.0
293
     1
141
0.0
294
     1
177
     0
142
1.0
295
     0
296
     0
143
0.125
1001
ACAD_MLEADERVER
1070
     2
  0
MLINESTYLE
  5
1EB
102
{ACAD_REACTORS
330
1E8
102
}
330
1E8
100
AcDbMlineStyle
  2
STANDARD
 70
     0
  3

 62
   256
 51
90.0
 52
90.0
 71
     2
 49
0.5
 62
   256
  6
BYLAYER
 49
-0.5
 62
   256
  6
BYLAYER
  0
ACDBPLACEHOLDER
  5
B
330
1EA
  0
SCALE
  5
1000038
102
{ACAD_REACTORS
330
1000037
102
}
330
1000037
100
AcDbScale
 70
     0
300
1:1
140
1.0
141
1.0
290
     1
  0
SCALE
  5
1000039
102
{ACAD_REACTORS
330
1000037
102
}
330
1000037
100
AcDbScale
 70
     0
300
1/128" = 1'-0"
140
0.0078125
141
12.0
290
     0
  0
SCALE
  5
100003A
102
{ACAD_REACTORS
330
1000037
102
}
330
1000037
100
AcDbScale
 70
     0
300
1/64" = 1'-0"
140
0.015625
141
12.0
290
     0
  0
SCALE
  5
100003B
102
{ACAD_REACTORS
330
1000037
102
}
330
1000037
100
AcDbScale
 70
     0
300
1/32" = 1'-0"
140
0.03125
141
12.0
290
     0
  0
SCALE
  5
100003C
102
{ACAD_REACTORS
330
1000037
102
}
330
1000037
100
AcDbScale
 70
     0
300
1/16" = 1'-0"
140
0.0625
141
12.0
290
     0
  0
SCALE
  5
100003D
102
{ACAD_REACTORS
330
1000037
102
}
330
1000037
100
AcDbScale
 70
     0
300
3/32" = 1'-0"
140
0.09375
141
12.0
290
     0
  0
SCALE
  5
100003E
102
{ACAD_REACTORS
330
1000037
102
}
330
1000037
100
AcDbScale
 70
     0
300
1/8" = 1'-0"
140
0.125
141
12.0
290
     0
  0
SCALE
  5
100003F
102
{ACAD_REACTORS
330
1000037
102
}
330
1000037
100
AcDbScale
 70
     0
300
3/16" = 1'-0"
140
0.1875
141
12.0
290
     0
  0
SCALE
  5
1000040
102
{ACAD_REACTORS
330
1000037
102
}
330
1000037
100
AcDbScale
 70
     0
300
1/4" = 1'-0"
140
0.25
141
12.0
290
     0
  0
SCALE
  5
1000041
102
{ACAD_REACTORS
330
1000037
102
}
330
1000037
100
AcDbScale
 70
     0
300
3/8" = 1'-0"
140
0.375
141
12.0
290
     0
  0
SCALE
  5
1000042
102
{ACAD_REACTORS
330
1000037
102
}
330
1000037
100
AcDbScale
 70
     0
300
1/2" = 1'-0"
140
0.5
141
12.0
290
     0
  0
SCALE
  5
1000043
102
{ACAD_REACTORS
330
1000037
102
}
330
1000037
100
AcDbScale
 70
     0
300
3/4" = 1'-0"
140
0.75
141
12.0
290
     0
  0
SCALE
  5
1000044
102
{ACAD_REACTORS
330
1000037
102
}
330
1000037
100
AcDbScale
 70
     0
300
1" = 1'-0"
140
1.0
141
12.0
290
     0
  0
SCALE
  5
1000045
102
{ACAD_REACTORS
330
1000037
102
}
330
1000037
100
AcDbScale
 70
     0
300
1-1/2" = 1'-0"
140
1.5
141
12.0
290
     0
  0
SCALE
  5
1000046
102
{ACAD_REACTORS
330
1000037
102
}
330
1000037
100
AcDbScale
 70
     0
300
3" = 1'-0"
140
3.0
141
12.0
290
     0
  0
SCALE
  5
1000047
102
{ACAD_REACTORS
330
1000037
102
}
330
1000037
100
AcDbScale
 70
     0
300
6" = 1'-0"
140
6.0
141
12.0
290
     0
  0
SCALE
  5
1000048
102
{ACAD_REACTORS
330
1000037
102
}
330
1000037
100
AcDbScale
 70
     0
300
1'-0" = 1'-0"
140
12.0
141
12.0
290
     0
  0
ACDBSECTIONVIEWSTYLE
  5
100004D
102
{ACAD_REACTORS
330
100004B
102
}
330
100004B
100
AcDbModelDocViewStyle
 70
     0
  3
Imperial24
290
     0
100
AcDbSectionViewStyle
 70
     0
 71
     0
 90
       78
 71
     1
340
11
 62
   256
 40
0.24
340
0
340
0
 62
   256
 40
0.24
300
I, O, Q, S, X, Z
 40
0.48
 90
        3
 40
0.18
 90
        1
 71
     2
340
100004C
 90
       25
 62
   256
340
6
 90
       50
 62
   256
 40
0.24
 40
0.0
 40
0.24
 71
     3
340
11
 62
   256
 40
0.24
 90
        1
 40
0.75
 90
        1
300
%<\AcVar ViewType \f "%tc1">% %<\AcVar ViewSectionStartId>%-%<\AcVar ViewSectionEndId>%\PSKALA %<\AcVar ViewScale \f "%sn">%
 71
     4
 62
   256
 62
   257
300
ANSI31
 40
1.0
 90
        0
290
     0
290
     0
 90
        6
 40
0.0
 40
1.570796326794896
 40
0.2617993877991494
 40
1.308996938995747
 40
-0.2617993877991494
 40
1.832595714594046
  0
TABLESTYLE
  5
1000036
102
{ACAD_XDICTIONARY
360
10001F5
102
}
102
{ACAD_REACTORS
330
1000035
102
}
330
1000035
100
AcDbTableStyle
  3
Standard
 70
     0
 71
     0
 40
0.06
 41
0.06
280
     0
281
     0
  7
STANDARD
140
0.18
170
     2
 62
     0
 63
     7
283
     0
274
    -2
284
     1
 64
     0
275
    -2
285
     1
 65
     0
276
    -2
286
     1
 66
     0
277
    -2
287
     1
 67
     0
278
    -2
288
     1
 68
     0
279
    -2
289
     1
 69
     0
  7
STANDARD
140
0.25
170
     5
 62
     0
 63
     7
283
     0
274
    -2
284
     1
 64
     0
275
    -2
285
     1
 65
     0
276
    -2
286
     1
 66
     0
277
    -2
287
     1
 67
     0
278
    -2
288
     1
 68
     0
279
    -2
289
     1
 69
     0
  7
STANDARD
140
0.18
170
     5
 62
     0
 63
     7
283
     0
274
    -2
284
     1
 64
     0
275
    -2
285
     1
 65
     0
276
    -2
286
     1
 66
     0
277
    -2
287
     1
 67
     0
278
    -2
288
     1
 68
     0
279
    -2
289
     1
 69
     0
  0
VISUALSTYLE
  5
1000021
102
{ACAD_XDICTIONARY
360
1000205
102
}
102
{ACAD_REACTORS
330
100001B
102
}
330
100001B
100
AcDbVisualStyle
  2
2dWireframe
 70
     4
 71
     0
 72
     2
 73
     0
 90
        0
 40
-0.6
 41
-30.0
 62
     5
 63
     7
421
 16777215
 74
     1
 91
        4
 64
     7
 65
   257
 75
     1
175
     1
 42
1.0
 92
        0
 66
   257
 43
1.0
 76
     1
 77
     6
 78
     2
 67
     7
 79
     5
170
     0
171
     0
290
     0
174
     0
 93
        1
 44
0.0
173
     0
291
     0
 45
0.0
1001
ACAD
1000
AcDbSavedByObjectVersion
1070
     0
  0
VISUALSTYLE
  5
1000020
102
{ACAD_XDICTIONARY
360
1000203
102
}
102
{ACAD_REACTORS
330
100001B
102
}
330
100001B
100
AcDbVisualStyle
  2
Basic
 70
     7
 71
     1
 72
     0
 73
     1
 90
        0
 40
-0.6
 41
-30.0
 62
     5
 63
     7
421
 16777215
 74
     0
 91
        4
 64
     7
 65
   257
 75
     1
175
     1
 42
1.0
 92
        8
 66
     7
 43
1.0
 76
     1
 77
     6
 78
     2
 67
     7
 79
     5
170
     0
171
     0
290
     0
174
     0
 93
        1
 44
0.0
173
     0
291
     1
 45
0.0
1001
ACAD
1000
AcDbSavedByObjectVersion
1070
     0
  0
VISUALSTYLE
  5
1000027
102
{ACAD_XDICTIONARY
360
1000211
102
}
102
{ACAD_REACTORS
330
100001B
102
}
330
100001B
100
AcDbVisualStyle
  2
Brighten
 70
    12
 71
     2
 72
     2
 73
     0
 90
        0
 40
-0.6
 41
-30.0
 62
     5
 63
     7
421
 16777215
 74
     1
 91
        4
 64
     7
 65
   257
 75
     1
175
     1
 42
1.0
 92
        8
 66
     7
 43
1.0
 76
     1
 77
     6
 78
     2
 67
     7
 79
     5
170
     0
171
     0
290
     0
174
     0
 93
        1
 44
50.0
173
     0
291
     1
 45
0.0
1001
ACAD
1000
AcDbSavedByObjectVersion
1070
     0
  0
VISUALSTYLE
  5
100002B
102
{ACAD_XDICTIONARY
360
1000219
102
}
102
{ACAD_REACTORS
330
100001B
102
}
330
100001B
100
AcDbVisualStyle
  2
ColorChange
 70
    16
 71
     2
 72
     2
 73
     3
 90
        0
 40
-0.6
 41
-30.0
 62
     5
 63
     8
421
  8421504
 74
     1
 91
        4
 64
     7
 65
   257
 75
     1
175
     1
 42
1.0
 92
        8
 66
     8
424
  8421504
 43
1.0
 76
     1
 77
     6
 78
     2
 67
     7
 79
     5
170
     0
171
     0
290
     0
174
     0
 93
        1
 44
0.0
173
     0
291
     1
 45
0.0
1001
ACAD
1000
AcDbSavedByObjectVersion
1070
     0
  0
VISUALSTYLE
  5
1000024
102
{ACAD_XDICTIONARY
360
100020B
102
}
102
{ACAD_REACTORS
330
100001B
102
}
330
100001B
100
AcDbVisualStyle
  2
Conceptual
 70
     9
 71
     3
 72
     2
 73
     0
 90
        0
 40
-0.6
 41
-30.0
 62
     5
 63
     7
421
 16777215
 74
     2
 91
        2
 64
     7
 65
   257
 75
     1
175
     1
 42
179.0
 92
        8
 66
     7
 43
1.0
 76
     1
 77
     6
 78
     2
 67
     7
 79
     3
170
     0
171
     0
290
     0
174
     0
 93
        1
 44
0.0
173
     0
291
     0
 45
0.0
1001
ACAD
1000
AcDbSavedByObjectVersion
1070
     0
  0
VISUALSTYLE
  5
1000026
102
{ACAD_XDICTIONARY
360
100020F
102
}
102
{ACAD_REACTORS
330
100001B
102
}
330
100001B
100
AcDbVisualStyle
  2
Dim
 70
    11
 71
     2
 72
     2
 73
     0
 90
        0
 40
-0.6
 41
-30.0
 62
     5
 63
     7
421
 16777215
 74
     1
 91
        4
 64
     7
 65
   257
 75
     1
175
     1
 42
1.0
 92
        8
 66
     7
 43
1.0
 76
     1
 77
     6
 78
     2
 67
     7
 79
     5
170
     0
171
     0
290
     0
174
     0
 93
        1
 44
-50.0
173
     0
291
     1
 45
0.0
1001
ACAD
1000
AcDbSavedByObjectVersion
1070
     0
  0
VISUALSTYLE
  5
1000033
102
{ACAD_XDICTIONARY
360
1000229
102
}
102
{ACAD_REACTORS
330
100001B
102
}
330
100001B
100
AcDbVisualStyle
  2
EdgeColorOff
 70
    22
 71
     2
 72
     2
 73
     0
 90
        0
 40
-0.6
 41
-30.0
 62
     5
 63
     7
421
 16777215
 74
     1
 91
        4
 64
     7
 65
   257
 75
     1
175
     1
 42
1.0
 92
        8
 66
     7
 43
1.0
 76
     1
 77
     6
 78
     2
 67
     7
 79
     5
170
     0
171
     0
290
     0
174
     0
 93
        1
 44
0.0
173
     0
291
     1
 45
0.0
1001
ACAD
1000
AcDbSavedByObjectVersion
1070
     0
  0
VISUALSTYLE
  5
100002A
102
{ACAD_XDICTIONARY
360
1000217
102
}
102
{ACAD_REACTORS
330
100001B
102
}
330
100001B
100
AcDbVisualStyle
  2
Facepattern
 70
    15
 71
     2
 72
     2
 73
     0
 90
        0
 40
-0.6
 41
-30.0
 62
     5
 63
     7
421
 16777215
 74
     1
 91
        4
 64
     7
 65
   257
 75
     1
175
     1
 42
1.0
 92
        8
 66
     7
 43
1.0
 76
     1
 77
     6
 78
     2
 67
     7
 79
     5
170
     0
171
     0
290
     0
174
     0
 93
        1
 44
0.0
173
     0
291
     1
 45
0.0
1001
ACAD
1000
AcDbSavedByObjectVersion
1070
     0
  0
VISUALSTYLE
  5
100001C
102
{ACAD_XDICTIONARY
360
10001FB
102
}
102
{ACAD_REACTORS
330
100001B
102
}
330
100001B
100
AcDbVisualStyle
  2
Flat
 70
     0
 71
     2
 72
     1
 73
     1
 90
        2
 40
-0.6
 41
30.0
 62
     5
 63
     7
421
 16777215
 74
     0
 91
        0
 64
     7
 65
   257
 75
     1
175
     1
 42
1.0
 92
        8
 66
     7
 43
1.0
 76
     1
 77
     6
 78
     2
 67
     7
 79
     5
170
     0
171
     0
290
     0
174
     0
 93
       13
 44
0.0
173
     0
291
     1
 45
0.0
1001
ACAD
1000
AcDbSavedByObjectVersion
1070
     0
  0
VISUALSTYLE
  5
100001D
102
{ACAD_XDICTIONARY
360
10001FD
102
}
102
{ACAD_REACTORS
330
100001B
102
}
330
100001B
100
AcDbVisualStyle
  2
FlatWithEdges
 70
     1
 71
     2
 72
     1
 73
     1
 90
        2
 40
-0.6
 41
30.0
 62
     5
 63
     7
421
 16777215
 74
     1
 91
        0
 64
     7
 65
   257
 75
     1
175
     1
 42
1.0
 92
        0
 66
   257
 43
1.0
 76
     1
 77
     6
 78
     2
 67
     7
 79
     5
170
     0
171
     0
290
     0
174
     0
 93
       13
 44
0.0
173
     0
291
     1
 45
0.0
1001
ACAD
1000
AcDbSavedByObjectVersion
1070
     0
  0
VISUALSTYLE
  5
100001E
102
{ACAD_XDICTIONARY
360
10001FF
102
}
102
{ACAD_REACTORS
330
100001B
102
}
330
100001B
100
AcDbVisualStyle
  2
Gouraud
 70
     2
 71
     2
 72
     2
 73
     1
 90
        2
 40
-0.6
 41
30.0
 62
     5
 63
     7
421
 16777215
 74
     0
 91
        0
 64
     7
 65
   257
 75
     1
175
     1
 42
1.0
 92
        0
 66
     7
 43
1.0
 76
     1
 77
     6
 78
     2
 67
     7
 79
     5
170
     0
171
     0
290
     0
174
     0
 93
       13
 44
0.0
173
     0
291
     1
 45
0.0
1001
ACAD
1000
AcDbSavedByObjectVersion
1070
     0
  0
VISUALSTYLE
  5
100001F
102
{ACAD_XDICTIONARY
360
1000201
102
}
102
{ACAD_REACTORS
330
100001B
102
}
330
100001B
100
AcDbVisualStyle
  2
GouraudWithEdges
 70
     3
 71
     2
 72
     2
 73
     1
 90
        2
 40
-0.6
 41
30.0
 62
     5
 63
     7
421
 16777215
 74
     1
 91
        0
 64
     7
 65
   257
 75
     1
175
     1
 42
1.0
 92
        0
 66
   257
 43
1.0
 76
     1
 77
     6
 78
     2
 67
     7
 79
     5
170
     0
171
     0
290
     0
174
     0
 93
       13
 44
0.0
173
     0
291
     1
 45
0.0
1001
ACAD
1000
AcDbSavedByObjectVersion
1070
     0
  0
VISUALSTYLE
  5
1000023
102
{ACAD_XDICTIONARY
360
1000209
102
}
102
{ACAD_REACTORS
330
100001B
102
}
330
100001B
100
AcDbVisualStyle
  2
Hidden
 70
     6
 71
     1
 72
     2
 73
     2
 90
        0
 40
-0.6
 41
-30.0
 62
     5
 63
     7
421
 16777215
 74
     2
 91
        2
 64
     7
 65
   257
 75
     2
175
     1
 42
40.0
 92
        0
 66
   257
 43
1.0
 76
     1
 77
     6
 78
     2
 67
     7
 79
     3
170
     0
171
     0
290
     0
174
     0
 93
        1
 44
0.0
173
     0
291
     0
 45
0.0
1001
ACAD
1000
AcDbSavedByObjectVersion
1070
     0
  0
VISUALSTYLE
  5
1000031
102
{ACAD_XDICTIONARY
360
1000225
102
}
102
{ACAD_REACTORS
330
100001B
102
}
330
100001B
100
AcDbVisualStyle
  2
JitterOff
 70
    20
 71
     2
 72
     2
 73
     0
 90
        0
 40
-0.6
 41
-30.0
 62
     5
 63
     7
421
 16777215
 74
     1
 91
        4
 64
     7
 65
   257
 75
     1
175
     1
 42
1.0
 92
       10
 66
     7
 43
1.0
 76
     1
 77
     6
 78
     2
 67
     7
 79
     5
170
     0
171
     0
290
     0
174
     0
 93
        1
 44
0.0
173
     0
291
     1
 45
0.0
1001
ACAD
1000
AcDbSavedByObjectVersion
1070
     0
  0
VISUALSTYLE
  5
1000029
102
{ACAD_XDICTIONARY
360
1000215
102
}
102
{ACAD_REACTORS
330
100001B
102
}
330
100001B
100
AcDbVisualStyle
  2
Linepattern
 70
    14
 71
     2
 72
     2
 73
     0
 90
        0
 40
-0.6
 41
-30.0
 62
     5
 63
     7
421
 16777215
 74
     1
 91
        4
 64
     7
 65
   257
 75
     7
175
     7
 42
1.0
 92
        8
 66
     7
 43
1.0
 76
     1
 77
     6
 78
     2
 67
     7
 79
     5
170
     0
171
     0
290
     0
174
     0
 93
        1
 44
0.0
173
     0
291
     1
 45
0.0
1001
ACAD
1000
AcDbSavedByObjectVersion
1070
     0
  0
VISUALSTYLE
  5
1000032
102
{ACAD_XDICTIONARY
360
1000227
102
}
102
{ACAD_REACTORS
330
100001B
102
}
330
100001B
100
AcDbVisualStyle
  2
OverhangOff
 70
    21
 71
     2
 72
     2
 73
     0
 90
        0
 40
-0.6
 41
-30.0
 62
     5
 63
     7
421
 16777215
 74
     1
 91
        4
 64
     7
 65
   257
 75
     1
175
     1
 42
1.0
 92
        9
 66
     7
 43
1.0
 76
     1
 77
     6
 78
     2
 67
     7
 79
     5
170
     0
171
     0
290
     0
174
     0
 93
        1
 44
0.0
173
     0
291
     1
 45
0.0
1001
ACAD
1000
AcDbSavedByObjectVersion
1070
     0
  0
VISUALSTYLE
  5
1000025
102
{ACAD_XDICTIONARY
360
100020D
102
}
102
{ACAD_REACTORS
330
100001B
102
}
330
100001B
100
AcDbVisualStyle
  2
Realistic
 70
     8
 71
     2
 72
     3
 73
     0
 90
        2
 40
-0.6
 41
30.0
 62
     5
 63
     7
421
 16777215
 74
     0
 91
        0
 64
     7
 65
   257
 75
     1
175
     1
 42
1.0
 92
        8
 66
   257
 43
1.0
 76
     1
 77
     6
 78
     2
 67
     7
 79
     3
170
     0
171
     0
290
     0
174
     0
 93
       13
 44
0.0
173
     0
291
     0
 45
0.0
1001
ACAD
1000
AcDbSavedByObjectVersion
1070
     0
  0
VISUALSTYLE
  5
1000030
102
{ACAD_XDICTIONARY
360
1000223
102
}
102
{ACAD_REACTORS
330
100001B
102
}
330
100001B
100
AcDbVisualStyle
  2
Shaded
 70
    27
 71
     2
 72
     2
 73
     1
 90
        2
 40
-0.6
 41
30.0
 62
     5
 63
     7
421
 16777215
 74
     0
 91
        4
 64
     7
 65
   257
 75
     1
175
     1
 42
1.0
 92
        8
 66
   257
 43
1.0
 76
     1
 77
     6
 78
     2
 67
     8
425
  7895160
 79
     3
170
     0
171
     0
290
     0
174
     0
 93
        5
 44
0.0
173
     0
291
     0
 45
0.0
1001
ACAD
1000
AcDbSavedByObjectVersion
1070
     0
  0
VISUALSTYLE
  5
100002F
102
{ACAD_XDICTIONARY
360
1000221
102
}
102
{ACAD_REACTORS
330
100001B
102
}
330
100001B
100
AcDbVisualStyle
  2
Shaded with edges
 70
    26
 71
     2
 72
     2
 73
     1
 90
        2
 40
-0.6
 41
30.0
 62
     5
 63
     7
421
 16777215
 74
     1
 91
       10
 64
     7
 65
   257
 75
     2
175
     1
 42
1.0
 92
        8
 66
   257
 43
1.0
 76
     1
 77
     6
 78
     2
 67
     7
 79
     3
170
     0
171
     0
290
     0
174
     0
 93
        5
 44
0.0
173
     0
291
     0
 45
0.0
1001
ACAD
1000
AcDbSavedByObjectVersion
1070
     0
  0
VISUALSTYLE
  5
100002C
102
{ACAD_XDICTIONARY
360
100021B
102
}
102
{ACAD_REACTORS
330
100001B
102
}
330
100001B
100
AcDbVisualStyle
  2
Shades of Gray
 70
    23
 71
     2
 72
     2
 73
     3
 90
        0
 40
-0.6
 41
-30.0
 62
     5
 63
     7
421
 16777215
 74
     2
 91
        2
 64
     7
 65
     7
 75
     1
175
     1
 42
40.0
 92
        8
 66
     7
 43
1.0
 76
     1
 77
     6
 78
     2
 67
     7
 79
     3
170
     0
171
     0
290
     0
174
     0
 93
        1
 44
0.0
173
     0
291
     0
 45
0.0
1001
ACAD
1000
AcDbSavedByObjectVersion
1070
     0
  0
VISUALSTYLE
  5
100002D
102
{ACAD_XDICTIONARY
360
100021D
102
}
102
{ACAD_REACTORS
330
100001B
102
}
330
100001B
100
AcDbVisualStyle
  2
Sketchy
 70
    24
 71
     1
 72
     2
 73
     2
 90
        0
 40
-0.6
 41
-30.0
 62
     5
 63
     7
421
 16777215
 74
     2
 91
        2
 64
     7
 65
     7
 75
     1
175
     1
 42
40.0
 92
       11
 66
     7
 43
1.0
 76
     1
 77
     6
 78
     2
 67
     7
 79
     6
170
     0
171
     0
290
     0
174
     0
 93
        1
 44
0.0
173
     0
291
     0
 45
0.0
1001
ACAD
1000
AcDbSavedByObjectVersion
1070
     0
  0
VISUALSTYLE
  5
1000028
102
{ACAD_XDICTIONARY
360
1000213
102
}
102
{ACAD_REACTORS
330
100001B
102
}
330
100001B
100
AcDbVisualStyle
  2
Thicken
 70
    13
 71
     2
 72
     2
 73
     0
 90
        0
 40
-0.6
 41
-30.0
 62
     5
 63
     7
421
 16777215
 74
     1
 91
        4
 64
     7
 65
   257
 75
     1
175
     1
 42
1.0
 92
       12
 66
     7
 43
1.0
 76
     1
 77
     6
 78
     2
 67
     7
 79
     5
170
     0
171
     0
290
     0
174
     0
 93
        1
 44
0.0
173
     0
291
     1
 45
0.0
1001
ACAD
1000
AcDbSavedByObjectVersion
1070
     0
  0
VISUALSTYLE
  5
1000022
102
{ACAD_XDICTIONARY
360
1000207
102
}
102
{ACAD_REACTORS
330
100001B
102
}
330
100001B
100
AcDbVisualStyle
  2
Wireframe
 70
     5
 71
     0
 72
     2
 73
     0
 90
        0
 40
-0.6
 41
-30.0
 62
     5
 63
     7
421
 16777215
 74
     1
 91
        4
 64
     7
 65
   257
 75
     1
175
     1
 42
1.0
 92
        0
 66
   257
 43
1.0
 76
     1
 77
     6
 78
     2
 67
     7
 79
     3
170
     0
171
     0
290
     0
174
     0
 93
        1
 44
0.0
173
     0
291
     0
 45
0.0
1001
ACAD
1000
AcDbSavedByObjectVersion
1070
     0
  0
VISUALSTYLE
  5
100002E
102
{ACAD_XDICTIONARY
360
100021F
102
}
102
{ACAD_REACTORS
330
100001B
102
}
330
100001B
100
AcDbVisualStyle
  2
X-Ray
 70
    25
 71
     2
 72
     2
 73
     1
 90
        1
 40
0.5
 41
-30.0
 62
     5
 63
     7
421
 16777215
 74
     1
 91
        0
 64
     7
 65
   257
 75
     1
175
     1
 42
1.0
 92
        8
 66
     7
 43
1.0
 76
     1
 77
     6
 78
     2
 67
     7
 79
     3
170
     0
171
     0
290
     0
174
     0
 93
       13
 44
0.0
173
     0
291
     0
 45
0.0
1001
ACAD
1000
AcDbSavedByObjectVersion
1070
     0
  0
DICTIONARYVAR
  5
10001F2
102
{ACAD_REACTORS
330
10001ED
102
}
330
10001ED
100
DictionaryVariables
280
     0
  1
1:1
  0
DICTIONARYVAR
  5
10001EF
102
{ACAD_REACTORS
330
10001ED
102
}
330
10001ED
100
DictionaryVariables
280
     0
  1
STANDARD
  0
DICTIONARYVAR
  5
10001EE
102
{ACAD_REACTORS
330
10001ED
102
}
330
10001ED
100
DictionaryVariables
280
     0
  1
STANDARD
  0
DICTIONARYVAR
  5
10001F0
102
{ACAD_REACTORS
330
10001ED
102
}
330
10001ED
100
DictionaryVariables
280
     0
  1
Imperial24
  0
DICTIONARYVAR
  5
10001F1
102
{ACAD_REACTORS
330
10001ED
102
}
330
10001ED
100
DictionaryVariables
280
     0
  1
Imperial24
  0
DICTIONARYVAR
  5
10001F3
102
{ACAD_REACTORS
330
10001ED
102
}
330
10001ED
100
DictionaryVariables
280
     0
  1
2
  0
DICTIONARY
  5
100000C
330
100000B
100
AcDbDictionary
280
     1
281
     1
  3
ACAD_XREC_ROUNDTRIP
360
10001F9
  3
BUMPTILE
360
100000E
  3
DIFFUSETILE
360
100000D
  3
OPACITYTILE
360
1000011
  3
REFLECTIONTILE
360
1000010
  3
REFRACTIONTILE
360
1000012
  3
SPECULARTILE
360
100000F
  0
DICTIONARY
  5
1000004
330
1000003
100
AcDbDictionary
280
     1
281
     1
  3
ACAD_XREC_ROUNDTRIP
360
10001F8
  3
BUMPTILE
360
1000006
  3
DIFFUSETILE
360
1000005
  3
OPACITYTILE
360
1000009
  3
REFLECTIONTILE
360
1000008
  3
REFRACTIONTILE
360
100000A
  3
SPECULARTILE
360
1000007
  0
DICTIONARY
  5
1000014
330
1000013
100
AcDbDictionary
280
     1
281
     1
  3
ACAD_XREC_ROUNDTRIP
360
10001FA
  3
BUMPTILE
360
1000016
  3
DIFFUSETILE
360
1000015
  3
OPACITYTILE
360
1000019
  3
REFLECTIONTILE
360
1000018
  3
REFRACTIONTILE
360
100001A
  3
SPECULARTILE
360
1000017
  0
DICTIONARY
  5
10001F5
330
1000036
100
AcDbDictionary
280
     1
281
     1
  3
ACAD_ROUNDTRIP_2008_TABLESTYLE_CELLSTYLEMAP
360
10001F6
  3
ACAD_XREC_ROUNDTRIP
360
100022B
  0
DICTIONARY
  5
1000205
330
1000021
100
AcDbDictionary
280
     1
281
     1
  3
ACAD_XREC_ROUNDTRIP
360
1000206
  0
DICTIONARY
  5
1000203
330
1000020
100
AcDbDictionary
280
     1
281
     1
  3
ACAD_XREC_ROUNDTRIP
360
1000204
  0
DICTIONARY
  5
1000211
330
1000027
100
AcDbDictionary
280
     1
281
     1
  3
ACAD_XREC_ROUNDTRIP
360
1000212
  0
DICTIONARY
  5
1000219
330
100002B
100
AcDbDictionary
280
     1
281
     1
  3
ACAD_XREC_ROUNDTRIP
360
100021A
  0
DICTIONARY
  5
100020B
330
1000024
100
AcDbDictionary
280
     1
281
     1
  3
ACAD_XREC_ROUNDTRIP
360
100020C
  0
DICTIONARY
  5
100020F
330
1000026
100
AcDbDictionary
280
     1
281
     1
  3
ACAD_XREC_ROUNDTRIP
360
1000210
  0
DICTIONARY
  5
1000229
330
1000033
100
AcDbDictionary
280
     1
281
     1
  3
ACAD_XREC_ROUNDTRIP
360
100022A
  0
DICTIONARY
  5
1000217
330
100002A
100
AcDbDictionary
280
     1
281
     1
  3
ACAD_XREC_ROUNDTRIP
360
1000218
  0
DICTIONARY
  5
10001FB
330
100001C
100
AcDbDictionary
280
     1
281
     1
  3
ACAD_XREC_ROUNDTRIP
360
10001FC
  0
DICTIONARY
  5
10001FD
330
100001D
100
AcDbDictionary
280
     1
281
     1
  3
ACAD_XREC_ROUNDTRIP
360
10001FE
  0
DICTIONARY
  5
10001FF
330
100001E
100
AcDbDictionary
280
     1
281
     1
  3
ACAD_XREC_ROUNDTRIP
360
1000200
  0
DICTIONARY
  5
1000201
330
100001F
100
AcDbDictionary
280
     1
281
     1
  3
ACAD_XREC_ROUNDTRIP
360
1000202
  0
DICTIONARY
  5
1000209
330
1000023
100
AcDbDictionary
280
     1
281
     1
  3
ACAD_XREC_ROUNDTRIP
360
100020A
  0
DICTIONARY
  5
1000225
330
1000031
100
AcDbDictionary
280
     1
281
     1
  3
ACAD_XREC_ROUNDTRIP
360
1000226
  0
DICTIONARY
  5
1000215
330
1000029
100
AcDbDictionary
280
     1
281
     1
  3
ACAD_XREC_ROUNDTRIP
360
1000216
  0
DICTIONARY
  5
1000227
330
1000032
100
AcDbDictionary
280
     1
281
     1
  3
ACAD_XREC_ROUNDTRIP
360
1000228
  0
DICTIONARY
  5
100020D
330
1000025
100
AcDbDictionary
280
     1
281
     1
  3
ACAD_XREC_ROUNDTRIP
360
100020E
  0
DICTIONARY
  5
1000223
330
1000030
100
AcDbDictionary
280
     1
281
     1
  3
ACAD_XREC_ROUNDTRIP
360
1000224
  0
DICTIONARY
  5
1000221
330
100002F
100
AcDbDictionary
280
     1
281
     1
  3
ACAD_XREC_ROUNDTRIP
360
1000222
  0
DICTIONARY
  5
100021B
330
100002C
100
AcDbDictionary
280
     1
281
     1
  3
ACAD_XREC_ROUNDTRIP
360
100021C
  0
DICTIONARY
  5
100021D
330
100002D
100
AcDbDictionary
280
     1
281
     1
  3
ACAD_XREC_ROUNDTRIP
360
100021E
  0
DICTIONARY
  5
1000213
330
1000028
100
AcDbDictionary
280
     1
281
     1
  3
ACAD_XREC_ROUNDTRIP
360
1000214
  0
DICTIONARY
  5
1000207
330
1000022
100
AcDbDictionary
280
     1
281
     1
  3
ACAD_XREC_ROUNDTRIP
360
1000208
  0
DICTIONARY
  5
100021F
330
100002E
100
AcDbDictionary
280
     1
281
     1
  3
ACAD_XREC_ROUNDTRIP
360
1000220
  0
XRECORD
  5
10001F9
102
{ACAD_REACTORS
330
100000C
102
}
330
100000C
100
AcDbXrecord
280
     1
102
MATERIAL
148
0.0
149
0.0
149
0.0
 93
        0
 94
      127
282
     0
 72
     0
 77
     0
171
     0
175
     0
179
     0
273
     0
  0
XRECORD
  5
100000E
102
{ACAD_REACTORS
330
100000C
102
}
330
100000C
100
AcDbXrecord
280
     1
270
     1
271
     1
  0
XRECORD
  5
100000D
102
{ACAD_REACTORS
330
100000C
102
}
330
100000C
100
AcDbXrecord
280
     1
270
     1
271
     1
  0
XRECORD
  5
1000011
102
{ACAD_REACTORS
330
100000C
102
}
330
100000C
100
AcDbXrecord
280
     1
270
     1
271
     1
  0
XRECORD
  5
1000010
102
{ACAD_REACTORS
330
100000C
102
}
330
100000C
100
AcDbXrecord
280
     1
270
     1
271
     1
  0
XRECORD
  5
1000012
102
{ACAD_REACTORS
330
100000C
102
}
330
100000C
100
AcDbXrecord
280
     1
270
     1
271
     1
  0
XRECORD
  5
100000F
102
{ACAD_REACTORS
330
100000C
102
}
330
100000C
100
AcDbXrecord
280
     1
270
     1
271
     1
  0
XRECORD
  5
10001F8
102
{ACAD_REACTORS
330
1000004
102
}
330
1000004
100
AcDbXrecord
280
     1
102
MATERIAL
148
0.0
149
0.0
149
0.0
 93
        0
 94
      127
282
     0
 72
     0
 77
     0
171
     0
175
     0
179
     0
273
     0
  0
XRECORD
  5
1000006
102
{ACAD_REACTORS
330
1000004
102
}
330
1000004
100
AcDbXrecord
280
     1
270
     1
271
     1
  0
XRECORD
  5
1000005
102
{ACAD_REACTORS
330
1000004
102
}
330
1000004
100
AcDbXrecord
280
     1
270
     1
271
     1
  0
XRECORD
  5
1000009
102
{ACAD_REACTORS
330
1000004
102
}
330
1000004
100
AcDbXrecord
280
     1
270
     1
271
     1
  0
XRECORD
  5
1000008
102
{ACAD_REACTORS
330
1000004
102
}
330
1000004
100
AcDbXrecord
280
     1
270
     1
271
     1
  0
XRECORD
  5
100000A
102
{ACAD_REACTORS
330
1000004
102
}
330
1000004
100
AcDbXrecord
280
     1
270
     1
271
     1
  0
XRECORD
  5
1000007
102
{ACAD_REACTORS
330
1000004
102
}
330
1000004
100
AcDbXrecord
280
     1
270
     1
271
     1
  0
XRECORD
  5
10001FA
102
{ACAD_REACTORS
330
1000014
102
}
330
1000014
100
AcDbXrecord
280
     1
102
MATERIAL
148
0.0
149
0.0
149
0.0
 93
        0
 94
      127
282
     0
 72
     0
 77
     0
171
     0
175
     0
179
     0
273
     0
  0
XRECORD
  5
1000016
102
{ACAD_REACTORS
330
1000014
102
}
330
1000014
100
AcDbXrecord
280
     1
270
     1
271
     1
  0
XRECORD
  5
1000015
102
{ACAD_REACTORS
330
1000014
102
}
330
1000014
100
AcDbXrecord
280
     1
270
     1
271
     1
  0
XRECORD
  5
1000019
102
{ACAD_REACTORS
330
1000014
102
}
330
1000014
100
AcDbXrecord
280
     1
270
     1
271
     1
  0
XRECORD
  5
1000018
102
{ACAD_REACTORS
330
1000014
102
}
330
1000014
100
AcDbXrecord
280
     1
270
     1
271
     1
  0
XRECORD
  5
100001A
102
{ACAD_REACTORS
330
1000014
102
}
330
1000014
100
AcDbXrecord
280
     1
270
     1
271
     1
  0
XRECORD
  5
1000017
102
{ACAD_REACTORS
330
1000014
102
}
330
1000014
100
AcDbXrecord
280
     1
270
     1
271
     1
  0
CELLSTYLEMAP
  5
10001F6
102
{ACAD_REACTORS
330
10001F5
102
}
330
10001F5
100
AcDbCellStyleMap
 90
        3
300
CELLSTYLE
  1
TABLEFORMAT_BEGIN
 90
        5
170
     1
 91
        0
 92
    32768
 62
   257
 93
        1
300
CONTENTFORMAT
  1
CONTENTFORMAT_BEGIN
 90
        0
 91
        0
 92
      512
 93
        0
300

 40
0.0
140
1.0
 94
        5
 62
     0
340
11
144
0.25
309
CONTENTFORMAT_END
171
     0
 94
        0
309
TABLEFORMAT_END
  1
CELLSTYLE_BEGIN
 90
        1
 91
        1
300
_TITLE
309
CELLSTYLE_END
300
CELLSTYLE
  1
TABLEFORMAT_BEGIN
 90
        5
170
     1
 91
        0
 92
        0
 62
   257
 93
        1
300
CONTENTFORMAT
  1
CONTENTFORMAT_BEGIN
 90
        0
 91
        0
 92
      512
 93
        0
300

 40
0.0
140
1.0
 94
        5
 62
     0
340
11
144
0.18
309
CONTENTFORMAT_END
171
     0
 94
        0
309
TABLEFORMAT_END
  1
CELLSTYLE_BEGIN
 90
        2
 91
        1
300
_HEADER
309
CELLSTYLE_END
300
CELLSTYLE
  1
TABLEFORMAT_BEGIN
 90
        5
170
     1
 91
        0
 92
        0
 62
   257
 93
        1
300
CONTENTFORMAT
  1
CONTENTFORMAT_BEGIN
 90
        0
 91
        0
 92
      512
 93
        0
300

 40
0.0
140
1.0
 94
        2
 62
     0
340
11
144
0.18
309
CONTENTFORMAT_END
171
     0
 94
        0
309
TABLEFORMAT_END
  1
CELLSTYLE_BEGIN
 90
        3
 91
        2
300
_DATA
309
CELLSTYLE_END
  0
XRECORD
  5
100022B
102
{ACAD_REACTORS
330
10001F5
102
}
330
10001F5
100
AcDbXrecord
280
     1
102
ACAD_ROUNDTRIP_PRE2007_TABLESTYLE
 90
      512
 91
        0
  1

 92
      512
 93
        0
  2

 94
      512
 95
        0
  3

  0
XRECORD
  5
1000206
102
{ACAD_REACTORS
330
1000205
102
}
330
1000205
100
AcDbXrecord
280
     1
102
RTVSPost2010Prop28
280
     1
102
RTVSPost2010PropOp28
 70
     1
102
RTVSPost2010Prop29
280
     1
102
RTVSPost2010PropOp29
 70
     1
102
RTVSPost2010Prop30
280
     0
102
RTVSPost2010PropOp30
 70
     1
102
RTVSPost2010Prop31
280
     0
102
RTVSPost2010PropOp31
 70
     1
102
RTVSPost2010Prop32
280
     0
102
RTVSPost2010PropOp32
 70
     1
102
RTVSPost2010Prop33
280
     0
102
RTVSPost2010PropOp33
 70
     1
102
RTVSPost2010Prop34
280
     0
102
RTVSPost2010PropOp34
 70
     1
102
RTVSPost2010Prop35
280
     0
102
RTVSPost2010PropOp35
 70
     1
102
RTVSPost2010Prop36
280
     0
102
RTVSPost2010PropOp36
 70
     1
102
RTVSPost2010Prop37
 90
       50
102
RTVSPost2010PropOp37
 70
     1
102
RTVSPost2010Prop38
140
0.0
102
RTVSPost2010PropOp38
 70
     1
102
RTVSPost2010Prop39
140
1.0
102
RTVSPost2010PropOp39
 70
     1
102
RTVSPost2010Prop40
 90
        0
102
RTVSPost2010PropOp40
 70
     1
102
RTVSPost2010Prop41ColorIndex
 90
       18
102
RTVSPost2010Prop41ColorRGB
 90
        0
102
RTVSPost2010PropOp41
 70
     1
102
RTVSPost2010Prop42
 90
       50
102
RTVSPost2010PropOp42
 70
     1
102
RTVSPost2010Prop43
 90
        3
102
RTVSPost2010PropOp43
 70
     1
102
RTVSPost2010Prop44ColorIndex
 90
        5
102
RTVSPost2010Prop44ColorRGB
 90
      255
102
RTVSPost2010PropOp44
 70
     1
102
RTVSPost2010Prop45
280
     0
102
RTVSPost2010PropOp45
 70
     1
102
RTVSPost2010Prop46
 90
       50
102
RTVSPost2010PropOp46
 70
     1
102
RTVSPost2010Prop47
 90
       50
102
RTVSPost2010PropOp47
 70
     1
102
RTVSPost2010Prop48
 90
       50
102
RTVSPost2010PropOp48
 70
     1
102
RTVSPost2010Prop49
280
     0
102
RTVSPost2010PropOp49
 70
     1
102
RTVSPost2010Prop50
 90
       50
102
RTVSPost2010PropOp50
 70
     1
102
RTVSPost2010Prop51ColorIndex
 90
      256
102
RTVSPost2010Prop51ColorRGB
 90
-16777216
102
RTVSPost2010PropOp51
 70
     0
102
RTVSPost2010Prop52
140
1.0
102
RTVSPost2010PropOp52
 70
     0
102
RTVSPost2010Prop53
 90
        2
102
RTVSPost2010PropOp53
 70
     1
102
RTVSPost2010Prop54
  1
strokes_ogs.tif
102
RTVSPost2010PropOp54
 70
     1
102
RTVSPost2010Prop55
280
     0
102
RTVSPost2010PropOp55
 70
     1
102
RTVSPost2010Prop56
140
1.0
102
RTVSPost2010PropOp56
 70
     1
102
RTVSPost2010Prop57
140
1.0
102
RTVSPost2010PropOp57
 70
     1
102
RTVSPropertyOp0
 70
     1
102
RTVSPropertyOp1
 70
     1
102
RTVSPropertyOp2
 70
     1
102
RTVSPropertyOp3
 70
     1
102
RTVSPropertyOp4
 70
     1
102
RTVSPropertyOp5
 70
     1
102
RTVSPropertyOp6
 70
     1
102
RTVSPropertyOp7
 70
     1
102
RTVSPropertyOp8
 70
     1
102
RTVSPropertyOp9
 70
     1
102
RTVSPropertyOp10
 70
     1
102
RTVSPropertyOp11
 70
     1
102
RTVSPropertyOp12
 70
     1
102
RTVSPropertyOp13
 70
     1
102
RTVSPropertyOp14
 70
     1
102
RTVSPropertyOp15
 70
     1
102
RTVSPropertyOp16
 70
     1
102
RTVSPropertyOp17
 70
     1
102
RTVSPropertyOp18
 70
     1
102
RTVSPropertyOp19
 70
     1
102
RTVSPropertyOp20
 70
     1
102
RTVSPropertyOp21
 70
     1
102
RTVSPropertyOp22
 70
     1
102
RTVSPropertyOp23
 70
     1
102
RTVSPropertyOp24
 70
     1
102
RTVSPropertyOp25
 70
     1
102
RTVSPropertyOp26
 70
     1
102
RTVSPropertyOp27
 70
     1
102
RTVSPropertyOp28
 70
     1
102
RTVSPropertyOp29
 70
     1
102
RTVSPropertyOp30
 70
     1
102
RTVSPropertyOp31
 70
     1
102
RTVSPropertyOp32
 70
     1
102
RTVSPropertyOp33
 70
     1
102
RTVSPropertyOp34
 70
     1
102
RTVSPropertyOp35
 70
     1
102
RTVSPropertyOp36
 70
     1
102
RTVSPropertyOp37
 70
     1
102
RTVSPropertyOp38
 70
     1
102
RTVSPropertyOp39
 70
     1
102
RTVSPropertyOp40
 70
     1
102
RTVSPropertyOp41
 70
     1
102
RTVSPropertyOp42
 70
     1
102
RTVSPropertyOp43
 70
     1
102
RTVSPropertyOp44
 70
     1
102
RTVSPropertyOp45
 70
     1
102
RTVSPropertyOp46
 70
     1
102
RTVSPropertyOp47
 70
     1
102
RTVSPropertyOp48
 70
     1
102
RTVSPropertyOp49
 70
     1
102
RTVSPropertyOp50
 70
     1
102
RTVSPropertyOp51
 70
     0
102
RTVSPropertyOp52
 70
     0
102
RTVSPropertyOp53
 70
     1
102
RTVSPropertyOp54
 70
     1
102
RTVSPropertyOp55
 70
     1
102
RTVSPropertyOp56
 70
     1
102
RTVSPropertyOp57
 70
     1
102
RTVSPropertyOp58
 70
     1
102
RTVSPropertyOp59
 70
     1
102
RTVSPropertyOp60
 70
     1
102
RTVSPropertyOp61
 70
     1
102
RTVSPropertyOp62
 70
     1
  0
XRECORD
  5
1000204
102
{ACAD_REACTORS
330
1000203
102
}
330
1000203
100
AcDbXrecord
280
     1
102
RTVSPost2010Prop28
280
     0
102
RTVSPost2010PropOp28
 70
     1
102
RTVSPost2010Prop29
280
     1
102
RTVSPost2010PropOp29
 70
     1
102
RTVSPost2010Prop30
280
     1
102
RTVSPost2010PropOp30
 70
     1
102
RTVSPost2010Prop31
280
     0
102
RTVSPost2010PropOp31
 70
     1
102
RTVSPost2010Prop32
280
     0
102
RTVSPost2010PropOp32
 70
     1
102
RTVSPost2010Prop33
280
     0
102
RTVSPost2010PropOp33
 70
     1
102
RTVSPost2010Prop34
280
     0
102
RTVSPost2010PropOp34
 70
     1
102
RTVSPost2010Prop35
280
     0
102
RTVSPost2010PropOp35
 70
     1
102
RTVSPost2010Prop36
280
     0
102
RTVSPost2010PropOp36
 70
     1
102
RTVSPost2010Prop37
 90
       50
102
RTVSPost2010PropOp37
 70
     1
102
RTVSPost2010Prop38
140
0.0
102
RTVSPost2010PropOp38
 70
     1
102
RTVSPost2010Prop39
140
1.0
102
RTVSPost2010PropOp39
 70
     1
102
RTVSPost2010Prop40
 90
        0
102
RTVSPost2010PropOp40
 70
     1
102
RTVSPost2010Prop41ColorIndex
 90
       18
102
RTVSPost2010Prop41ColorRGB
 90
        0
102
RTVSPost2010PropOp41
 70
     1
102
RTVSPost2010Prop42
 90
       50
102
RTVSPost2010PropOp42
 70
     1
102
RTVSPost2010Prop43
 90
        3
102
RTVSPost2010PropOp43
 70
     1
102
RTVSPost2010Prop44ColorIndex
 90
        5
102
RTVSPost2010Prop44ColorRGB
 90
      255
102
RTVSPost2010PropOp44
 70
     1
102
RTVSPost2010Prop45
280
     0
102
RTVSPost2010PropOp45
 70
     1
102
RTVSPost2010Prop46
 90
       50
102
RTVSPost2010PropOp46
 70
     1
102
RTVSPost2010Prop47
 90
       50
102
RTVSPost2010PropOp47
 70
     1
102
RTVSPost2010Prop48
 90
       50
102
RTVSPost2010PropOp48
 70
     1
102
RTVSPost2010Prop49
280
     0
102
RTVSPost2010PropOp49
 70
     1
102
RTVSPost2010Prop50
 90
       50
102
RTVSPost2010PropOp50
 70
     1
102
RTVSPost2010Prop51ColorIndex
 90
      256
102
RTVSPost2010Prop51ColorRGB
 90
-16777216
102
RTVSPost2010PropOp51
 70
     0
102
RTVSPost2010Prop52
140
1.0
102
RTVSPost2010PropOp52
 70
     0
102
RTVSPost2010Prop53
 90
        2
102
RTVSPost2010PropOp53
 70
     1
102
RTVSPost2010Prop54
  1
strokes_ogs.tif
102
RTVSPost2010PropOp54
 70
     1
102
RTVSPost2010Prop55
280
     0
102
RTVSPost2010PropOp55
 70
     1
102
RTVSPost2010Prop56
140
1.0
102
RTVSPost2010PropOp56
 70
     1
102
RTVSPost2010Prop57
140
1.0
102
RTVSPost2010PropOp57
 70
     1
102
RTVSPropertyOp0
 70
     1
102
RTVSPropertyOp1
 70
     1
102
RTVSPropertyOp2
 70
     1
102
RTVSPropertyOp3
 70
     1
102
RTVSPropertyOp4
 70
     1
102
RTVSPropertyOp5
 70
     1
102
RTVSPropertyOp6
 70
     1
102
RTVSPropertyOp7
 70
     1
102
RTVSPropertyOp8
 70
     1
102
RTVSPropertyOp9
 70
     1
102
RTVSPropertyOp10
 70
     1
102
RTVSPropertyOp11
 70
     1
102
RTVSPropertyOp12
 70
     1
102
RTVSPropertyOp13
 70
     1
102
RTVSPropertyOp14
 70
     1
102
RTVSPropertyOp15
 70
     1
102
RTVSPropertyOp16
 70
     1
102
RTVSPropertyOp17
 70
     1
102
RTVSPropertyOp18
 70
     1
102
RTVSPropertyOp19
 70
     1
102
RTVSPropertyOp20
 70
     1
102
RTVSPropertyOp21
 70
     1
102
RTVSPropertyOp22
 70
     1
102
RTVSPropertyOp23
 70
     1
102
RTVSPropertyOp24
 70
     1
102
RTVSPropertyOp25
 70
     1
102
RTVSPropertyOp26
 70
     1
102
RTVSPropertyOp27
 70
     1
102
RTVSPropertyOp28
 70
     1
102
RTVSPropertyOp29
 70
     1
102
RTVSPropertyOp30
 70
     1
102
RTVSPropertyOp31
 70
     1
102
RTVSPropertyOp32
 70
     1
102
RTVSPropertyOp33
 70
     1
102
RTVSPropertyOp34
 70
     1
102
RTVSPropertyOp35
 70
     1
102
RTVSPropertyOp36
 70
     1
102
RTVSPropertyOp37
 70
     1
102
RTVSPropertyOp38
 70
     1
102
RTVSPropertyOp39
 70
     1
102
RTVSPropertyOp40
 70
     1
102
RTVSPropertyOp41
 70
     1
102
RTVSPropertyOp42
 70
     1
102
RTVSPropertyOp43
 70
     1
102
RTVSPropertyOp44
 70
     1
102
RTVSPropertyOp45
 70
     1
102
RTVSPropertyOp46
 70
     1
102
RTVSPropertyOp47
 70
     1
102
RTVSPropertyOp48
 70
     1
102
RTVSPropertyOp49
 70
     1
102
RTVSPropertyOp50
 70
     1
102
RTVSPropertyOp51
 70
     0
102
RTVSPropertyOp52
 70
     0
102
RTVSPropertyOp53
 70
     1
102
RTVSPropertyOp54
 70
     1
102
RTVSPropertyOp55
 70
     1
102
RTVSPropertyOp56
 70
     1
102
RTVSPropertyOp57
 70
     1
102
RTVSPropertyOp58
 70
     1
102
RTVSPropertyOp59
 70
     1
102
RTVSPropertyOp60
 70
     1
102
RTVSPropertyOp61
 70
     1
102
RTVSPropertyOp62
 70
     1
  0
XRECORD
  5
1000212
102
{ACAD_REACTORS
330
1000211
102
}
330
1000211
100
AcDbXrecord
280
     1
102
RTVSPost2010Prop28
280
     0
102
RTVSPost2010PropOp28
 70
     1
102
RTVSPost2010Prop29
280
     1
102
RTVSPost2010PropOp29
 70
     1
102
RTVSPost2010Prop30
280
     1
102
RTVSPost2010PropOp30
 70
     1
102
RTVSPost2010Prop31
280
     0
102
RTVSPost2010PropOp31
 70
     1
102
RTVSPost2010Prop32
280
     0
102
RTVSPost2010PropOp32
 70
     1
102
RTVSPost2010Prop33
280
     0
102
RTVSPost2010PropOp33
 70
     1
102
RTVSPost2010Prop34
280
     0
102
RTVSPost2010PropOp34
 70
     1
102
RTVSPost2010Prop35
280
     0
102
RTVSPost2010PropOp35
 70
     1
102
RTVSPost2010Prop36
280
     0
102
RTVSPost2010PropOp36
 70
     1
102
RTVSPost2010Prop37
 90
       50
102
RTVSPost2010PropOp37
 70
     1
102
RTVSPost2010Prop38
140
0.0
102
RTVSPost2010PropOp38
 70
     1
102
RTVSPost2010Prop39
140
1.0
102
RTVSPost2010PropOp39
 70
     1
102
RTVSPost2010Prop40
 90
        0
102
RTVSPost2010PropOp40
 70
     1
102
RTVSPost2010Prop41ColorIndex
 90
       18
102
RTVSPost2010Prop41ColorRGB
 90
        0
102
RTVSPost2010PropOp41
 70
     1
102
RTVSPost2010Prop42
 90
       50
102
RTVSPost2010PropOp42
 70
     1
102
RTVSPost2010Prop43
 90
        3
102
RTVSPost2010PropOp43
 70
     1
102
RTVSPost2010Prop44ColorIndex
 90
        5
102
RTVSPost2010Prop44ColorRGB
 90
      255
102
RTVSPost2010PropOp44
 70
     1
102
RTVSPost2010Prop45
280
     0
102
RTVSPost2010PropOp45
 70
     1
102
RTVSPost2010Prop46
 90
       50
102
RTVSPost2010PropOp46
 70
     1
102
RTVSPost2010Prop47
 90
       50
102
RTVSPost2010PropOp47
 70
     1
102
RTVSPost2010Prop48
 90
       50
102
RTVSPost2010PropOp48
 70
     1
102
RTVSPost2010Prop49
280
     0
102
RTVSPost2010PropOp49
 70
     1
102
RTVSPost2010Prop50
 90
       50
102
RTVSPost2010PropOp50
 70
     1
102
RTVSPost2010Prop51ColorIndex
 90
      256
102
RTVSPost2010Prop51ColorRGB
 90
-16777216
102
RTVSPost2010PropOp51
 70
     0
102
RTVSPost2010Prop52
140
1.0
102
RTVSPost2010PropOp52
 70
     0
102
RTVSPost2010Prop53
 90
        2
102
RTVSPost2010PropOp53
 70
     1
102
RTVSPost2010Prop54
  1
strokes_ogs.tif
102
RTVSPost2010PropOp54
 70
     1
102
RTVSPost2010Prop55
280
     0
102
RTVSPost2010PropOp55
 70
     1
102
RTVSPost2010Prop56
140
1.0
102
RTVSPost2010PropOp56
 70
     1
102
RTVSPost2010Prop57
140
1.0
102
RTVSPost2010PropOp57
 70
     1
102
RTVSPropertyOp0
 70
     1
102
RTVSPropertyOp1
 70
     1
102
RTVSPropertyOp2
 70
     1
102
RTVSPropertyOp3
 70
     1
102
RTVSPropertyOp4
 70
     1
102
RTVSPropertyOp5
 70
     1
102
RTVSPropertyOp6
 70
     1
102
RTVSPropertyOp7
 70
     1
102
RTVSPropertyOp8
 70
     1
102
RTVSPropertyOp9
 70
     1
102
RTVSPropertyOp10
 70
     1
102
RTVSPropertyOp11
 70
     1
102
RTVSPropertyOp12
 70
     1
102
RTVSPropertyOp13
 70
     1
102
RTVSPropertyOp14
 70
     1
102
RTVSPropertyOp15
 70
     1
102
RTVSPropertyOp16
 70
     1
102
RTVSPropertyOp17
 70
     1
102
RTVSPropertyOp18
 70
     1
102
RTVSPropertyOp19
 70
     1
102
RTVSPropertyOp20
 70
     1
102
RTVSPropertyOp21
 70
     1
102
RTVSPropertyOp22
 70
     1
102
RTVSPropertyOp23
 70
     1
102
RTVSPropertyOp24
 70
     1
102
RTVSPropertyOp25
 70
     1
102
RTVSPropertyOp26
 70
     1
102
RTVSPropertyOp27
 70
     1
102
RTVSPropertyOp28
 70
     1
102
RTVSPropertyOp29
 70
     1
102
RTVSPropertyOp30
 70
     1
102
RTVSPropertyOp31
 70
     1
102
RTVSPropertyOp32
 70
     1
102
RTVSPropertyOp33
 70
     1
102
RTVSPropertyOp34
 70
     1
102
RTVSPropertyOp35
 70
     1
102
RTVSPropertyOp36
 70
     1
102
RTVSPropertyOp37
 70
     1
102
RTVSPropertyOp38
 70
     1
102
RTVSPropertyOp39
 70
     1
102
RTVSPropertyOp40
 70
     1
102
RTVSPropertyOp41
 70
     1
102
RTVSPropertyOp42
 70
     1
102
RTVSPropertyOp43
 70
     1
102
RTVSPropertyOp44
 70
     1
102
RTVSPropertyOp45
 70
     1
102
RTVSPropertyOp46
 70
     1
102
RTVSPropertyOp47
 70
     1
102
RTVSPropertyOp48
 70
     1
102
RTVSPropertyOp49
 70
     1
102
RTVSPropertyOp50
 70
     1
102
RTVSPropertyOp51
 70
     0
102
RTVSPropertyOp52
 70
     0
102
RTVSPropertyOp53
 70
     1
102
RTVSPropertyOp54
 70
     1
102
RTVSPropertyOp55
 70
     1
102
RTVSPropertyOp56
 70
     1
102
RTVSPropertyOp57
 70
     1
102
RTVSPropertyOp58
 70
     1
102
RTVSPropertyOp59
 70
     1
102
RTVSPropertyOp60
 70
     1
102
RTVSPropertyOp61
 70
     1
102
RTVSPropertyOp62
 70
     1
  0
XRECORD
  5
100021A
102
{ACAD_REACTORS
330
1000219
102
}
330
1000219
100
AcDbXrecord
280
     1
102
RTVSPost2010Prop28
280
     0
102
RTVSPost2010PropOp28
 70
     1
102
RTVSPost2010Prop29
280
     1
102
RTVSPost2010PropOp29
 70
     1
102
RTVSPost2010Prop30
280
     1
102
RTVSPost2010PropOp30
 70
     1
102
RTVSPost2010Prop31
280
     0
102
RTVSPost2010PropOp31
 70
     1
102
RTVSPost2010Prop32
280
     0
102
RTVSPost2010PropOp32
 70
     1
102
RTVSPost2010Prop33
280
     0
102
RTVSPost2010PropOp33
 70
     1
102
RTVSPost2010Prop34
280
     0
102
RTVSPost2010PropOp34
 70
     1
102
RTVSPost2010Prop35
280
     0
102
RTVSPost2010PropOp35
 70
     1
102
RTVSPost2010Prop36
280
     0
102
RTVSPost2010PropOp36
 70
     1
102
RTVSPost2010Prop37
 90
       50
102
RTVSPost2010PropOp37
 70
     1
102
RTVSPost2010Prop38
140
0.0
102
RTVSPost2010PropOp38
 70
     1
102
RTVSPost2010Prop39
140
1.0
102
RTVSPost2010PropOp39
 70
     1
102
RTVSPost2010Prop40
 90
        0
102
RTVSPost2010PropOp40
 70
     1
102
RTVSPost2010Prop41ColorIndex
 90
       18
102
RTVSPost2010Prop41ColorRGB
 90
        0
102
RTVSPost2010PropOp41
 70
     1
102
RTVSPost2010Prop42
 90
       50
102
RTVSPost2010PropOp42
 70
     1
102
RTVSPost2010Prop43
 90
        3
102
RTVSPost2010PropOp43
 70
     1
102
RTVSPost2010Prop44ColorIndex
 90
        5
102
RTVSPost2010Prop44ColorRGB
 90
      255
102
RTVSPost2010PropOp44
 70
     1
102
RTVSPost2010Prop45
280
     0
102
RTVSPost2010PropOp45
 70
     1
102
RTVSPost2010Prop46
 90
       50
102
RTVSPost2010PropOp46
 70
     1
102
RTVSPost2010Prop47
 90
       50
102
RTVSPost2010PropOp47
 70
     1
102
RTVSPost2010Prop48
 90
       50
102
RTVSPost2010PropOp48
 70
     1
102
RTVSPost2010Prop49
280
     0
102
RTVSPost2010PropOp49
 70
     1
102
RTVSPost2010Prop50
 90
       50
102
RTVSPost2010PropOp50
 70
     1
102
RTVSPost2010Prop51ColorIndex
 90
      256
102
RTVSPost2010Prop51ColorRGB
 90
-16777216
102
RTVSPost2010PropOp51
 70
     0
102
RTVSPost2010Prop52
140
1.0
102
RTVSPost2010PropOp52
 70
     0
102
RTVSPost2010Prop53
 90
        2
102
RTVSPost2010PropOp53
 70
     1
102
RTVSPost2010Prop54
  1
strokes_ogs.tif
102
RTVSPost2010PropOp54
 70
     1
102
RTVSPost2010Prop55
280
     0
102
RTVSPost2010PropOp55
 70
     1
102
RTVSPost2010Prop56
140
1.0
102
RTVSPost2010PropOp56
 70
     1
102
RTVSPost2010Prop57
140
1.0
102
RTVSPost2010PropOp57
 70
     1
102
RTVSPropertyOp0
 70
     1
102
RTVSPropertyOp1
 70
     1
102
RTVSPropertyOp2
 70
     1
102
RTVSPropertyOp3
 70
     1
102
RTVSPropertyOp4
 70
     1
102
RTVSPropertyOp5
 70
     1
102
RTVSPropertyOp6
 70
     1
102
RTVSPropertyOp7
 70
     1
102
RTVSPropertyOp8
 70
     1
102
RTVSPropertyOp9
 70
     1
102
RTVSPropertyOp10
 70
     1
102
RTVSPropertyOp11
 70
     1
102
RTVSPropertyOp12
 70
     1
102
RTVSPropertyOp13
 70
     1
102
RTVSPropertyOp14
 70
     1
102
RTVSPropertyOp15
 70
     1
102
RTVSPropertyOp16
 70
     1
102
RTVSPropertyOp17
 70
     1
102
RTVSPropertyOp18
 70
     1
102
RTVSPropertyOp19
 70
     1
102
RTVSPropertyOp20
 70
     1
102
RTVSPropertyOp21
 70
     1
102
RTVSPropertyOp22
 70
     1
102
RTVSPropertyOp23
 70
     1
102
RTVSPropertyOp24
 70
     1
102
RTVSPropertyOp25
 70
     1
102
RTVSPropertyOp26
 70
     1
102
RTVSPropertyOp27
 70
     1
102
RTVSPropertyOp28
 70
     1
102
RTVSPropertyOp29
 70
     1
102
RTVSPropertyOp30
 70
     1
102
RTVSPropertyOp31
 70
     1
102
RTVSPropertyOp32
 70
     1
102
RTVSPropertyOp33
 70
     1
102
RTVSPropertyOp34
 70
     1
102
RTVSPropertyOp35
 70
     1
102
RTVSPropertyOp36
 70
     1
102
RTVSPropertyOp37
 70
     1
102
RTVSPropertyOp38
 70
     1
102
RTVSPropertyOp39
 70
     1
102
RTVSPropertyOp40
 70
     1
102
RTVSPropertyOp41
 70
     1
102
RTVSPropertyOp42
 70
     1
102
RTVSPropertyOp43
 70
     1
102
RTVSPropertyOp44
 70
     1
102
RTVSPropertyOp45
 70
     1
102
RTVSPropertyOp46
 70
     1
102
RTVSPropertyOp47
 70
     1
102
RTVSPropertyOp48
 70
     1
102
RTVSPropertyOp49
 70
     1
102
RTVSPropertyOp50
 70
     1
102
RTVSPropertyOp51
 70
     0
102
RTVSPropertyOp52
 70
     0
102
RTVSPropertyOp53
 70
     1
102
RTVSPropertyOp54
 70
     1
102
RTVSPropertyOp55
 70
     1
102
RTVSPropertyOp56
 70
     1
102
RTVSPropertyOp57
 70
     1
102
RTVSPropertyOp58
 70
     1
102
RTVSPropertyOp59
 70
     1
102
RTVSPropertyOp60
 70
     1
102
RTVSPropertyOp61
 70
     1
102
RTVSPropertyOp62
 70
     1
  0
XRECORD
  5
100020C
102
{ACAD_REACTORS
330
100020B
102
}
330
100020B
100
AcDbXrecord
280
     1
102
RTVSPost2010Prop28
280
     0
102
RTVSPost2010PropOp28
 70
     1
102
RTVSPost2010Prop29
280
     1
102
RTVSPost2010PropOp29
 70
     1
102
RTVSPost2010Prop30
280
     1
102
RTVSPost2010PropOp30
 70
     1
102
RTVSPost2010Prop31
280
     0
102
RTVSPost2010PropOp31
 70
     1
102
RTVSPost2010Prop32
280
     0
102
RTVSPost2010PropOp32
 70
     1
102
RTVSPost2010Prop33
280
     0
102
RTVSPost2010PropOp33
 70
     1
102
RTVSPost2010Prop34
280
     0
102
RTVSPost2010PropOp34
 70
     1
102
RTVSPost2010Prop35
280
     0
102
RTVSPost2010PropOp35
 70
     1
102
RTVSPost2010Prop36
280
     0
102
RTVSPost2010PropOp36
 70
     1
102
RTVSPost2010Prop37
 90
       50
102
RTVSPost2010PropOp37
 70
     1
102
RTVSPost2010Prop38
140
0.0
102
RTVSPost2010PropOp38
 70
     1
102
RTVSPost2010Prop39
140
1.0
102
RTVSPost2010PropOp39
 70
     1
102
RTVSPost2010Prop40
 90
        0
102
RTVSPost2010PropOp40
 70
     1
102
RTVSPost2010Prop41ColorIndex
 90
       18
102
RTVSPost2010Prop41ColorRGB
 90
        0
102
RTVSPost2010PropOp41
 70
     1
102
RTVSPost2010Prop42
 90
       50
102
RTVSPost2010PropOp42
 70
     1
102
RTVSPost2010Prop43
 90
        3
102
RTVSPost2010PropOp43
 70
     1
102
RTVSPost2010Prop44ColorIndex
 90
        5
102
RTVSPost2010Prop44ColorRGB
 90
      255
102
RTVSPost2010PropOp44
 70
     1
102
RTVSPost2010Prop45
280
     0
102
RTVSPost2010PropOp45
 70
     1
102
RTVSPost2010Prop46
 90
       50
102
RTVSPost2010PropOp46
 70
     1
102
RTVSPost2010Prop47
 90
       50
102
RTVSPost2010PropOp47
 70
     1
102
RTVSPost2010Prop48
 90
       50
102
RTVSPost2010PropOp48
 70
     1
102
RTVSPost2010Prop49
280
     0
102
RTVSPost2010PropOp49
 70
     1
102
RTVSPost2010Prop50
 90
       50
102
RTVSPost2010PropOp50
 70
     1
102
RTVSPost2010Prop51ColorIndex
 90
      256
102
RTVSPost2010Prop51ColorRGB
 90
-16777216
102
RTVSPost2010PropOp51
 70
     0
102
RTVSPost2010Prop52
140
1.0
102
RTVSPost2010PropOp52
 70
     0
102
RTVSPost2010Prop53
 90
        2
102
RTVSPost2010PropOp53
 70
     1
102
RTVSPost2010Prop54
  1
strokes_ogs.tif
102
RTVSPost2010PropOp54
 70
     1
102
RTVSPost2010Prop55
280
     0
102
RTVSPost2010PropOp55
 70
     1
102
RTVSPost2010Prop56
140
1.0
102
RTVSPost2010PropOp56
 70
     1
102
RTVSPost2010Prop57
140
1.0
102
RTVSPost2010PropOp57
 70
     1
102
RTVSPropertyOp0
 70
     1
102
RTVSPropertyOp1
 70
     1
102
RTVSPropertyOp2
 70
     1
102
RTVSPropertyOp3
 70
     1
102
RTVSPropertyOp4
 70
     1
102
RTVSPropertyOp5
 70
     1
102
RTVSPropertyOp6
 70
     1
102
RTVSPropertyOp7
 70
     1
102
RTVSPropertyOp8
 70
     1
102
RTVSPropertyOp9
 70
     1
102
RTVSPropertyOp10
 70
     1
102
RTVSPropertyOp11
 70
     1
102
RTVSPropertyOp12
 70
     1
102
RTVSPropertyOp13
 70
     1
102
RTVSPropertyOp14
 70
     1
102
RTVSPropertyOp15
 70
     1
102
RTVSPropertyOp16
 70
     1
102
RTVSPropertyOp17
 70
     1
102
RTVSPropertyOp18
 70
     1
102
RTVSPropertyOp19
 70
     1
102
RTVSPropertyOp20
 70
     1
102
RTVSPropertyOp21
 70
     1
102
RTVSPropertyOp22
 70
     1
102
RTVSPropertyOp23
 70
     1
102
RTVSPropertyOp24
 70
     1
102
RTVSPropertyOp25
 70
     1
102
RTVSPropertyOp26
 70
     1
102
RTVSPropertyOp27
 70
     1
102
RTVSPropertyOp28
 70
     1
102
RTVSPropertyOp29
 70
     1
102
RTVSPropertyOp30
 70
     1
102
RTVSPropertyOp31
 70
     1
102
RTVSPropertyOp32
 70
     1
102
RTVSPropertyOp33
 70
     1
102
RTVSPropertyOp34
 70
     1
102
RTVSPropertyOp35
 70
     1
102
RTVSPropertyOp36
 70
     1
102
RTVSPropertyOp37
 70
     1
102
RTVSPropertyOp38
 70
     1
102
RTVSPropertyOp39
 70
     1
102
RTVSPropertyOp40
 70
     1
102
RTVSPropertyOp41
 70
     1
102
RTVSPropertyOp42
 70
     1
102
RTVSPropertyOp43
 70
     1
102
RTVSPropertyOp44
 70
     1
102
RTVSPropertyOp45
 70
     1
102
RTVSPropertyOp46
 70
     1
102
RTVSPropertyOp47
 70
     1
102
RTVSPropertyOp48
 70
     1
102
RTVSPropertyOp49
 70
     1
102
RTVSPropertyOp50
 70
     1
102
RTVSPropertyOp51
 70
     0
102
RTVSPropertyOp52
 70
     0
102
RTVSPropertyOp53
 70
     1
102
RTVSPropertyOp54
 70
     1
102
RTVSPropertyOp55
 70
     1
102
RTVSPropertyOp56
 70
     1
102
RTVSPropertyOp57
 70
     1
102
RTVSPropertyOp58
 70
     1
102
RTVSPropertyOp59
 70
     1
102
RTVSPropertyOp60
 70
     1
102
RTVSPropertyOp61
 70
     1
102
RTVSPropertyOp62
 70
     1
  0
XRECORD
  5
1000210
102
{ACAD_REACTORS
330
100020F
102
}
330
100020F
100
AcDbXrecord
280
     1
102
RTVSPost2010Prop28
280
     0
102
RTVSPost2010PropOp28
 70
     1
102
RTVSPost2010Prop29
280
     1
102
RTVSPost2010PropOp29
 70
     1
102
RTVSPost2010Prop30
280
     1
102
RTVSPost2010PropOp30
 70
     1
102
RTVSPost2010Prop31
280
     0
102
RTVSPost2010PropOp31
 70
     1
102
RTVSPost2010Prop32
280
     0
102
RTVSPost2010PropOp32
 70
     1
102
RTVSPost2010Prop33
280
     0
102
RTVSPost2010PropOp33
 70
     1
102
RTVSPost2010Prop34
280
     0
102
RTVSPost2010PropOp34
 70
     1
102
RTVSPost2010Prop35
280
     0
102
RTVSPost2010PropOp35
 70
     1
102
RTVSPost2010Prop36
280
     0
102
RTVSPost2010PropOp36
 70
     1
102
RTVSPost2010Prop37
 90
       50
102
RTVSPost2010PropOp37
 70
     1
102
RTVSPost2010Prop38
140
0.0
102
RTVSPost2010PropOp38
 70
     1
102
RTVSPost2010Prop39
140
1.0
102
RTVSPost2010PropOp39
 70
     1
102
RTVSPost2010Prop40
 90
        0
102
RTVSPost2010PropOp40
 70
     1
102
RTVSPost2010Prop41ColorIndex
 90
       18
102
RTVSPost2010Prop41ColorRGB
 90
        0
102
RTVSPost2010PropOp41
 70
     1
102
RTVSPost2010Prop42
 90
       50
102
RTVSPost2010PropOp42
 70
     1
102
RTVSPost2010Prop43
 90
        3
102
RTVSPost2010PropOp43
 70
     1
102
RTVSPost2010Prop44ColorIndex
 90
        5
102
RTVSPost2010Prop44ColorRGB
 90
      255
102
RTVSPost2010PropOp44
 70
     1
102
RTVSPost2010Prop45
280
     0
102
RTVSPost2010PropOp45
 70
     1
102
RTVSPost2010Prop46
 90
       50
102
RTVSPost2010PropOp46
 70
     1
102
RTVSPost2010Prop47
 90
       50
102
RTVSPost2010PropOp47
 70
     1
102
RTVSPost2010Prop48
 90
       50
102
RTVSPost2010PropOp48
 70
     1
102
RTVSPost2010Prop49
280
     0
102
RTVSPost2010PropOp49
 70
     1
102
RTVSPost2010Prop50
 90
       50
102
RTVSPost2010PropOp50
 70
     1
102
RTVSPost2010Prop51ColorIndex
 90
      256
102
RTVSPost2010Prop51ColorRGB
 90
-16777216
102
RTVSPost2010PropOp51
 70
     0
102
RTVSPost2010Prop52
140
1.0
102
RTVSPost2010PropOp52
 70
     0
102
RTVSPost2010Prop53
 90
        2
102
RTVSPost2010PropOp53
 70
     1
102
RTVSPost2010Prop54
  1
strokes_ogs.tif
102
RTVSPost2010PropOp54
 70
     1
102
RTVSPost2010Prop55
280
     0
102
RTVSPost2010PropOp55
 70
     1
102
RTVSPost2010Prop56
140
1.0
102
RTVSPost2010PropOp56
 70
     1
102
RTVSPost2010Prop57
140
1.0
102
RTVSPost2010PropOp57
 70
     1
102
RTVSPropertyOp0
 70
     1
102
RTVSPropertyOp1
 70
     1
102
RTVSPropertyOp2
 70
     1
102
RTVSPropertyOp3
 70
     1
102
RTVSPropertyOp4
 70
     1
102
RTVSPropertyOp5
 70
     1
102
RTVSPropertyOp6
 70
     1
102
RTVSPropertyOp7
 70
     1
102
RTVSPropertyOp8
 70
     1
102
RTVSPropertyOp9
 70
     1
102
RTVSPropertyOp10
 70
     1
102
RTVSPropertyOp11
 70
     1
102
RTVSPropertyOp12
 70
     1
102
RTVSPropertyOp13
 70
     1
102
RTVSPropertyOp14
 70
     1
102
RTVSPropertyOp15
 70
     1
102
RTVSPropertyOp16
 70
     1
102
RTVSPropertyOp17
 70
     1
102
RTVSPropertyOp18
 70
     1
102
RTVSPropertyOp19
 70
     1
102
RTVSPropertyOp20
 70
     1
102
RTVSPropertyOp21
 70
     1
102
RTVSPropertyOp22
 70
     1
102
RTVSPropertyOp23
 70
     1
102
RTVSPropertyOp24
 70
     1
102
RTVSPropertyOp25
 70
     1
102
RTVSPropertyOp26
 70
     1
102
RTVSPropertyOp27
 70
     1
102
RTVSPropertyOp28
 70
     1
102
RTVSPropertyOp29
 70
     1
102
RTVSPropertyOp30
 70
     1
102
RTVSPropertyOp31
 70
     1
102
RTVSPropertyOp32
 70
     1
102
RTVSPropertyOp33
 70
     1
102
RTVSPropertyOp34
 70
     1
102
RTVSPropertyOp35
 70
     1
102
RTVSPropertyOp36
 70
     1
102
RTVSPropertyOp37
 70
     1
102
RTVSPropertyOp38
 70
     1
102
RTVSPropertyOp39
 70
     1
102
RTVSPropertyOp40
 70
     1
102
RTVSPropertyOp41
 70
     1
102
RTVSPropertyOp42
 70
     1
102
RTVSPropertyOp43
 70
     1
102
RTVSPropertyOp44
 70
     1
102
RTVSPropertyOp45
 70
     1
102
RTVSPropertyOp46
 70
     1
102
RTVSPropertyOp47
 70
     1
102
RTVSPropertyOp48
 70
     1
102
RTVSPropertyOp49
 70
     1
102
RTVSPropertyOp50
 70
     1
102
RTVSPropertyOp51
 70
     0
102
RTVSPropertyOp52
 70
     0
102
RTVSPropertyOp53
 70
     1
102
RTVSPropertyOp54
 70
     1
102
RTVSPropertyOp55
 70
     1
102
RTVSPropertyOp56
 70
     1
102
RTVSPropertyOp57
 70
     1
102
RTVSPropertyOp58
 70
     1
102
RTVSPropertyOp59
 70
     1
102
RTVSPropertyOp60
 70
     1
102
RTVSPropertyOp61
 70
     1
102
RTVSPropertyOp62
 70
     1
  0
XRECORD
  5
100022A
102
{ACAD_REACTORS
330
1000229
102
}
330
1000229
100
AcDbXrecord
280
     1
102
RTVSPost2010Prop28
280
     0
102
RTVSPost2010PropOp28
 70
     1
102
RTVSPost2010Prop29
280
     1
102
RTVSPost2010PropOp29
 70
     1
102
RTVSPost2010Prop30
280
     1
102
RTVSPost2010PropOp30
 70
     1
102
RTVSPost2010Prop31
280
     0
102
RTVSPost2010PropOp31
 70
     1
102
RTVSPost2010Prop32
280
     0
102
RTVSPost2010PropOp32
 70
     1
102
RTVSPost2010Prop33
280
     0
102
RTVSPost2010PropOp33
 70
     1
102
RTVSPost2010Prop34
280
     0
102
RTVSPost2010PropOp34
 70
     1
102
RTVSPost2010Prop35
280
     0
102
RTVSPost2010PropOp35
 70
     1
102
RTVSPost2010Prop36
280
     0
102
RTVSPost2010PropOp36
 70
     1
102
RTVSPost2010Prop37
 90
       50
102
RTVSPost2010PropOp37
 70
     0
102
RTVSPost2010Prop38
140
0.0
102
RTVSPost2010PropOp38
 70
     0
102
RTVSPost2010Prop39
140
1.0
102
RTVSPost2010PropOp39
 70
     0
102
RTVSPost2010Prop40
 90
        0
102
RTVSPost2010PropOp40
 70
     0
102
RTVSPost2010Prop41ColorIndex
 90
       18
102
RTVSPost2010Prop41ColorRGB
 90
        0
102
RTVSPost2010PropOp41
 70
     0
102
RTVSPost2010Prop42
 90
       50
102
RTVSPost2010PropOp42
 70
     0
102
RTVSPost2010Prop43
 90
        3
102
RTVSPost2010PropOp43
 70
     0
102
RTVSPost2010Prop44ColorIndex
 90
        5
102
RTVSPost2010Prop44ColorRGB
 90
      255
102
RTVSPost2010PropOp44
 70
     0
102
RTVSPost2010Prop45
280
     0
102
RTVSPost2010PropOp45
 70
     1
102
RTVSPost2010Prop46
 90
       50
102
RTVSPost2010PropOp46
 70
     0
102
RTVSPost2010Prop47
 90
       50
102
RTVSPost2010PropOp47
 70
     0
102
RTVSPost2010Prop48
 90
       50
102
RTVSPost2010PropOp48
 70
     0
102
RTVSPost2010Prop49
280
     0
102
RTVSPost2010PropOp49
 70
     1
102
RTVSPost2010Prop50
 90
       50
102
RTVSPost2010PropOp50
 70
     0
102
RTVSPost2010Prop51ColorIndex
 90
      256
102
RTVSPost2010Prop51ColorRGB
 90
-16777216
102
RTVSPost2010PropOp51
 70
     0
102
RTVSPost2010Prop52
140
1.0
102
RTVSPost2010PropOp52
 70
     0
102
RTVSPost2010Prop53
 90
        2
102
RTVSPost2010PropOp53
 70
     0
102
RTVSPost2010Prop54
  1
strokes_ogs.tif
102
RTVSPost2010PropOp54
 70
     0
102
RTVSPost2010Prop55
280
     0
102
RTVSPost2010PropOp55
 70
     1
102
RTVSPost2010Prop56
140
1.0
102
RTVSPost2010PropOp56
 70
     0
102
RTVSPost2010Prop57
140
1.0
102
RTVSPost2010PropOp57
 70
     0
102
RTVSPropertyOp0
 70
     0
102
RTVSPropertyOp1
 70
     0
102
RTVSPropertyOp2
 70
     0
102
RTVSPropertyOp3
 70
     0
102
RTVSPropertyOp4
 70
     0
102
RTVSPropertyOp5
 70
     0
102
RTVSPropertyOp6
 70
     0
102
RTVSPropertyOp7
 70
     0
102
RTVSPropertyOp8
 70
     0
102
RTVSPropertyOp9
 70
     0
102
RTVSPropertyOp10
 70
     0
102
RTVSPropertyOp11
 70
     0
102
RTVSPropertyOp12
 70
     0
102
RTVSPropertyOp13
 70
     0
102
RTVSPropertyOp14
 70
     2
102
RTVSPropertyOp15
 70
     0
102
RTVSPropertyOp16
 70
     0
102
RTVSPropertyOp17
 70
     0
102
RTVSPropertyOp18
 70
     0
102
RTVSPropertyOp19
 70
     0
102
RTVSPropertyOp20
 70
     0
102
RTVSPropertyOp21
 70
     0
102
RTVSPropertyOp22
 70
     0
102
RTVSPropertyOp23
 70
     0
102
RTVSPropertyOp24
 70
     0
102
RTVSPropertyOp25
 70
     0
102
RTVSPropertyOp26
 70
     0
102
RTVSPropertyOp27
 70
     0
102
RTVSPropertyOp28
 70
     1
102
RTVSPropertyOp29
 70
     1
102
RTVSPropertyOp30
 70
     1
102
RTVSPropertyOp31
 70
     1
102
RTVSPropertyOp32
 70
     1
102
RTVSPropertyOp33
 70
     1
102
RTVSPropertyOp34
 70
     1
102
RTVSPropertyOp35
 70
     1
102
RTVSPropertyOp36
 70
     1
102
RTVSPropertyOp37
 70
     0
102
RTVSPropertyOp38
 70
     0
102
RTVSPropertyOp39
 70
     0
102
RTVSPropertyOp40
 70
     0
102
RTVSPropertyOp41
 70
     0
102
RTVSPropertyOp42
 70
     0
102
RTVSPropertyOp43
 70
     0
102
RTVSPropertyOp44
 70
     0
102
RTVSPropertyOp45
 70
     1
102
RTVSPropertyOp46
 70
     0
102
RTVSPropertyOp47
 70
     0
102
RTVSPropertyOp48
 70
     0
102
RTVSPropertyOp49
 70
     1
102
RTVSPropertyOp50
 70
     0
102
RTVSPropertyOp51
 70
     0
102
RTVSPropertyOp52
 70
     0
102
RTVSPropertyOp53
 70
     0
102
RTVSPropertyOp54
 70
     0
102
RTVSPropertyOp55
 70
     1
102
RTVSPropertyOp56
 70
     0
102
RTVSPropertyOp57
 70
     0
102
RTVSPropertyOp58
 70
     0
102
RTVSPropertyOp59
 70
     0
102
RTVSPropertyOp60
 70
     0
102
RTVSPropertyOp61
 70
     0
102
RTVSPropertyOp62
 70
     0
  0
XRECORD
  5
1000218
102
{ACAD_REACTORS
330
1000217
102
}
330
1000217
100
AcDbXrecord
280
     1
102
RTVSPost2010Prop28
280
     0
102
RTVSPost2010PropOp28
 70
     1
102
RTVSPost2010Prop29
280
     1
102
RTVSPost2010PropOp29
 70
     1
102
RTVSPost2010Prop30
280
     1
102
RTVSPost2010PropOp30
 70
     1
102
RTVSPost2010Prop31
280
     0
102
RTVSPost2010PropOp31
 70
     1
102
RTVSPost2010Prop32
280
     0
102
RTVSPost2010PropOp32
 70
     1
102
RTVSPost2010Prop33
280
     0
102
RTVSPost2010PropOp33
 70
     1
102
RTVSPost2010Prop34
280
     0
102
RTVSPost2010PropOp34
 70
     1
102
RTVSPost2010Prop35
280
     0
102
RTVSPost2010PropOp35
 70
     1
102
RTVSPost2010Prop36
280
     0
102
RTVSPost2010PropOp36
 70
     1
102
RTVSPost2010Prop37
 90
       50
102
RTVSPost2010PropOp37
 70
     1
102
RTVSPost2010Prop38
140
0.0
102
RTVSPost2010PropOp38
 70
     1
102
RTVSPost2010Prop39
140
1.0
102
RTVSPost2010PropOp39
 70
     1
102
RTVSPost2010Prop40
 90
        0
102
RTVSPost2010PropOp40
 70
     1
102
RTVSPost2010Prop41ColorIndex
 90
       18
102
RTVSPost2010Prop41ColorRGB
 90
        0
102
RTVSPost2010PropOp41
 70
     1
102
RTVSPost2010Prop42
 90
       50
102
RTVSPost2010PropOp42
 70
     1
102
RTVSPost2010Prop43
 90
        3
102
RTVSPost2010PropOp43
 70
     1
102
RTVSPost2010Prop44ColorIndex
 90
        5
102
RTVSPost2010Prop44ColorRGB
 90
      255
102
RTVSPost2010PropOp44
 70
     1
102
RTVSPost2010Prop45
280
     0
102
RTVSPost2010PropOp45
 70
     1
102
RTVSPost2010Prop46
 90
       50
102
RTVSPost2010PropOp46
 70
     1
102
RTVSPost2010Prop47
 90
       50
102
RTVSPost2010PropOp47
 70
     1
102
RTVSPost2010Prop48
 90
       50
102
RTVSPost2010PropOp48
 70
     1
102
RTVSPost2010Prop49
280
     0
102
RTVSPost2010PropOp49
 70
     1
102
RTVSPost2010Prop50
 90
       50
102
RTVSPost2010PropOp50
 70
     1
102
RTVSPost2010Prop51ColorIndex
 90
      256
102
RTVSPost2010Prop51ColorRGB
 90
-16777216
102
RTVSPost2010PropOp51
 70
     0
102
RTVSPost2010Prop52
140
1.0
102
RTVSPost2010PropOp52
 70
     0
102
RTVSPost2010Prop53
 90
        2
102
RTVSPost2010PropOp53
 70
     1
102
RTVSPost2010Prop54
  1
strokes_ogs.tif
102
RTVSPost2010PropOp54
 70
     1
102
RTVSPost2010Prop55
280
     0
102
RTVSPost2010PropOp55
 70
     1
102
RTVSPost2010Prop56
140
1.0
102
RTVSPost2010PropOp56
 70
     1
102
RTVSPost2010Prop57
140
1.0
102
RTVSPost2010PropOp57
 70
     1
102
RTVSPropertyOp0
 70
     1
102
RTVSPropertyOp1
 70
     1
102
RTVSPropertyOp2
 70
     1
102
RTVSPropertyOp3
 70
     1
102
RTVSPropertyOp4
 70
     1
102
RTVSPropertyOp5
 70
     1
102
RTVSPropertyOp6
 70
     1
102
RTVSPropertyOp7
 70
     1
102
RTVSPropertyOp8
 70
     1
102
RTVSPropertyOp9
 70
     1
102
RTVSPropertyOp10
 70
     1
102
RTVSPropertyOp11
 70
     1
102
RTVSPropertyOp12
 70
     1
102
RTVSPropertyOp13
 70
     1
102
RTVSPropertyOp14
 70
     1
102
RTVSPropertyOp15
 70
     1
102
RTVSPropertyOp16
 70
     1
102
RTVSPropertyOp17
 70
     1
102
RTVSPropertyOp18
 70
     1
102
RTVSPropertyOp19
 70
     1
102
RTVSPropertyOp20
 70
     1
102
RTVSPropertyOp21
 70
     1
102
RTVSPropertyOp22
 70
     1
102
RTVSPropertyOp23
 70
     1
102
RTVSPropertyOp24
 70
     1
102
RTVSPropertyOp25
 70
     1
102
RTVSPropertyOp26
 70
     1
102
RTVSPropertyOp27
 70
     1
102
RTVSPropertyOp28
 70
     1
102
RTVSPropertyOp29
 70
     1
102
RTVSPropertyOp30
 70
     1
102
RTVSPropertyOp31
 70
     1
102
RTVSPropertyOp32
 70
     1
102
RTVSPropertyOp33
 70
     1
102
RTVSPropertyOp34
 70
     1
102
RTVSPropertyOp35
 70
     1
102
RTVSPropertyOp36
 70
     1
102
RTVSPropertyOp37
 70
     1
102
RTVSPropertyOp38
 70
     1
102
RTVSPropertyOp39
 70
     1
102
RTVSPropertyOp40
 70
     1
102
RTVSPropertyOp41
 70
     1
102
RTVSPropertyOp42
 70
     1
102
RTVSPropertyOp43
 70
     1
102
RTVSPropertyOp44
 70
     1
102
RTVSPropertyOp45
 70
     1
102
RTVSPropertyOp46
 70
     1
102
RTVSPropertyOp47
 70
     1
102
RTVSPropertyOp48
 70
     1
102
RTVSPropertyOp49
 70
     1
102
RTVSPropertyOp50
 70
     1
102
RTVSPropertyOp51
 70
     0
102
RTVSPropertyOp52
 70
     0
102
RTVSPropertyOp53
 70
     1
102
RTVSPropertyOp54
 70
     1
102
RTVSPropertyOp55
 70
     1
102
RTVSPropertyOp56
 70
     1
102
RTVSPropertyOp57
 70
     1
102
RTVSPropertyOp58
 70
     1
102
RTVSPropertyOp59
 70
     1
102
RTVSPropertyOp60
 70
     1
102
RTVSPropertyOp61
 70
     1
102
RTVSPropertyOp62
 70
     1
  0
XRECORD
  5
10001FC
102
{ACAD_REACTORS
330
10001FB
102
}
330
10001FB
100
AcDbXrecord
280
     1
102
RTVSPost2010Prop28
280
     0
102
RTVSPost2010PropOp28
 70
     1
102
RTVSPost2010Prop29
280
     1
102
RTVSPost2010PropOp29
 70
     1
102
RTVSPost2010Prop30
280
     1
102
RTVSPost2010PropOp30
 70
     1
102
RTVSPost2010Prop31
280
     0
102
RTVSPost2010PropOp31
 70
     1
102
RTVSPost2010Prop32
280
     0
102
RTVSPost2010PropOp32
 70
     1
102
RTVSPost2010Prop33
280
     0
102
RTVSPost2010PropOp33
 70
     1
102
RTVSPost2010Prop34
280
     0
102
RTVSPost2010PropOp34
 70
     1
102
RTVSPost2010Prop35
280
     0
102
RTVSPost2010PropOp35
 70
     1
102
RTVSPost2010Prop36
280
     0
102
RTVSPost2010PropOp36
 70
     1
102
RTVSPost2010Prop37
 90
       50
102
RTVSPost2010PropOp37
 70
     1
102
RTVSPost2010Prop38
140
0.0
102
RTVSPost2010PropOp38
 70
     1
102
RTVSPost2010Prop39
140
1.0
102
RTVSPost2010PropOp39
 70
     1
102
RTVSPost2010Prop40
 90
        0
102
RTVSPost2010PropOp40
 70
     1
102
RTVSPost2010Prop41ColorIndex
 90
       18
102
RTVSPost2010Prop41ColorRGB
 90
        0
102
RTVSPost2010PropOp41
 70
     1
102
RTVSPost2010Prop42
 90
       50
102
RTVSPost2010PropOp42
 70
     1
102
RTVSPost2010Prop43
 90
        3
102
RTVSPost2010PropOp43
 70
     1
102
RTVSPost2010Prop44ColorIndex
 90
        5
102
RTVSPost2010Prop44ColorRGB
 90
      255
102
RTVSPost2010PropOp44
 70
     1
102
RTVSPost2010Prop45
280
     0
102
RTVSPost2010PropOp45
 70
     1
102
RTVSPost2010Prop46
 90
       50
102
RTVSPost2010PropOp46
 70
     1
102
RTVSPost2010Prop47
 90
       50
102
RTVSPost2010PropOp47
 70
     1
102
RTVSPost2010Prop48
 90
       50
102
RTVSPost2010PropOp48
 70
     1
102
RTVSPost2010Prop49
280
     0
102
RTVSPost2010PropOp49
 70
     1
102
RTVSPost2010Prop50
 90
       50
102
RTVSPost2010PropOp50
 70
     1
102
RTVSPost2010Prop51ColorIndex
 90
      256
102
RTVSPost2010Prop51ColorRGB
 90
-16777216
102
RTVSPost2010PropOp51
 70
     0
102
RTVSPost2010Prop52
140
1.0
102
RTVSPost2010PropOp52
 70
     0
102
RTVSPost2010Prop53
 90
        2
102
RTVSPost2010PropOp53
 70
     1
102
RTVSPost2010Prop54
  1
strokes_ogs.tif
102
RTVSPost2010PropOp54
 70
     1
102
RTVSPost2010Prop55
280
     0
102
RTVSPost2010PropOp55
 70
     1
102
RTVSPost2010Prop56
140
1.0
102
RTVSPost2010PropOp56
 70
     1
102
RTVSPost2010Prop57
140
1.0
102
RTVSPost2010PropOp57
 70
     1
102
RTVSPropertyOp0
 70
     1
102
RTVSPropertyOp1
 70
     1
102
RTVSPropertyOp2
 70
     1
102
RTVSPropertyOp3
 70
     1
102
RTVSPropertyOp4
 70
     1
102
RTVSPropertyOp5
 70
     1
102
RTVSPropertyOp6
 70
     1
102
RTVSPropertyOp7
 70
     1
102
RTVSPropertyOp8
 70
     1
102
RTVSPropertyOp9
 70
     1
102
RTVSPropertyOp10
 70
     1
102
RTVSPropertyOp11
 70
     1
102
RTVSPropertyOp12
 70
     1
102
RTVSPropertyOp13
 70
     1
102
RTVSPropertyOp14
 70
     1
102
RTVSPropertyOp15
 70
     1
102
RTVSPropertyOp16
 70
     1
102
RTVSPropertyOp17
 70
     1
102
RTVSPropertyOp18
 70
     1
102
RTVSPropertyOp19
 70
     1
102
RTVSPropertyOp20
 70
     1
102
RTVSPropertyOp21
 70
     1
102
RTVSPropertyOp22
 70
     1
102
RTVSPropertyOp23
 70
     1
102
RTVSPropertyOp24
 70
     1
102
RTVSPropertyOp25
 70
     1
102
RTVSPropertyOp26
 70
     1
102
RTVSPropertyOp27
 70
     1
102
RTVSPropertyOp28
 70
     1
102
RTVSPropertyOp29
 70
     1
102
RTVSPropertyOp30
 70
     1
102
RTVSPropertyOp31
 70
     1
102
RTVSPropertyOp32
 70
     1
102
RTVSPropertyOp33
 70
     1
102
RTVSPropertyOp34
 70
     1
102
RTVSPropertyOp35
 70
     1
102
RTVSPropertyOp36
 70
     1
102
RTVSPropertyOp37
 70
     1
102
RTVSPropertyOp38
 70
     1
102
RTVSPropertyOp39
 70
     1
102
RTVSPropertyOp40
 70
     1
102
RTVSPropertyOp41
 70
     1
102
RTVSPropertyOp42
 70
     1
102
RTVSPropertyOp43
 70
     1
102
RTVSPropertyOp44
 70
     1
102
RTVSPropertyOp45
 70
     1
102
RTVSPropertyOp46
 70
     1
102
RTVSPropertyOp47
 70
     1
102
RTVSPropertyOp48
 70
     1
102
RTVSPropertyOp49
 70
     1
102
RTVSPropertyOp50
 70
     1
102
RTVSPropertyOp51
 70
     0
102
RTVSPropertyOp52
 70
     0
102
RTVSPropertyOp53
 70
     1
102
RTVSPropertyOp54
 70
     1
102
RTVSPropertyOp55
 70
     1
102
RTVSPropertyOp56
 70
     1
102
RTVSPropertyOp57
 70
     1
102
RTVSPropertyOp58
 70
     1
102
RTVSPropertyOp59
 70
     1
102
RTVSPropertyOp60
 70
     1
102
RTVSPropertyOp61
 70
     1
102
RTVSPropertyOp62
 70
     1
  0
XRECORD
  5
10001FE
102
{ACAD_REACTORS
330
10001FD
102
}
330
10001FD
100
AcDbXrecord
280
     1
102
RTVSPost2010Prop28
280
     0
102
RTVSPost2010PropOp28
 70
     1
102
RTVSPost2010Prop29
280
     1
102
RTVSPost2010PropOp29
 70
     1
102
RTVSPost2010Prop30
280
     1
102
RTVSPost2010PropOp30
 70
     1
102
RTVSPost2010Prop31
280
     0
102
RTVSPost2010PropOp31
 70
     1
102
RTVSPost2010Prop32
280
     0
102
RTVSPost2010PropOp32
 70
     1
102
RTVSPost2010Prop33
280
     0
102
RTVSPost2010PropOp33
 70
     1
102
RTVSPost2010Prop34
280
     0
102
RTVSPost2010PropOp34
 70
     1
102
RTVSPost2010Prop35
280
     0
102
RTVSPost2010PropOp35
 70
     1
102
RTVSPost2010Prop36
280
     0
102
RTVSPost2010PropOp36
 70
     1
102
RTVSPost2010Prop37
 90
       50
102
RTVSPost2010PropOp37
 70
     1
102
RTVSPost2010Prop38
140
0.0
102
RTVSPost2010PropOp38
 70
     1
102
RTVSPost2010Prop39
140
1.0
102
RTVSPost2010PropOp39
 70
     1
102
RTVSPost2010Prop40
 90
        0
102
RTVSPost2010PropOp40
 70
     1
102
RTVSPost2010Prop41ColorIndex
 90
       18
102
RTVSPost2010Prop41ColorRGB
 90
        0
102
RTVSPost2010PropOp41
 70
     1
102
RTVSPost2010Prop42
 90
       50
102
RTVSPost2010PropOp42
 70
     1
102
RTVSPost2010Prop43
 90
        3
102
RTVSPost2010PropOp43
 70
     1
102
RTVSPost2010Prop44ColorIndex
 90
        5
102
RTVSPost2010Prop44ColorRGB
 90
      255
102
RTVSPost2010PropOp44
 70
     1
102
RTVSPost2010Prop45
280
     0
102
RTVSPost2010PropOp45
 70
     1
102
RTVSPost2010Prop46
 90
       50
102
RTVSPost2010PropOp46
 70
     1
102
RTVSPost2010Prop47
 90
       50
102
RTVSPost2010PropOp47
 70
     1
102
RTVSPost2010Prop48
 90
       50
102
RTVSPost2010PropOp48
 70
     1
102
RTVSPost2010Prop49
280
     0
102
RTVSPost2010PropOp49
 70
     1
102
RTVSPost2010Prop50
 90
       50
102
RTVSPost2010PropOp50
 70
     1
102
RTVSPost2010Prop51ColorIndex
 90
      256
102
RTVSPost2010Prop51ColorRGB
 90
-16777216
102
RTVSPost2010PropOp51
 70
     0
102
RTVSPost2010Prop52
140
1.0
102
RTVSPost2010PropOp52
 70
     0
102
RTVSPost2010Prop53
 90
        2
102
RTVSPost2010PropOp53
 70
     1
102
RTVSPost2010Prop54
  1
strokes_ogs.tif
102
RTVSPost2010PropOp54
 70
     1
102
RTVSPost2010Prop55
280
     0
102
RTVSPost2010PropOp55
 70
     1
102
RTVSPost2010Prop56
140
1.0
102
RTVSPost2010PropOp56
 70
     1
102
RTVSPost2010Prop57
140
1.0
102
RTVSPost2010PropOp57
 70
     1
102
RTVSPropertyOp0
 70
     1
102
RTVSPropertyOp1
 70
     1
102
RTVSPropertyOp2
 70
     1
102
RTVSPropertyOp3
 70
     1
102
RTVSPropertyOp4
 70
     1
102
RTVSPropertyOp5
 70
     1
102
RTVSPropertyOp6
 70
     1
102
RTVSPropertyOp7
 70
     1
102
RTVSPropertyOp8
 70
     1
102
RTVSPropertyOp9
 70
     1
102
RTVSPropertyOp10
 70
     1
102
RTVSPropertyOp11
 70
     1
102
RTVSPropertyOp12
 70
     1
102
RTVSPropertyOp13
 70
     1
102
RTVSPropertyOp14
 70
     1
102
RTVSPropertyOp15
 70
     1
102
RTVSPropertyOp16
 70
     1
102
RTVSPropertyOp17
 70
     1
102
RTVSPropertyOp18
 70
     1
102
RTVSPropertyOp19
 70
     1
102
RTVSPropertyOp20
 70
     1
102
RTVSPropertyOp21
 70
     1
102
RTVSPropertyOp22
 70
     1
102
RTVSPropertyOp23
 70
     1
102
RTVSPropertyOp24
 70
     1
102
RTVSPropertyOp25
 70
     1
102
RTVSPropertyOp26
 70
     1
102
RTVSPropertyOp27
 70
     1
102
RTVSPropertyOp28
 70
     1
102
RTVSPropertyOp29
 70
     1
102
RTVSPropertyOp30
 70
     1
102
RTVSPropertyOp31
 70
     1
102
RTVSPropertyOp32
 70
     1
102
RTVSPropertyOp33
 70
     1
102
RTVSPropertyOp34
 70
     1
102
RTVSPropertyOp35
 70
     1
102
RTVSPropertyOp36
 70
     1
102
RTVSPropertyOp37
 70
     1
102
RTVSPropertyOp38
 70
     1
102
RTVSPropertyOp39
 70
     1
102
RTVSPropertyOp40
 70
     1
102
RTVSPropertyOp41
 70
     1
102
RTVSPropertyOp42
 70
     1
102
RTVSPropertyOp43
 70
     1
102
RTVSPropertyOp44
 70
     1
102
RTVSPropertyOp45
 70
     1
102
RTVSPropertyOp46
 70
     1
102
RTVSPropertyOp47
 70
     1
102
RTVSPropertyOp48
 70
     1
102
RTVSPropertyOp49
 70
     1
102
RTVSPropertyOp50
 70
     1
102
RTVSPropertyOp51
 70
     0
102
RTVSPropertyOp52
 70
     0
102
RTVSPropertyOp53
 70
     1
102
RTVSPropertyOp54
 70
     1
102
RTVSPropertyOp55
 70
     1
102
RTVSPropertyOp56
 70
     1
102
RTVSPropertyOp57
 70
     1
102
RTVSPropertyOp58
 70
     1
102
RTVSPropertyOp59
 70
     1
102
RTVSPropertyOp60
 70
     1
102
RTVSPropertyOp61
 70
     1
102
RTVSPropertyOp62
 70
     1
  0
XRECORD
  5
1000200
102
{ACAD_REACTORS
330
10001FF
102
}
330
10001FF
100
AcDbXrecord
280
     1
102
RTVSPost2010Prop28
280
     0
102
RTVSPost2010PropOp28
 70
     1
102
RTVSPost2010Prop29
280
     1
102
RTVSPost2010PropOp29
 70
     1
102
RTVSPost2010Prop30
280
     1
102
RTVSPost2010PropOp30
 70
     1
102
RTVSPost2010Prop31
280
     0
102
RTVSPost2010PropOp31
 70
     1
102
RTVSPost2010Prop32
280
     0
102
RTVSPost2010PropOp32
 70
     1
102
RTVSPost2010Prop33
280
     0
102
RTVSPost2010PropOp33
 70
     1
102
RTVSPost2010Prop34
280
     0
102
RTVSPost2010PropOp34
 70
     1
102
RTVSPost2010Prop35
280
     0
102
RTVSPost2010PropOp35
 70
     1
102
RTVSPost2010Prop36
280
     0
102
RTVSPost2010PropOp36
 70
     1
102
RTVSPost2010Prop37
 90
       50
102
RTVSPost2010PropOp37
 70
     1
102
RTVSPost2010Prop38
140
0.0
102
RTVSPost2010PropOp38
 70
     1
102
RTVSPost2010Prop39
140
1.0
102
RTVSPost2010PropOp39
 70
     1
102
RTVSPost2010Prop40
 90
        0
102
RTVSPost2010PropOp40
 70
     1
102
RTVSPost2010Prop41ColorIndex
 90
       18
102
RTVSPost2010Prop41ColorRGB
 90
        0
102
RTVSPost2010PropOp41
 70
     1
102
RTVSPost2010Prop42
 90
       50
102
RTVSPost2010PropOp42
 70
     1
102
RTVSPost2010Prop43
 90
        3
102
RTVSPost2010PropOp43
 70
     1
102
RTVSPost2010Prop44ColorIndex
 90
        5
102
RTVSPost2010Prop44ColorRGB
 90
      255
102
RTVSPost2010PropOp44
 70
     1
102
RTVSPost2010Prop45
280
     0
102
RTVSPost2010PropOp45
 70
     1
102
RTVSPost2010Prop46
 90
       50
102
RTVSPost2010PropOp46
 70
     1
102
RTVSPost2010Prop47
 90
       50
102
RTVSPost2010PropOp47
 70
     1
102
RTVSPost2010Prop48
 90
       50
102
RTVSPost2010PropOp48
 70
     1
102
RTVSPost2010Prop49
280
     0
102
RTVSPost2010PropOp49
 70
     1
102
RTVSPost2010Prop50
 90
       50
102
RTVSPost2010PropOp50
 70
     1
102
RTVSPost2010Prop51ColorIndex
 90
      256
102
RTVSPost2010Prop51ColorRGB
 90
-16777216
102
RTVSPost2010PropOp51
 70
     0
102
RTVSPost2010Prop52
140
1.0
102
RTVSPost2010PropOp52
 70
     0
102
RTVSPost2010Prop53
 90
        2
102
RTVSPost2010PropOp53
 70
     1
102
RTVSPost2010Prop54
  1
strokes_ogs.tif
102
RTVSPost2010PropOp54
 70
     1
102
RTVSPost2010Prop55
280
     0
102
RTVSPost2010PropOp55
 70
     1
102
RTVSPost2010Prop56
140
1.0
102
RTVSPost2010PropOp56
 70
     1
102
RTVSPost2010Prop57
140
1.0
102
RTVSPost2010PropOp57
 70
     1
102
RTVSPropertyOp0
 70
     1
102
RTVSPropertyOp1
 70
     1
102
RTVSPropertyOp2
 70
     1
102
RTVSPropertyOp3
 70
     1
102
RTVSPropertyOp4
 70
     1
102
RTVSPropertyOp5
 70
     1
102
RTVSPropertyOp6
 70
     1
102
RTVSPropertyOp7
 70
     1
102
RTVSPropertyOp8
 70
     1
102
RTVSPropertyOp9
 70
     1
102
RTVSPropertyOp10
 70
     1
102
RTVSPropertyOp11
 70
     1
102
RTVSPropertyOp12
 70
     1
102
RTVSPropertyOp13
 70
     1
102
RTVSPropertyOp14
 70
     1
102
RTVSPropertyOp15
 70
     1
102
RTVSPropertyOp16
 70
     1
102
RTVSPropertyOp17
 70
     1
102
RTVSPropertyOp18
 70
     1
102
RTVSPropertyOp19
 70
     1
102
RTVSPropertyOp20
 70
     1
102
RTVSPropertyOp21
 70
     1
102
RTVSPropertyOp22
 70
     1
102
RTVSPropertyOp23
 70
     1
102
RTVSPropertyOp24
 70
     1
102
RTVSPropertyOp25
 70
     1
102
RTVSPropertyOp26
 70
     1
102
RTVSPropertyOp27
 70
     1
102
RTVSPropertyOp28
 70
     1
102
RTVSPropertyOp29
 70
     1
102
RTVSPropertyOp30
 70
     1
102
RTVSPropertyOp31
 70
     1
102
RTVSPropertyOp32
 70
     1
102
RTVSPropertyOp33
 70
     1
102
RTVSPropertyOp34
 70
     1
102
RTVSPropertyOp35
 70
     1
102
RTVSPropertyOp36
 70
     1
102
RTVSPropertyOp37
 70
     1
102
RTVSPropertyOp38
 70
     1
102
RTVSPropertyOp39
 70
     1
102
RTVSPropertyOp40
 70
     1
102
RTVSPropertyOp41
 70
     1
102
RTVSPropertyOp42
 70
     1
102
RTVSPropertyOp43
 70
     1
102
RTVSPropertyOp44
 70
     1
102
RTVSPropertyOp45
 70
     1
102
RTVSPropertyOp46
 70
     1
102
RTVSPropertyOp47
 70
     1
102
RTVSPropertyOp48
 70
     1
102
RTVSPropertyOp49
 70
     1
102
RTVSPropertyOp50
 70
     1
102
RTVSPropertyOp51
 70
     0
102
RTVSPropertyOp52
 70
     0
102
RTVSPropertyOp53
 70
     1
102
RTVSPropertyOp54
 70
     1
102
RTVSPropertyOp55
 70
     1
102
RTVSPropertyOp56
 70
     1
102
RTVSPropertyOp57
 70
     1
102
RTVSPropertyOp58
 70
     1
102
RTVSPropertyOp59
 70
     1
102
RTVSPropertyOp60
 70
     1
102
RTVSPropertyOp61
 70
     1
102
RTVSPropertyOp62
 70
     1
  0
XRECORD
  5
1000202
102
{ACAD_REACTORS
330
1000201
102
}
330
1000201
100
AcDbXrecord
280
     1
102
RTVSPost2010Prop28
280
     0
102
RTVSPost2010PropOp28
 70
     1
102
RTVSPost2010Prop29
280
     1
102
RTVSPost2010PropOp29
 70
     1
102
RTVSPost2010Prop30
280
     1
102
RTVSPost2010PropOp30
 70
     1
102
RTVSPost2010Prop31
280
     0
102
RTVSPost2010PropOp31
 70
     1
102
RTVSPost2010Prop32
280
     0
102
RTVSPost2010PropOp32
 70
     1
102
RTVSPost2010Prop33
280
     0
102
RTVSPost2010PropOp33
 70
     1
102
RTVSPost2010Prop34
280
     0
102
RTVSPost2010PropOp34
 70
     1
102
RTVSPost2010Prop35
280
     0
102
RTVSPost2010PropOp35
 70
     1
102
RTVSPost2010Prop36
280
     0
102
RTVSPost2010PropOp36
 70
     1
102
RTVSPost2010Prop37
 90
       50
102
RTVSPost2010PropOp37
 70
     1
102
RTVSPost2010Prop38
140
0.0
102
RTVSPost2010PropOp38
 70
     1
102
RTVSPost2010Prop39
140
1.0
102
RTVSPost2010PropOp39
 70
     1
102
RTVSPost2010Prop40
 90
        0
102
RTVSPost2010PropOp40
 70
     1
102
RTVSPost2010Prop41ColorIndex
 90
       18
102
RTVSPost2010Prop41ColorRGB
 90
        0
102
RTVSPost2010PropOp41
 70
     1
102
RTVSPost2010Prop42
 90
       50
102
RTVSPost2010PropOp42
 70
     1
102
RTVSPost2010Prop43
 90
        3
102
RTVSPost2010PropOp43
 70
     1
102
RTVSPost2010Prop44ColorIndex
 90
        5
102
RTVSPost2010Prop44ColorRGB
 90
      255
102
RTVSPost2010PropOp44
 70
     1
102
RTVSPost2010Prop45
280
     0
102
RTVSPost2010PropOp45
 70
     1
102
RTVSPost2010Prop46
 90
       50
102
RTVSPost2010PropOp46
 70
     1
102
RTVSPost2010Prop47
 90
       50
102
RTVSPost2010PropOp47
 70
     1
102
RTVSPost2010Prop48
 90
       50
102
RTVSPost2010PropOp48
 70
     1
102
RTVSPost2010Prop49
280
     0
102
RTVSPost2010PropOp49
 70
     1
102
RTVSPost2010Prop50
 90
       50
102
RTVSPost2010PropOp50
 70
     1
102
RTVSPost2010Prop51ColorIndex
 90
      256
102
RTVSPost2010Prop51ColorRGB
 90
-16777216
102
RTVSPost2010PropOp51
 70
     0
102
RTVSPost2010Prop52
140
1.0
102
RTVSPost2010PropOp52
 70
     0
102
RTVSPost2010Prop53
 90
        2
102
RTVSPost2010PropOp53
 70
     1
102
RTVSPost2010Prop54
  1
strokes_ogs.tif
102
RTVSPost2010PropOp54
 70
     1
102
RTVSPost2010Prop55
280
     0
102
RTVSPost2010PropOp55
 70
     1
102
RTVSPost2010Prop56
140
1.0
102
RTVSPost2010PropOp56
 70
     1
102
RTVSPost2010Prop57
140
1.0
102
RTVSPost2010PropOp57
 70
     1
102
RTVSPropertyOp0
 70
     1
102
RTVSPropertyOp1
 70
     1
102
RTVSPropertyOp2
 70
     1
102
RTVSPropertyOp3
 70
     1
102
RTVSPropertyOp4
 70
     1
102
RTVSPropertyOp5
 70
     1
102
RTVSPropertyOp6
 70
     1
102
RTVSPropertyOp7
 70
     1
102
RTVSPropertyOp8
 70
     1
102
RTVSPropertyOp9
 70
     1
102
RTVSPropertyOp10
 70
     1
102
RTVSPropertyOp11
 70
     1
102
RTVSPropertyOp12
 70
     1
102
RTVSPropertyOp13
 70
     1
102
RTVSPropertyOp14
 70
     1
102
RTVSPropertyOp15
 70
     1
102
RTVSPropertyOp16
 70
     1
102
RTVSPropertyOp17
 70
     1
102
RTVSPropertyOp18
 70
     1
102
RTVSPropertyOp19
 70
     1
102
RTVSPropertyOp20
 70
     1
102
RTVSPropertyOp21
 70
     1
102
RTVSPropertyOp22
 70
     1
102
RTVSPropertyOp23
 70
     1
102
RTVSPropertyOp24
 70
     1
102
RTVSPropertyOp25
 70
     1
102
RTVSPropertyOp26
 70
     1
102
RTVSPropertyOp27
 70
     1
102
RTVSPropertyOp28
 70
     1
102
RTVSPropertyOp29
 70
     1
102
RTVSPropertyOp30
 70
     1
102
RTVSPropertyOp31
 70
     1
102
RTVSPropertyOp32
 70
     1
102
RTVSPropertyOp33
 70
     1
102
RTVSPropertyOp34
 70
     1
102
RTVSPropertyOp35
 70
     1
102
RTVSPropertyOp36
 70
     1
102
RTVSPropertyOp37
 70
     1
102
RTVSPropertyOp38
 70
     1
102
RTVSPropertyOp39
 70
     1
102
RTVSPropertyOp40
 70
     1
102
RTVSPropertyOp41
 70
     1
102
RTVSPropertyOp42
 70
     1
102
RTVSPropertyOp43
 70
     1
102
RTVSPropertyOp44
 70
     1
102
RTVSPropertyOp45
 70
     1
102
RTVSPropertyOp46
 70
     1
102
RTVSPropertyOp47
 70
     1
102
RTVSPropertyOp48
 70
     1
102
RTVSPropertyOp49
 70
     1
102
RTVSPropertyOp50
 70
     1
102
RTVSPropertyOp51
 70
     0
102
RTVSPropertyOp52
 70
     0
102
RTVSPropertyOp53
 70
     1
102
RTVSPropertyOp54
 70
     1
102
RTVSPropertyOp55
 70
     1
102
RTVSPropertyOp56
 70
     1
102
RTVSPropertyOp57
 70
     1
102
RTVSPropertyOp58
 70
     1
102
RTVSPropertyOp59
 70
     1
102
RTVSPropertyOp60
 70
     1
102
RTVSPropertyOp61
 70
     1
102
RTVSPropertyOp62
 70
     1
  0
XRECORD
  5
100020A
102
{ACAD_REACTORS
330
1000209
102
}
330
1000209
100
AcDbXrecord
280
     1
102
RTVSPost2010Prop28
280
     0
102
RTVSPost2010PropOp28
 70
     1
102
RTVSPost2010Prop29
280
     1
102
RTVSPost2010PropOp29
 70
     1
102
RTVSPost2010Prop30
280
     1
102
RTVSPost2010PropOp30
 70
     1
102
RTVSPost2010Prop31
280
     0
102
RTVSPost2010PropOp31
 70
     1
102
RTVSPost2010Prop32
280
     0
102
RTVSPost2010PropOp32
 70
     1
102
RTVSPost2010Prop33
280
     0
102
RTVSPost2010PropOp33
 70
     1
102
RTVSPost2010Prop34
280
     0
102
RTVSPost2010PropOp34
 70
     1
102
RTVSPost2010Prop35
280
     0
102
RTVSPost2010PropOp35
 70
     1
102
RTVSPost2010Prop36
280
     0
102
RTVSPost2010PropOp36
 70
     1
102
RTVSPost2010Prop37
 90
       50
102
RTVSPost2010PropOp37
 70
     1
102
RTVSPost2010Prop38
140
0.0
102
RTVSPost2010PropOp38
 70
     1
102
RTVSPost2010Prop39
140
1.0
102
RTVSPost2010PropOp39
 70
     1
102
RTVSPost2010Prop40
 90
        0
102
RTVSPost2010PropOp40
 70
     1
102
RTVSPost2010Prop41ColorIndex
 90
       18
102
RTVSPost2010Prop41ColorRGB
 90
        0
102
RTVSPost2010PropOp41
 70
     1
102
RTVSPost2010Prop42
 90
       50
102
RTVSPost2010PropOp42
 70
     1
102
RTVSPost2010Prop43
 90
        3
102
RTVSPost2010PropOp43
 70
     1
102
RTVSPost2010Prop44ColorIndex
 90
        5
102
RTVSPost2010Prop44ColorRGB
 90
      255
102
RTVSPost2010PropOp44
 70
     1
102
RTVSPost2010Prop45
280
     0
102
RTVSPost2010PropOp45
 70
     1
102
RTVSPost2010Prop46
 90
       50
102
RTVSPost2010PropOp46
 70
     1
102
RTVSPost2010Prop47
 90
       50
102
RTVSPost2010PropOp47
 70
     1
102
RTVSPost2010Prop48
 90
       50
102
RTVSPost2010PropOp48
 70
     1
102
RTVSPost2010Prop49
280
     0
102
RTVSPost2010PropOp49
 70
     1
102
RTVSPost2010Prop50
 90
       50
102
RTVSPost2010PropOp50
 70
     1
102
RTVSPost2010Prop51ColorIndex
 90
      256
102
RTVSPost2010Prop51ColorRGB
 90
-16777216
102
RTVSPost2010PropOp51
 70
     0
102
RTVSPost2010Prop52
140
1.0
102
RTVSPost2010PropOp52
 70
     0
102
RTVSPost2010Prop53
 90
        2
102
RTVSPost2010PropOp53
 70
     1
102
RTVSPost2010Prop54
  1
strokes_ogs.tif
102
RTVSPost2010PropOp54
 70
     1
102
RTVSPost2010Prop55
280
     0
102
RTVSPost2010PropOp55
 70
     1
102
RTVSPost2010Prop56
140
1.0
102
RTVSPost2010PropOp56
 70
     1
102
RTVSPost2010Prop57
140
1.0
102
RTVSPost2010PropOp57
 70
     1
102
RTVSPropertyOp0
 70
     1
102
RTVSPropertyOp1
 70
     1
102
RTVSPropertyOp2
 70
     1
102
RTVSPropertyOp3
 70
     1
102
RTVSPropertyOp4
 70
     1
102
RTVSPropertyOp5
 70
     1
102
RTVSPropertyOp6
 70
     1
102
RTVSPropertyOp7
 70
     1
102
RTVSPropertyOp8
 70
     1
102
RTVSPropertyOp9
 70
     1
102
RTVSPropertyOp10
 70
     1
102
RTVSPropertyOp11
 70
     1
102
RTVSPropertyOp12
 70
     1
102
RTVSPropertyOp13
 70
     1
102
RTVSPropertyOp14
 70
     1
102
RTVSPropertyOp15
 70
     1
102
RTVSPropertyOp16
 70
     1
102
RTVSPropertyOp17
 70
     1
102
RTVSPropertyOp18
 70
     1
102
RTVSPropertyOp19
 70
     1
102
RTVSPropertyOp20
 70
     1
102
RTVSPropertyOp21
 70
     1
102
RTVSPropertyOp22
 70
     1
102
RTVSPropertyOp23
 70
     1
102
RTVSPropertyOp24
 70
     1
102
RTVSPropertyOp25
 70
     1
102
RTVSPropertyOp26
 70
     1
102
RTVSPropertyOp27
 70
     1
102
RTVSPropertyOp28
 70
     1
102
RTVSPropertyOp29
 70
     1
102
RTVSPropertyOp30
 70
     1
102
RTVSPropertyOp31
 70
     1
102
RTVSPropertyOp32
 70
     1
102
RTVSPropertyOp33
 70
     1
102
RTVSPropertyOp34
 70
     1
102
RTVSPropertyOp35
 70
     1
102
RTVSPropertyOp36
 70
     1
102
RTVSPropertyOp37
 70
     1
102
RTVSPropertyOp38
 70
     1
102
RTVSPropertyOp39
 70
     1
102
RTVSPropertyOp40
 70
     1
102
RTVSPropertyOp41
 70
     1
102
RTVSPropertyOp42
 70
     1
102
RTVSPropertyOp43
 70
     1
102
RTVSPropertyOp44
 70
     1
102
RTVSPropertyOp45
 70
     1
102
RTVSPropertyOp46
 70
     1
102
RTVSPropertyOp47
 70
     1
102
RTVSPropertyOp48
 70
     1
102
RTVSPropertyOp49
 70
     1
102
RTVSPropertyOp50
 70
     1
102
RTVSPropertyOp51
 70
     0
102
RTVSPropertyOp52
 70
     0
102
RTVSPropertyOp53
 70
     1
102
RTVSPropertyOp54
 70
     1
102
RTVSPropertyOp55
 70
     1
102
RTVSPropertyOp56
 70
     1
102
RTVSPropertyOp57
 70
     1
102
RTVSPropertyOp58
 70
     1
102
RTVSPropertyOp59
 70
     1
102
RTVSPropertyOp60
 70
     1
102
RTVSPropertyOp61
 70
     1
102
RTVSPropertyOp62
 70
     1
  0
XRECORD
  5
1000226
102
{ACAD_REACTORS
330
1000225
102
}
330
1000225
100
AcDbXrecord
280
     1
102
RTVSPost2010Prop28
280
     0
102
RTVSPost2010PropOp28
 70
     1
102
RTVSPost2010Prop29
280
     1
102
RTVSPost2010PropOp29
 70
     1
102
RTVSPost2010Prop30
280
     1
102
RTVSPost2010PropOp30
 70
     1
102
RTVSPost2010Prop31
280
     0
102
RTVSPost2010PropOp31
 70
     1
102
RTVSPost2010Prop32
280
     0
102
RTVSPost2010PropOp32
 70
     1
102
RTVSPost2010Prop33
280
     0
102
RTVSPost2010PropOp33
 70
     1
102
RTVSPost2010Prop34
280
     0
102
RTVSPost2010PropOp34
 70
     1
102
RTVSPost2010Prop35
280
     0
102
RTVSPost2010PropOp35
 70
     1
102
RTVSPost2010Prop36
280
     0
102
RTVSPost2010PropOp36
 70
     1
102
RTVSPost2010Prop37
 90
       50
102
RTVSPost2010PropOp37
 70
     0
102
RTVSPost2010Prop38
140
0.0
102
RTVSPost2010PropOp38
 70
     0
102
RTVSPost2010Prop39
140
1.0
102
RTVSPost2010PropOp39
 70
     0
102
RTVSPost2010Prop40
 90
        0
102
RTVSPost2010PropOp40
 70
     0
102
RTVSPost2010Prop41ColorIndex
 90
       18
102
RTVSPost2010Prop41ColorRGB
 90
        0
102
RTVSPost2010PropOp41
 70
     0
102
RTVSPost2010Prop42
 90
       50
102
RTVSPost2010PropOp42
 70
     0
102
RTVSPost2010Prop43
 90
        3
102
RTVSPost2010PropOp43
 70
     0
102
RTVSPost2010Prop44ColorIndex
 90
        5
102
RTVSPost2010Prop44ColorRGB
 90
      255
102
RTVSPost2010PropOp44
 70
     0
102
RTVSPost2010Prop45
280
     0
102
RTVSPost2010PropOp45
 70
     1
102
RTVSPost2010Prop46
 90
       50
102
RTVSPost2010PropOp46
 70
     0
102
RTVSPost2010Prop47
 90
       50
102
RTVSPost2010PropOp47
 70
     0
102
RTVSPost2010Prop48
 90
       50
102
RTVSPost2010PropOp48
 70
     0
102
RTVSPost2010Prop49
280
     0
102
RTVSPost2010PropOp49
 70
     1
102
RTVSPost2010Prop50
 90
       50
102
RTVSPost2010PropOp50
 70
     0
102
RTVSPost2010Prop51ColorIndex
 90
      256
102
RTVSPost2010Prop51ColorRGB
 90
-16777216
102
RTVSPost2010PropOp51
 70
     0
102
RTVSPost2010Prop52
140
1.0
102
RTVSPost2010PropOp52
 70
     0
102
RTVSPost2010Prop53
 90
        2
102
RTVSPost2010PropOp53
 70
     0
102
RTVSPost2010Prop54
  1
strokes_ogs.tif
102
RTVSPost2010PropOp54
 70
     0
102
RTVSPost2010Prop55
280
     0
102
RTVSPost2010PropOp55
 70
     1
102
RTVSPost2010Prop56
140
1.0
102
RTVSPost2010PropOp56
 70
     0
102
RTVSPost2010Prop57
140
1.0
102
RTVSPost2010PropOp57
 70
     0
102
RTVSPropertyOp0
 70
     0
102
RTVSPropertyOp1
 70
     0
102
RTVSPropertyOp2
 70
     0
102
RTVSPropertyOp3
 70
     0
102
RTVSPropertyOp4
 70
     0
102
RTVSPropertyOp5
 70
     0
102
RTVSPropertyOp6
 70
     0
102
RTVSPropertyOp7
 70
     0
102
RTVSPropertyOp8
 70
     0
102
RTVSPropertyOp9
 70
     0
102
RTVSPropertyOp10
 70
     0
102
RTVSPropertyOp11
 70
     0
102
RTVSPropertyOp12
 70
     0
102
RTVSPropertyOp13
 70
     0
102
RTVSPropertyOp14
 70
     2
102
RTVSPropertyOp15
 70
     0
102
RTVSPropertyOp16
 70
     0
102
RTVSPropertyOp17
 70
     0
102
RTVSPropertyOp18
 70
     0
102
RTVSPropertyOp19
 70
     0
102
RTVSPropertyOp20
 70
     0
102
RTVSPropertyOp21
 70
     0
102
RTVSPropertyOp22
 70
     0
102
RTVSPropertyOp23
 70
     0
102
RTVSPropertyOp24
 70
     0
102
RTVSPropertyOp25
 70
     0
102
RTVSPropertyOp26
 70
     0
102
RTVSPropertyOp27
 70
     0
102
RTVSPropertyOp28
 70
     1
102
RTVSPropertyOp29
 70
     1
102
RTVSPropertyOp30
 70
     1
102
RTVSPropertyOp31
 70
     1
102
RTVSPropertyOp32
 70
     1
102
RTVSPropertyOp33
 70
     1
102
RTVSPropertyOp34
 70
     1
102
RTVSPropertyOp35
 70
     1
102
RTVSPropertyOp36
 70
     1
102
RTVSPropertyOp37
 70
     0
102
RTVSPropertyOp38
 70
     0
102
RTVSPropertyOp39
 70
     0
102
RTVSPropertyOp40
 70
     0
102
RTVSPropertyOp41
 70
     0
102
RTVSPropertyOp42
 70
     0
102
RTVSPropertyOp43
 70
     0
102
RTVSPropertyOp44
 70
     0
102
RTVSPropertyOp45
 70
     1
102
RTVSPropertyOp46
 70
     0
102
RTVSPropertyOp47
 70
     0
102
RTVSPropertyOp48
 70
     0
102
RTVSPropertyOp49
 70
     1
102
RTVSPropertyOp50
 70
     0
102
RTVSPropertyOp51
 70
     0
102
RTVSPropertyOp52
 70
     0
102
RTVSPropertyOp53
 70
     0
102
RTVSPropertyOp54
 70
     0
102
RTVSPropertyOp55
 70
     1
102
RTVSPropertyOp56
 70
     0
102
RTVSPropertyOp57
 70
     0
102
RTVSPropertyOp58
 70
     0
102
RTVSPropertyOp59
 70
     0
102
RTVSPropertyOp60
 70
     0
102
RTVSPropertyOp61
 70
     0
102
RTVSPropertyOp62
 70
     0
  0
XRECORD
  5
1000216
102
{ACAD_REACTORS
330
1000215
102
}
330
1000215
100
AcDbXrecord
280
     1
102
RTVSPost2010Prop28
280
     0
102
RTVSPost2010PropOp28
 70
     1
102
RTVSPost2010Prop29
280
     1
102
RTVSPost2010PropOp29
 70
     1
102
RTVSPost2010Prop30
280
     1
102
RTVSPost2010PropOp30
 70
     1
102
RTVSPost2010Prop31
280
     0
102
RTVSPost2010PropOp31
 70
     1
102
RTVSPost2010Prop32
280
     0
102
RTVSPost2010PropOp32
 70
     1
102
RTVSPost2010Prop33
280
     0
102
RTVSPost2010PropOp33
 70
     1
102
RTVSPost2010Prop34
280
     0
102
RTVSPost2010PropOp34
 70
     1
102
RTVSPost2010Prop35
280
     0
102
RTVSPost2010PropOp35
 70
     1
102
RTVSPost2010Prop36
280
     0
102
RTVSPost2010PropOp36
 70
     1
102
RTVSPost2010Prop37
 90
       50
102
RTVSPost2010PropOp37
 70
     1
102
RTVSPost2010Prop38
140
0.0
102
RTVSPost2010PropOp38
 70
     1
102
RTVSPost2010Prop39
140
1.0
102
RTVSPost2010PropOp39
 70
     1
102
RTVSPost2010Prop40
 90
        0
102
RTVSPost2010PropOp40
 70
     1
102
RTVSPost2010Prop41ColorIndex
 90
       18
102
RTVSPost2010Prop41ColorRGB
 90
        0
102
RTVSPost2010PropOp41
 70
     1
102
RTVSPost2010Prop42
 90
       50
102
RTVSPost2010PropOp42
 70
     1
102
RTVSPost2010Prop43
 90
        3
102
RTVSPost2010PropOp43
 70
     1
102
RTVSPost2010Prop44ColorIndex
 90
        5
102
RTVSPost2010Prop44ColorRGB
 90
      255
102
RTVSPost2010PropOp44
 70
     1
102
RTVSPost2010Prop45
280
     0
102
RTVSPost2010PropOp45
 70
     1
102
RTVSPost2010Prop46
 90
       50
102
RTVSPost2010PropOp46
 70
     1
102
RTVSPost2010Prop47
 90
       50
102
RTVSPost2010PropOp47
 70
     1
102
RTVSPost2010Prop48
 90
       50
102
RTVSPost2010PropOp48
 70
     1
102
RTVSPost2010Prop49
280
     0
102
RTVSPost2010PropOp49
 70
     1
102
RTVSPost2010Prop50
 90
       50
102
RTVSPost2010PropOp50
 70
     1
102
RTVSPost2010Prop51ColorIndex
 90
      256
102
RTVSPost2010Prop51ColorRGB
 90
-16777216
102
RTVSPost2010PropOp51
 70
     0
102
RTVSPost2010Prop52
140
1.0
102
RTVSPost2010PropOp52
 70
     0
102
RTVSPost2010Prop53
 90
        2
102
RTVSPost2010PropOp53
 70
     1
102
RTVSPost2010Prop54
  1
strokes_ogs.tif
102
RTVSPost2010PropOp54
 70
     1
102
RTVSPost2010Prop55
280
     0
102
RTVSPost2010PropOp55
 70
     1
102
RTVSPost2010Prop56
140
1.0
102
RTVSPost2010PropOp56
 70
     1
102
RTVSPost2010Prop57
140
1.0
102
RTVSPost2010PropOp57
 70
     1
102
RTVSPropertyOp0
 70
     1
102
RTVSPropertyOp1
 70
     1
102
RTVSPropertyOp2
 70
     1
102
RTVSPropertyOp3
 70
     1
102
RTVSPropertyOp4
 70
     1
102
RTVSPropertyOp5
 70
     1
102
RTVSPropertyOp6
 70
     1
102
RTVSPropertyOp7
 70
     1
102
RTVSPropertyOp8
 70
     1
102
RTVSPropertyOp9
 70
     1
102
RTVSPropertyOp10
 70
     1
102
RTVSPropertyOp11
 70
     1
102
RTVSPropertyOp12
 70
     1
102
RTVSPropertyOp13
 70
     1
102
RTVSPropertyOp14
 70
     1
102
RTVSPropertyOp15
 70
     1
102
RTVSPropertyOp16
 70
     1
102
RTVSPropertyOp17
 70
     1
102
RTVSPropertyOp18
 70
     1
102
RTVSPropertyOp19
 70
     1
102
RTVSPropertyOp20
 70
     1
102
RTVSPropertyOp21
 70
     1
102
RTVSPropertyOp22
 70
     1
102
RTVSPropertyOp23
 70
     1
102
RTVSPropertyOp24
 70
     1
102
RTVSPropertyOp25
 70
     1
102
RTVSPropertyOp26
 70
     1
102
RTVSPropertyOp27
 70
     1
102
RTVSPropertyOp28
 70
     1
102
RTVSPropertyOp29
 70
     1
102
RTVSPropertyOp30
 70
     1
102
RTVSPropertyOp31
 70
     1
102
RTVSPropertyOp32
 70
     1
102
RTVSPropertyOp33
 70
     1
102
RTVSPropertyOp34
 70
     1
102
RTVSPropertyOp35
 70
     1
102
RTVSPropertyOp36
 70
     1
102
RTVSPropertyOp37
 70
     1
102
RTVSPropertyOp38
 70
     1
102
RTVSPropertyOp39
 70
     1
102
RTVSPropertyOp40
 70
     1
102
RTVSPropertyOp41
 70
     1
102
RTVSPropertyOp42
 70
     1
102
RTVSPropertyOp43
 70
     1
102
RTVSPropertyOp44
 70
     1
102
RTVSPropertyOp45
 70
     1
102
RTVSPropertyOp46
 70
     1
102
RTVSPropertyOp47
 70
     1
102
RTVSPropertyOp48
 70
     1
102
RTVSPropertyOp49
 70
     1
102
RTVSPropertyOp50
 70
     1
102
RTVSPropertyOp51
 70
     0
102
RTVSPropertyOp52
 70
     0
102
RTVSPropertyOp53
 70
     1
102
RTVSPropertyOp54
 70
     1
102
RTVSPropertyOp55
 70
     1
102
RTVSPropertyOp56
 70
     1
102
RTVSPropertyOp57
 70
     1
102
RTVSPropertyOp58
 70
     1
102
RTVSPropertyOp59
 70
     1
102
RTVSPropertyOp60
 70
     1
102
RTVSPropertyOp61
 70
     1
102
RTVSPropertyOp62
 70
     1
  0
XRECORD
  5
1000228
102
{ACAD_REACTORS
330
1000227
102
}
330
1000227
100
AcDbXrecord
280
     1
102
RTVSPost2010Prop28
280
     0
102
RTVSPost2010PropOp28
 70
     1
102
RTVSPost2010Prop29
280
     1
102
RTVSPost2010PropOp29
 70
     1
102
RTVSPost2010Prop30
280
     1
102
RTVSPost2010PropOp30
 70
     1
102
RTVSPost2010Prop31
280
     0
102
RTVSPost2010PropOp31
 70
     1
102
RTVSPost2010Prop32
280
     0
102
RTVSPost2010PropOp32
 70
     1
102
RTVSPost2010Prop33
280
     0
102
RTVSPost2010PropOp33
 70
     1
102
RTVSPost2010Prop34
280
     0
102
RTVSPost2010PropOp34
 70
     1
102
RTVSPost2010Prop35
280
     0
102
RTVSPost2010PropOp35
 70
     1
102
RTVSPost2010Prop36
280
     0
102
RTVSPost2010PropOp36
 70
     1
102
RTVSPost2010Prop37
 90
       50
102
RTVSPost2010PropOp37
 70
     0
102
RTVSPost2010Prop38
140
0.0
102
RTVSPost2010PropOp38
 70
     0
102
RTVSPost2010Prop39
140
1.0
102
RTVSPost2010PropOp39
 70
     0
102
RTVSPost2010Prop40
 90
        0
102
RTVSPost2010PropOp40
 70
     0
102
RTVSPost2010Prop41ColorIndex
 90
       18
102
RTVSPost2010Prop41ColorRGB
 90
        0
102
RTVSPost2010PropOp41
 70
     0
102
RTVSPost2010Prop42
 90
       50
102
RTVSPost2010PropOp42
 70
     0
102
RTVSPost2010Prop43
 90
        3
102
RTVSPost2010PropOp43
 70
     0
102
RTVSPost2010Prop44ColorIndex
 90
        5
102
RTVSPost2010Prop44ColorRGB
 90
      255
102
RTVSPost2010PropOp44
 70
     0
102
RTVSPost2010Prop45
280
     0
102
RTVSPost2010PropOp45
 70
     1
102
RTVSPost2010Prop46
 90
       50
102
RTVSPost2010PropOp46
 70
     0
102
RTVSPost2010Prop47
 90
       50
102
RTVSPost2010PropOp47
 70
     0
102
RTVSPost2010Prop48
 90
       50
102
RTVSPost2010PropOp48
 70
     0
102
RTVSPost2010Prop49
280
     0
102
RTVSPost2010PropOp49
 70
     1
102
RTVSPost2010Prop50
 90
       50
102
RTVSPost2010PropOp50
 70
     0
102
RTVSPost2010Prop51ColorIndex
 90
      256
102
RTVSPost2010Prop51ColorRGB
 90
-16777216
102
RTVSPost2010PropOp51
 70
     0
102
RTVSPost2010Prop52
140
1.0
102
RTVSPost2010PropOp52
 70
     0
102
RTVSPost2010Prop53
 90
        2
102
RTVSPost2010PropOp53
 70
     0
102
RTVSPost2010Prop54
  1
strokes_ogs.tif
102
RTVSPost2010PropOp54
 70
     0
102
RTVSPost2010Prop55
280
     0
102
RTVSPost2010PropOp55
 70
     1
102
RTVSPost2010Prop56
140
1.0
102
RTVSPost2010PropOp56
 70
     0
102
RTVSPost2010Prop57
140
1.0
102
RTVSPost2010PropOp57
 70
     0
102
RTVSPropertyOp0
 70
     0
102
RTVSPropertyOp1
 70
     0
102
RTVSPropertyOp2
 70
     0
102
RTVSPropertyOp3
 70
     0
102
RTVSPropertyOp4
 70
     0
102
RTVSPropertyOp5
 70
     0
102
RTVSPropertyOp6
 70
     0
102
RTVSPropertyOp7
 70
     0
102
RTVSPropertyOp8
 70
     0
102
RTVSPropertyOp9
 70
     0
102
RTVSPropertyOp10
 70
     0
102
RTVSPropertyOp11
 70
     0
102
RTVSPropertyOp12
 70
     0
102
RTVSPropertyOp13
 70
     0
102
RTVSPropertyOp14
 70
     2
102
RTVSPropertyOp15
 70
     0
102
RTVSPropertyOp16
 70
     0
102
RTVSPropertyOp17
 70
     0
102
RTVSPropertyOp18
 70
     0
102
RTVSPropertyOp19
 70
     0
102
RTVSPropertyOp20
 70
     0
102
RTVSPropertyOp21
 70
     0
102
RTVSPropertyOp22
 70
     0
102
RTVSPropertyOp23
 70
     0
102
RTVSPropertyOp24
 70
     0
102
RTVSPropertyOp25
 70
     0
102
RTVSPropertyOp26
 70
     0
102
RTVSPropertyOp27
 70
     0
102
RTVSPropertyOp28
 70
     1
102
RTVSPropertyOp29
 70
     1
102
RTVSPropertyOp30
 70
     1
102
RTVSPropertyOp31
 70
     1
102
RTVSPropertyOp32
 70
     1
102
RTVSPropertyOp33
 70
     1
102
RTVSPropertyOp34
 70
     1
102
RTVSPropertyOp35
 70
     1
102
RTVSPropertyOp36
 70
     1
102
RTVSPropertyOp37
 70
     0
102
RTVSPropertyOp38
 70
     0
102
RTVSPropertyOp39
 70
     0
102
RTVSPropertyOp40
 70
     0
102
RTVSPropertyOp41
 70
     0
102
RTVSPropertyOp42
 70
     0
102
RTVSPropertyOp43
 70
     0
102
RTVSPropertyOp44
 70
     0
102
RTVSPropertyOp45
 70
     1
102
RTVSPropertyOp46
 70
     0
102
RTVSPropertyOp47
 70
     0
102
RTVSPropertyOp48
 70
     0
102
RTVSPropertyOp49
 70
     1
102
RTVSPropertyOp50
 70
     0
102
RTVSPropertyOp51
 70
     0
102
RTVSPropertyOp52
 70
     0
102
RTVSPropertyOp53
 70
     0
102
RTVSPropertyOp54
 70
     0
102
RTVSPropertyOp55
 70
     1
102
RTVSPropertyOp56
 70
     0
102
RTVSPropertyOp57
 70
     0
102
RTVSPropertyOp58
 70
     0
102
RTVSPropertyOp59
 70
     0
102
RTVSPropertyOp60
 70
     0
102
RTVSPropertyOp61
 70
     0
102
RTVSPropertyOp62
 70
     0
  0
XRECORD
  5
100020E
102
{ACAD_REACTORS
330
100020D
102
}
330
100020D
100
AcDbXrecord
280
     1
102
RTVSPost2010Prop28
280
     0
102
RTVSPost2010PropOp28
 70
     1
102
RTVSPost2010Prop29
280
     1
102
RTVSPost2010PropOp29
 70
     1
102
RTVSPost2010Prop30
280
     1
102
RTVSPost2010PropOp30
 70
     1
102
RTVSPost2010Prop31
280
     0
102
RTVSPost2010PropOp31
 70
     1
102
RTVSPost2010Prop32
280
     0
102
RTVSPost2010PropOp32
 70
     1
102
RTVSPost2010Prop33
280
     0
102
RTVSPost2010PropOp33
 70
     1
102
RTVSPost2010Prop34
280
     0
102
RTVSPost2010PropOp34
 70
     1
102
RTVSPost2010Prop35
280
     0
102
RTVSPost2010PropOp35
 70
     1
102
RTVSPost2010Prop36
280
     0
102
RTVSPost2010PropOp36
 70
     1
102
RTVSPost2010Prop37
 90
       50
102
RTVSPost2010PropOp37
 70
     1
102
RTVSPost2010Prop38
140
0.0
102
RTVSPost2010PropOp38
 70
     1
102
RTVSPost2010Prop39
140
1.0
102
RTVSPost2010PropOp39
 70
     1
102
RTVSPost2010Prop40
 90
        0
102
RTVSPost2010PropOp40
 70
     1
102
RTVSPost2010Prop41ColorIndex
 90
       18
102
RTVSPost2010Prop41ColorRGB
 90
        0
102
RTVSPost2010PropOp41
 70
     1
102
RTVSPost2010Prop42
 90
       50
102
RTVSPost2010PropOp42
 70
     1
102
RTVSPost2010Prop43
 90
        3
102
RTVSPost2010PropOp43
 70
     1
102
RTVSPost2010Prop44ColorIndex
 90
        5
102
RTVSPost2010Prop44ColorRGB
 90
      255
102
RTVSPost2010PropOp44
 70
     1
102
RTVSPost2010Prop45
280
     0
102
RTVSPost2010PropOp45
 70
     1
102
RTVSPost2010Prop46
 90
       50
102
RTVSPost2010PropOp46
 70
     1
102
RTVSPost2010Prop47
 90
       50
102
RTVSPost2010PropOp47
 70
     1
102
RTVSPost2010Prop48
 90
       50
102
RTVSPost2010PropOp48
 70
     1
102
RTVSPost2010Prop49
280
     0
102
RTVSPost2010PropOp49
 70
     1
102
RTVSPost2010Prop50
 90
       50
102
RTVSPost2010PropOp50
 70
     1
102
RTVSPost2010Prop51ColorIndex
 90
      256
102
RTVSPost2010Prop51ColorRGB
 90
-16777216
102
RTVSPost2010PropOp51
 70
     0
102
RTVSPost2010Prop52
140
1.0
102
RTVSPost2010PropOp52
 70
     0
102
RTVSPost2010Prop53
 90
        2
102
RTVSPost2010PropOp53
 70
     1
102
RTVSPost2010Prop54
  1
strokes_ogs.tif
102
RTVSPost2010PropOp54
 70
     1
102
RTVSPost2010Prop55
280
     0
102
RTVSPost2010PropOp55
 70
     1
102
RTVSPost2010Prop56
140
1.0
102
RTVSPost2010PropOp56
 70
     1
102
RTVSPost2010Prop57
140
1.0
102
RTVSPost2010PropOp57
 70
     1
102
RTVSPropertyOp0
 70
     1
102
RTVSPropertyOp1
 70
     1
102
RTVSPropertyOp2
 70
     1
102
RTVSPropertyOp3
 70
     1
102
RTVSPropertyOp4
 70
     1
102
RTVSPropertyOp5
 70
     1
102
RTVSPropertyOp6
 70
     1
102
RTVSPropertyOp7
 70
     1
102
RTVSPropertyOp8
 70
     1
102
RTVSPropertyOp9
 70
     1
102
RTVSPropertyOp10
 70
     1
102
RTVSPropertyOp11
 70
     1
102
RTVSPropertyOp12
 70
     1
102
RTVSPropertyOp13
 70
     1
102
RTVSPropertyOp14
 70
     1
102
RTVSPropertyOp15
 70
     1
102
RTVSPropertyOp16
 70
     1
102
RTVSPropertyOp17
 70
     1
102
RTVSPropertyOp18
 70
     1
102
RTVSPropertyOp19
 70
     1
102
RTVSPropertyOp20
 70
     1
102
RTVSPropertyOp21
 70
     1
102
RTVSPropertyOp22
 70
     1
102
RTVSPropertyOp23
 70
     1
102
RTVSPropertyOp24
 70
     1
102
RTVSPropertyOp25
 70
     1
102
RTVSPropertyOp26
 70
     1
102
RTVSPropertyOp27
 70
     1
102
RTVSPropertyOp28
 70
     1
102
RTVSPropertyOp29
 70
     1
102
RTVSPropertyOp30
 70
     1
102
RTVSPropertyOp31
 70
     1
102
RTVSPropertyOp32
 70
     1
102
RTVSPropertyOp33
 70
     1
102
RTVSPropertyOp34
 70
     1
102
RTVSPropertyOp35
 70
     1
102
RTVSPropertyOp36
 70
     1
102
RTVSPropertyOp37
 70
     1
102
RTVSPropertyOp38
 70
     1
102
RTVSPropertyOp39
 70
     1
102
RTVSPropertyOp40
 70
     1
102
RTVSPropertyOp41
 70
     1
102
RTVSPropertyOp42
 70
     1
102
RTVSPropertyOp43
 70
     1
102
RTVSPropertyOp44
 70
     1
102
RTVSPropertyOp45
 70
     1
102
RTVSPropertyOp46
 70
     1
102
RTVSPropertyOp47
 70
     1
102
RTVSPropertyOp48
 70
     1
102
RTVSPropertyOp49
 70
     1
102
RTVSPropertyOp50
 70
     1
102
RTVSPropertyOp51
 70
     0
102
RTVSPropertyOp52
 70
     0
102
RTVSPropertyOp53
 70
     1
102
RTVSPropertyOp54
 70
     1
102
RTVSPropertyOp55
 70
     1
102
RTVSPropertyOp56
 70
     1
102
RTVSPropertyOp57
 70
     1
102
RTVSPropertyOp58
 70
     1
102
RTVSPropertyOp59
 70
     1
102
RTVSPropertyOp60
 70
     1
102
RTVSPropertyOp61
 70
     1
102
RTVSPropertyOp62
 70
     1
  0
XRECORD
  5
1000224
102
{ACAD_REACTORS
330
1000223
102
}
330
1000223
100
AcDbXrecord
280
     1
102
RTVSPost2010Prop28
280
     0
102
RTVSPost2010PropOp28
 70
     1
102
RTVSPost2010Prop29
280
     1
102
RTVSPost2010PropOp29
 70
     1
102
RTVSPost2010Prop30
280
     1
102
RTVSPost2010PropOp30
 70
     1
102
RTVSPost2010Prop31
280
     0
102
RTVSPost2010PropOp31
 70
     1
102
RTVSPost2010Prop32
280
     0
102
RTVSPost2010PropOp32
 70
     1
102
RTVSPost2010Prop33
280
     0
102
RTVSPost2010PropOp33
 70
     1
102
RTVSPost2010Prop34
280
     0
102
RTVSPost2010PropOp34
 70
     1
102
RTVSPost2010Prop35
280
     0
102
RTVSPost2010PropOp35
 70
     1
102
RTVSPost2010Prop36
280
     0
102
RTVSPost2010PropOp36
 70
     1
102
RTVSPost2010Prop37
 90
       50
102
RTVSPost2010PropOp37
 70
     1
102
RTVSPost2010Prop38
140
0.0
102
RTVSPost2010PropOp38
 70
     1
102
RTVSPost2010Prop39
140
1.0
102
RTVSPost2010PropOp39
 70
     1
102
RTVSPost2010Prop40
 90
        0
102
RTVSPost2010PropOp40
 70
     1
102
RTVSPost2010Prop41ColorIndex
 90
       18
102
RTVSPost2010Prop41ColorRGB
 90
        0
102
RTVSPost2010PropOp41
 70
     1
102
RTVSPost2010Prop42
 90
       50
102
RTVSPost2010PropOp42
 70
     1
102
RTVSPost2010Prop43
 90
        3
102
RTVSPost2010PropOp43
 70
     1
102
RTVSPost2010Prop44ColorIndex
 90
        5
102
RTVSPost2010Prop44ColorRGB
 90
      255
102
RTVSPost2010PropOp44
 70
     1
102
RTVSPost2010Prop45
280
     0
102
RTVSPost2010PropOp45
 70
     1
102
RTVSPost2010Prop46
 90
       50
102
RTVSPost2010PropOp46
 70
     1
102
RTVSPost2010Prop47
 90
       50
102
RTVSPost2010PropOp47
 70
     1
102
RTVSPost2010Prop48
 90
       50
102
RTVSPost2010PropOp48
 70
     1
102
RTVSPost2010Prop49
280
     0
102
RTVSPost2010PropOp49
 70
     1
102
RTVSPost2010Prop50
 90
       50
102
RTVSPost2010PropOp50
 70
     1
102
RTVSPost2010Prop51ColorIndex
 90
      256
102
RTVSPost2010Prop51ColorRGB
 90
-16777216
102
RTVSPost2010PropOp51
 70
     0
102
RTVSPost2010Prop52
140
1.0
102
RTVSPost2010PropOp52
 70
     0
102
RTVSPost2010Prop53
 90
        2
102
RTVSPost2010PropOp53
 70
     1
102
RTVSPost2010Prop54
  1
strokes_ogs.tif
102
RTVSPost2010PropOp54
 70
     1
102
RTVSPost2010Prop55
280
     0
102
RTVSPost2010PropOp55
 70
     1
102
RTVSPost2010Prop56
140
1.0
102
RTVSPost2010PropOp56
 70
     1
102
RTVSPost2010Prop57
140
1.0
102
RTVSPost2010PropOp57
 70
     1
102
RTVSPropertyOp0
 70
     1
102
RTVSPropertyOp1
 70
     1
102
RTVSPropertyOp2
 70
     1
102
RTVSPropertyOp3
 70
     1
102
RTVSPropertyOp4
 70
     1
102
RTVSPropertyOp5
 70
     1
102
RTVSPropertyOp6
 70
     1
102
RTVSPropertyOp7
 70
     1
102
RTVSPropertyOp8
 70
     1
102
RTVSPropertyOp9
 70
     1
102
RTVSPropertyOp10
 70
     1
102
RTVSPropertyOp11
 70
     1
102
RTVSPropertyOp12
 70
     1
102
RTVSPropertyOp13
 70
     1
102
RTVSPropertyOp14
 70
     1
102
RTVSPropertyOp15
 70
     1
102
RTVSPropertyOp16
 70
     1
102
RTVSPropertyOp17
 70
     1
102
RTVSPropertyOp18
 70
     1
102
RTVSPropertyOp19
 70
     1
102
RTVSPropertyOp20
 70
     1
102
RTVSPropertyOp21
 70
     1
102
RTVSPropertyOp22
 70
     1
102
RTVSPropertyOp23
 70
     1
102
RTVSPropertyOp24
 70
     1
102
RTVSPropertyOp25
 70
     1
102
RTVSPropertyOp26
 70
     1
102
RTVSPropertyOp27
 70
     1
102
RTVSPropertyOp28
 70
     1
102
RTVSPropertyOp29
 70
     1
102
RTVSPropertyOp30
 70
     1
102
RTVSPropertyOp31
 70
     1
102
RTVSPropertyOp32
 70
     1
102
RTVSPropertyOp33
 70
     1
102
RTVSPropertyOp34
 70
     1
102
RTVSPropertyOp35
 70
     1
102
RTVSPropertyOp36
 70
     1
102
RTVSPropertyOp37
 70
     1
102
RTVSPropertyOp38
 70
     1
102
RTVSPropertyOp39
 70
     1
102
RTVSPropertyOp40
 70
     1
102
RTVSPropertyOp41
 70
     1
102
RTVSPropertyOp42
 70
     1
102
RTVSPropertyOp43
 70
     1
102
RTVSPropertyOp44
 70
     1
102
RTVSPropertyOp45
 70
     1
102
RTVSPropertyOp46
 70
     1
102
RTVSPropertyOp47
 70
     1
102
RTVSPropertyOp48
 70
     1
102
RTVSPropertyOp49
 70
     1
102
RTVSPropertyOp50
 70
     1
102
RTVSPropertyOp51
 70
     0
102
RTVSPropertyOp52
 70
     0
102
RTVSPropertyOp53
 70
     1
102
RTVSPropertyOp54
 70
     1
102
RTVSPropertyOp55
 70
     1
102
RTVSPropertyOp56
 70
     1
102
RTVSPropertyOp57
 70
     1
102
RTVSPropertyOp58
 70
     1
102
RTVSPropertyOp59
 70
     1
102
RTVSPropertyOp60
 70
     1
102
RTVSPropertyOp61
 70
     1
102
RTVSPropertyOp62
 70
     1
  0
XRECORD
  5
1000222
102
{ACAD_REACTORS
330
1000221
102
}
330
1000221
100
AcDbXrecord
280
     1
102
RTVSPost2010Prop28
280
     0
102
RTVSPost2010PropOp28
 70
     1
102
RTVSPost2010Prop29
280
     1
102
RTVSPost2010PropOp29
 70
     1
102
RTVSPost2010Prop30
280
     1
102
RTVSPost2010PropOp30
 70
     1
102
RTVSPost2010Prop31
280
     0
102
RTVSPost2010PropOp31
 70
     1
102
RTVSPost2010Prop32
280
     0
102
RTVSPost2010PropOp32
 70
     1
102
RTVSPost2010Prop33
280
     0
102
RTVSPost2010PropOp33
 70
     1
102
RTVSPost2010Prop34
280
     0
102
RTVSPost2010PropOp34
 70
     1
102
RTVSPost2010Prop35
280
     0
102
RTVSPost2010PropOp35
 70
     1
102
RTVSPost2010Prop36
280
     0
102
RTVSPost2010PropOp36
 70
     1
102
RTVSPost2010Prop37
 90
       50
102
RTVSPost2010PropOp37
 70
     1
102
RTVSPost2010Prop38
140
0.0
102
RTVSPost2010PropOp38
 70
     1
102
RTVSPost2010Prop39
140
1.0
102
RTVSPost2010PropOp39
 70
     1
102
RTVSPost2010Prop40
 90
        0
102
RTVSPost2010PropOp40
 70
     1
102
RTVSPost2010Prop41ColorIndex
 90
       18
102
RTVSPost2010Prop41ColorRGB
 90
        0
102
RTVSPost2010PropOp41
 70
     1
102
RTVSPost2010Prop42
 90
       50
102
RTVSPost2010PropOp42
 70
     1
102
RTVSPost2010Prop43
 90
        3
102
RTVSPost2010PropOp43
 70
     1
102
RTVSPost2010Prop44ColorIndex
 90
        5
102
RTVSPost2010Prop44ColorRGB
 90
      255
102
RTVSPost2010PropOp44
 70
     1
102
RTVSPost2010Prop45
280
     0
102
RTVSPost2010PropOp45
 70
     1
102
RTVSPost2010Prop46
 90
       50
102
RTVSPost2010PropOp46
 70
     1
102
RTVSPost2010Prop47
 90
       50
102
RTVSPost2010PropOp47
 70
     1
102
RTVSPost2010Prop48
 90
       50
102
RTVSPost2010PropOp48
 70
     1
102
RTVSPost2010Prop49
280
     0
102
RTVSPost2010PropOp49
 70
     1
102
RTVSPost2010Prop50
 90
       50
102
RTVSPost2010PropOp50
 70
     1
102
RTVSPost2010Prop51ColorIndex
 90
      256
102
RTVSPost2010Prop51ColorRGB
 90
-16777216
102
RTVSPost2010PropOp51
 70
     0
102
RTVSPost2010Prop52
140
1.0
102
RTVSPost2010PropOp52
 70
     0
102
RTVSPost2010Prop53
 90
        2
102
RTVSPost2010PropOp53
 70
     1
102
RTVSPost2010Prop54
  1
strokes_ogs.tif
102
RTVSPost2010PropOp54
 70
     1
102
RTVSPost2010Prop55
280
     0
102
RTVSPost2010PropOp55
 70
     1
102
RTVSPost2010Prop56
140
1.0
102
RTVSPost2010PropOp56
 70
     1
102
RTVSPost2010Prop57
140
1.0
102
RTVSPost2010PropOp57
 70
     1
102
RTVSPropertyOp0
 70
     1
102
RTVSPropertyOp1
 70
     1
102
RTVSPropertyOp2
 70
     1
102
RTVSPropertyOp3
 70
     1
102
RTVSPropertyOp4
 70
     1
102
RTVSPropertyOp5
 70
     1
102
RTVSPropertyOp6
 70
     1
102
RTVSPropertyOp7
 70
     1
102
RTVSPropertyOp8
 70
     1
102
RTVSPropertyOp9
 70
     1
102
RTVSPropertyOp10
 70
     1
102
RTVSPropertyOp11
 70
     1
102
RTVSPropertyOp12
 70
     1
102
RTVSPropertyOp13
 70
     1
102
RTVSPropertyOp14
 70
     1
102
RTVSPropertyOp15
 70
     1
102
RTVSPropertyOp16
 70
     1
102
RTVSPropertyOp17
 70
     1
102
RTVSPropertyOp18
 70
     1
102
RTVSPropertyOp19
 70
     1
102
RTVSPropertyOp20
 70
     1
102
RTVSPropertyOp21
 70
     1
102
RTVSPropertyOp22
 70
     1
102
RTVSPropertyOp23
 70
     1
102
RTVSPropertyOp24
 70
     1
102
RTVSPropertyOp25
 70
     1
102
RTVSPropertyOp26
 70
     1
102
RTVSPropertyOp27
 70
     1
102
RTVSPropertyOp28
 70
     1
102
RTVSPropertyOp29
 70
     1
102
RTVSPropertyOp30
 70
     1
102
RTVSPropertyOp31
 70
     1
102
RTVSPropertyOp32
 70
     1
102
RTVSPropertyOp33
 70
     1
102
RTVSPropertyOp34
 70
     1
102
RTVSPropertyOp35
 70
     1
102
RTVSPropertyOp36
 70
     1
102
RTVSPropertyOp37
 70
     1
102
RTVSPropertyOp38
 70
     1
102
RTVSPropertyOp39
 70
     1
102
RTVSPropertyOp40
 70
     1
102
RTVSPropertyOp41
 70
     1
102
RTVSPropertyOp42
 70
     1
102
RTVSPropertyOp43
 70
     1
102
RTVSPropertyOp44
 70
     1
102
RTVSPropertyOp45
 70
     1
102
RTVSPropertyOp46
 70
     1
102
RTVSPropertyOp47
 70
     1
102
RTVSPropertyOp48
 70
     1
102
RTVSPropertyOp49
 70
     1
102
RTVSPropertyOp50
 70
     1
102
RTVSPropertyOp51
 70
     0
102
RTVSPropertyOp52
 70
     0
102
RTVSPropertyOp53
 70
     1
102
RTVSPropertyOp54
 70
     1
102
RTVSPropertyOp55
 70
     1
102
RTVSPropertyOp56
 70
     1
102
RTVSPropertyOp57
 70
     1
102
RTVSPropertyOp58
 70
     1
102
RTVSPropertyOp59
 70
     1
102
RTVSPropertyOp60
 70
     1
102
RTVSPropertyOp61
 70
     1
102
RTVSPropertyOp62
 70
     1
  0
XRECORD
  5
100021C
102
{ACAD_REACTORS
330
100021B
102
}
330
100021B
100
AcDbXrecord
280
     1
102
RTVSPost2010Prop28
280
     0
102
RTVSPost2010PropOp28
 70
     1
102
RTVSPost2010Prop29
280
     1
102
RTVSPost2010PropOp29
 70
     1
102
RTVSPost2010Prop30
280
     1
102
RTVSPost2010PropOp30
 70
     1
102
RTVSPost2010Prop31
280
     0
102
RTVSPost2010PropOp31
 70
     1
102
RTVSPost2010Prop32
280
     0
102
RTVSPost2010PropOp32
 70
     1
102
RTVSPost2010Prop33
280
     0
102
RTVSPost2010PropOp33
 70
     1
102
RTVSPost2010Prop34
280
     0
102
RTVSPost2010PropOp34
 70
     1
102
RTVSPost2010Prop35
280
     0
102
RTVSPost2010PropOp35
 70
     1
102
RTVSPost2010Prop36
280
     0
102
RTVSPost2010PropOp36
 70
     1
102
RTVSPost2010Prop37
 90
       50
102
RTVSPost2010PropOp37
 70
     1
102
RTVSPost2010Prop38
140
0.0
102
RTVSPost2010PropOp38
 70
     1
102
RTVSPost2010Prop39
140
1.0
102
RTVSPost2010PropOp39
 70
     1
102
RTVSPost2010Prop40
 90
        0
102
RTVSPost2010PropOp40
 70
     1
102
RTVSPost2010Prop41ColorIndex
 90
       18
102
RTVSPost2010Prop41ColorRGB
 90
        0
102
RTVSPost2010PropOp41
 70
     1
102
RTVSPost2010Prop42
 90
       50
102
RTVSPost2010PropOp42
 70
     1
102
RTVSPost2010Prop43
 90
        3
102
RTVSPost2010PropOp43
 70
     1
102
RTVSPost2010Prop44ColorIndex
 90
        5
102
RTVSPost2010Prop44ColorRGB
 90
      255
102
RTVSPost2010PropOp44
 70
     1
102
RTVSPost2010Prop45
280
     0
102
RTVSPost2010PropOp45
 70
     1
102
RTVSPost2010Prop46
 90
       50
102
RTVSPost2010PropOp46
 70
     1
102
RTVSPost2010Prop47
 90
       50
102
RTVSPost2010PropOp47
 70
     1
102
RTVSPost2010Prop48
 90
       50
102
RTVSPost2010PropOp48
 70
     1
102
RTVSPost2010Prop49
280
     0
102
RTVSPost2010PropOp49
 70
     1
102
RTVSPost2010Prop50
 90
       50
102
RTVSPost2010PropOp50
 70
     1
102
RTVSPost2010Prop51ColorIndex
 90
      256
102
RTVSPost2010Prop51ColorRGB
 90
-16777216
102
RTVSPost2010PropOp51
 70
     0
102
RTVSPost2010Prop52
140
1.0
102
RTVSPost2010PropOp52
 70
     0
102
RTVSPost2010Prop53
 90
        2
102
RTVSPost2010PropOp53
 70
     1
102
RTVSPost2010Prop54
  1
strokes_ogs.tif
102
RTVSPost2010PropOp54
 70
     1
102
RTVSPost2010Prop55
280
     0
102
RTVSPost2010PropOp55
 70
     1
102
RTVSPost2010Prop56
140
1.0
102
RTVSPost2010PropOp56
 70
     1
102
RTVSPost2010Prop57
140
1.0
102
RTVSPost2010PropOp57
 70
     1
102
RTVSPropertyOp0
 70
     1
102
RTVSPropertyOp1
 70
     1
102
RTVSPropertyOp2
 70
     1
102
RTVSPropertyOp3
 70
     1
102
RTVSPropertyOp4
 70
     1
102
RTVSPropertyOp5
 70
     1
102
RTVSPropertyOp6
 70
     1
102
RTVSPropertyOp7
 70
     1
102
RTVSPropertyOp8
 70
     1
102
RTVSPropertyOp9
 70
     1
102
RTVSPropertyOp10
 70
     1
102
RTVSPropertyOp11
 70
     1
102
RTVSPropertyOp12
 70
     1
102
RTVSPropertyOp13
 70
     1
102
RTVSPropertyOp14
 70
     1
102
RTVSPropertyOp15
 70
     1
102
RTVSPropertyOp16
 70
     1
102
RTVSPropertyOp17
 70
     1
102
RTVSPropertyOp18
 70
     1
102
RTVSPropertyOp19
 70
     1
102
RTVSPropertyOp20
 70
     1
102
RTVSPropertyOp21
 70
     1
102
RTVSPropertyOp22
 70
     1
102
RTVSPropertyOp23
 70
     1
102
RTVSPropertyOp24
 70
     1
102
RTVSPropertyOp25
 70
     1
102
RTVSPropertyOp26
 70
     1
102
RTVSPropertyOp27
 70
     1
102
RTVSPropertyOp28
 70
     1
102
RTVSPropertyOp29
 70
     1
102
RTVSPropertyOp30
 70
     1
102
RTVSPropertyOp31
 70
     1
102
RTVSPropertyOp32
 70
     1
102
RTVSPropertyOp33
 70
     1
102
RTVSPropertyOp34
 70
     1
102
RTVSPropertyOp35
 70
     1
102
RTVSPropertyOp36
 70
     1
102
RTVSPropertyOp37
 70
     1
102
RTVSPropertyOp38
 70
     1
102
RTVSPropertyOp39
 70
     1
102
RTVSPropertyOp40
 70
     1
102
RTVSPropertyOp41
 70
     1
102
RTVSPropertyOp42
 70
     1
102
RTVSPropertyOp43
 70
     1
102
RTVSPropertyOp44
 70
     1
102
RTVSPropertyOp45
 70
     1
102
RTVSPropertyOp46
 70
     1
102
RTVSPropertyOp47
 70
     1
102
RTVSPropertyOp48
 70
     1
102
RTVSPropertyOp49
 70
     1
102
RTVSPropertyOp50
 70
     1
102
RTVSPropertyOp51
 70
     0
102
RTVSPropertyOp52
 70
     0
102
RTVSPropertyOp53
 70
     1
102
RTVSPropertyOp54
 70
     1
102
RTVSPropertyOp55
 70
     1
102
RTVSPropertyOp56
 70
     1
102
RTVSPropertyOp57
 70
     1
102
RTVSPropertyOp58
 70
     1
102
RTVSPropertyOp59
 70
     1
102
RTVSPropertyOp60
 70
     1
102
RTVSPropertyOp61
 70
     1
102
RTVSPropertyOp62
 70
     1
  0
XRECORD
  5
100021E
102
{ACAD_REACTORS
330
100021D
102
}
330
100021D
100
AcDbXrecord
280
     1
102
RTVSPost2010Prop28
280
     0
102
RTVSPost2010PropOp28
 70
     1
102
RTVSPost2010Prop29
280
     1
102
RTVSPost2010PropOp29
 70
     1
102
RTVSPost2010Prop30
280
     1
102
RTVSPost2010PropOp30
 70
     1
102
RTVSPost2010Prop31
280
     0
102
RTVSPost2010PropOp31
 70
     1
102
RTVSPost2010Prop32
280
     0
102
RTVSPost2010PropOp32
 70
     1
102
RTVSPost2010Prop33
280
     0
102
RTVSPost2010PropOp33
 70
     1
102
RTVSPost2010Prop34
280
     0
102
RTVSPost2010PropOp34
 70
     1
102
RTVSPost2010Prop35
280
     0
102
RTVSPost2010PropOp35
 70
     1
102
RTVSPost2010Prop36
280
     0
102
RTVSPost2010PropOp36
 70
     1
102
RTVSPost2010Prop37
 90
       50
102
RTVSPost2010PropOp37
 70
     1
102
RTVSPost2010Prop38
140
0.0
102
RTVSPost2010PropOp38
 70
     1
102
RTVSPost2010Prop39
140
1.0
102
RTVSPost2010PropOp39
 70
     1
102
RTVSPost2010Prop40
 90
        0
102
RTVSPost2010PropOp40
 70
     1
102
RTVSPost2010Prop41ColorIndex
 90
       18
102
RTVSPost2010Prop41ColorRGB
 90
        0
102
RTVSPost2010PropOp41
 70
     1
102
RTVSPost2010Prop42
 90
       50
102
RTVSPost2010PropOp42
 70
     1
102
RTVSPost2010Prop43
 90
        3
102
RTVSPost2010PropOp43
 70
     1
102
RTVSPost2010Prop44ColorIndex
 90
        5
102
RTVSPost2010Prop44ColorRGB
 90
      255
102
RTVSPost2010PropOp44
 70
     1
102
RTVSPost2010Prop45
280
     0
102
RTVSPost2010PropOp45
 70
     1
102
RTVSPost2010Prop46
 90
       50
102
RTVSPost2010PropOp46
 70
     1
102
RTVSPost2010Prop47
 90
       50
102
RTVSPost2010PropOp47
 70
     1
102
RTVSPost2010Prop48
 90
       50
102
RTVSPost2010PropOp48
 70
     1
102
RTVSPost2010Prop49
280
     0
102
RTVSPost2010PropOp49
 70
     1
102
RTVSPost2010Prop50
 90
       50
102
RTVSPost2010PropOp50
 70
     1
102
RTVSPost2010Prop51ColorIndex
 90
      256
102
RTVSPost2010Prop51ColorRGB
 90
-16777216
102
RTVSPost2010PropOp51
 70
     0
102
RTVSPost2010Prop52
140
1.0
102
RTVSPost2010PropOp52
 70
     0
102
RTVSPost2010Prop53
 90
        2
102
RTVSPost2010PropOp53
 70
     1
102
RTVSPost2010Prop54
  1
strokes_ogs.tif
102
RTVSPost2010PropOp54
 70
     1
102
RTVSPost2010Prop55
280
     0
102
RTVSPost2010PropOp55
 70
     1
102
RTVSPost2010Prop56
140
1.0
102
RTVSPost2010PropOp56
 70
     1
102
RTVSPost2010Prop57
140
1.0
102
RTVSPost2010PropOp57
 70
     1
102
RTVSPropertyOp0
 70
     1
102
RTVSPropertyOp1
 70
     1
102
RTVSPropertyOp2
 70
     1
102
RTVSPropertyOp3
 70
     1
102
RTVSPropertyOp4
 70
     1
102
RTVSPropertyOp5
 70
     1
102
RTVSPropertyOp6
 70
     1
102
RTVSPropertyOp7
 70
     1
102
RTVSPropertyOp8
 70
     1
102
RTVSPropertyOp9
 70
     1
102
RTVSPropertyOp10
 70
     1
102
RTVSPropertyOp11
 70
     1
102
RTVSPropertyOp12
 70
     1
102
RTVSPropertyOp13
 70
     1
102
RTVSPropertyOp14
 70
     1
102
RTVSPropertyOp15
 70
     1
102
RTVSPropertyOp16
 70
     1
102
RTVSPropertyOp17
 70
     1
102
RTVSPropertyOp18
 70
     1
102
RTVSPropertyOp19
 70
     1
102
RTVSPropertyOp20
 70
     1
102
RTVSPropertyOp21
 70
     1
102
RTVSPropertyOp22
 70
     1
102
RTVSPropertyOp23
 70
     1
102
RTVSPropertyOp24
 70
     1
102
RTVSPropertyOp25
 70
     1
102
RTVSPropertyOp26
 70
     1
102
RTVSPropertyOp27
 70
     1
102
RTVSPropertyOp28
 70
     1
102
RTVSPropertyOp29
 70
     1
102
RTVSPropertyOp30
 70
     1
102
RTVSPropertyOp31
 70
     1
102
RTVSPropertyOp32
 70
     1
102
RTVSPropertyOp33
 70
     1
102
RTVSPropertyOp34
 70
     1
102
RTVSPropertyOp35
 70
     1
102
RTVSPropertyOp36
 70
     1
102
RTVSPropertyOp37
 70
     1
102
RTVSPropertyOp38
 70
     1
102
RTVSPropertyOp39
 70
     1
102
RTVSPropertyOp40
 70
     1
102
RTVSPropertyOp41
 70
     1
102
RTVSPropertyOp42
 70
     1
102
RTVSPropertyOp43
 70
     1
102
RTVSPropertyOp44
 70
     1
102
RTVSPropertyOp45
 70
     1
102
RTVSPropertyOp46
 70
     1
102
RTVSPropertyOp47
 70
     1
102
RTVSPropertyOp48
 70
     1
102
RTVSPropertyOp49
 70
     1
102
RTVSPropertyOp50
 70
     1
102
RTVSPropertyOp51
 70
     0
102
RTVSPropertyOp52
 70
     0
102
RTVSPropertyOp53
 70
     1
102
RTVSPropertyOp54
 70
     1
102
RTVSPropertyOp55
 70
     1
102
RTVSPropertyOp56
 70
     1
102
RTVSPropertyOp57
 70
     1
102
RTVSPropertyOp58
 70
     1
102
RTVSPropertyOp59
 70
     1
102
RTVSPropertyOp60
 70
     1
102
RTVSPropertyOp61
 70
     1
102
RTVSPropertyOp62
 70
     1
  0
XRECORD
  5
1000214
102
{ACAD_REACTORS
330
1000213
102
}
330
1000213
100
AcDbXrecord
280
     1
102
RTVSPost2010Prop28
280
     0
102
RTVSPost2010PropOp28
 70
     1
102
RTVSPost2010Prop29
280
     1
102
RTVSPost2010PropOp29
 70
     1
102
RTVSPost2010Prop30
280
     1
102
RTVSPost2010PropOp30
 70
     1
102
RTVSPost2010Prop31
280
     0
102
RTVSPost2010PropOp31
 70
     1
102
RTVSPost2010Prop32
280
     0
102
RTVSPost2010PropOp32
 70
     1
102
RTVSPost2010Prop33
280
     0
102
RTVSPost2010PropOp33
 70
     1
102
RTVSPost2010Prop34
280
     0
102
RTVSPost2010PropOp34
 70
     1
102
RTVSPost2010Prop35
280
     0
102
RTVSPost2010PropOp35
 70
     1
102
RTVSPost2010Prop36
280
     0
102
RTVSPost2010PropOp36
 70
     1
102
RTVSPost2010Prop37
 90
       50
102
RTVSPost2010PropOp37
 70
     1
102
RTVSPost2010Prop38
140
0.0
102
RTVSPost2010PropOp38
 70
     1
102
RTVSPost2010Prop39
140
1.0
102
RTVSPost2010PropOp39
 70
     1
102
RTVSPost2010Prop40
 90
        0
102
RTVSPost2010PropOp40
 70
     1
102
RTVSPost2010Prop41ColorIndex
 90
       18
102
RTVSPost2010Prop41ColorRGB
 90
        0
102
RTVSPost2010PropOp41
 70
     1
102
RTVSPost2010Prop42
 90
       50
102
RTVSPost2010PropOp42
 70
     1
102
RTVSPost2010Prop43
 90
        3
102
RTVSPost2010PropOp43
 70
     1
102
RTVSPost2010Prop44ColorIndex
 90
        5
102
RTVSPost2010Prop44ColorRGB
 90
      255
102
RTVSPost2010PropOp44
 70
     1
102
RTVSPost2010Prop45
280
     0
102
RTVSPost2010PropOp45
 70
     1
102
RTVSPost2010Prop46
 90
       50
102
RTVSPost2010PropOp46
 70
     1
102
RTVSPost2010Prop47
 90
       50
102
RTVSPost2010PropOp47
 70
     1
102
RTVSPost2010Prop48
 90
       50
102
RTVSPost2010PropOp48
 70
     1
102
RTVSPost2010Prop49
280
     0
102
RTVSPost2010PropOp49
 70
     1
102
RTVSPost2010Prop50
 90
       50
102
RTVSPost2010PropOp50
 70
     1
102
RTVSPost2010Prop51ColorIndex
 90
      256
102
RTVSPost2010Prop51ColorRGB
 90
-16777216
102
RTVSPost2010PropOp51
 70
     0
102
RTVSPost2010Prop52
140
1.0
102
RTVSPost2010PropOp52
 70
     0
102
RTVSPost2010Prop53
 90
        2
102
RTVSPost2010PropOp53
 70
     1
102
RTVSPost2010Prop54
  1
strokes_ogs.tif
102
RTVSPost2010PropOp54
 70
     1
102
RTVSPost2010Prop55
280
     0
102
RTVSPost2010PropOp55
 70
     1
102
RTVSPost2010Prop56
140
1.0
102
RTVSPost2010PropOp56
 70
     1
102
RTVSPost2010Prop57
140
1.0
102
RTVSPost2010PropOp57
 70
     1
102
RTVSPropertyOp0
 70
     1
102
RTVSPropertyOp1
 70
     1
102
RTVSPropertyOp2
 70
     1
102
RTVSPropertyOp3
 70
     1
102
RTVSPropertyOp4
 70
     1
102
RTVSPropertyOp5
 70
     1
102
RTVSPropertyOp6
 70
     1
102
RTVSPropertyOp7
 70
     1
102
RTVSPropertyOp8
 70
     1
102
RTVSPropertyOp9
 70
     1
102
RTVSPropertyOp10
 70
     1
102
RTVSPropertyOp11
 70
     1
102
RTVSPropertyOp12
 70
     1
102
RTVSPropertyOp13
 70
     1
102
RTVSPropertyOp14
 70
     1
102
RTVSPropertyOp15
 70
     1
102
RTVSPropertyOp16
 70
     1
102
RTVSPropertyOp17
 70
     1
102
RTVSPropertyOp18
 70
     1
102
RTVSPropertyOp19
 70
     1
102
RTVSPropertyOp20
 70
     1
102
RTVSPropertyOp21
 70
     1
102
RTVSPropertyOp22
 70
     1
102
RTVSPropertyOp23
 70
     1
102
RTVSPropertyOp24
 70
     1
102
RTVSPropertyOp25
 70
     1
102
RTVSPropertyOp26
 70
     1
102
RTVSPropertyOp27
 70
     1
102
RTVSPropertyOp28
 70
     1
102
RTVSPropertyOp29
 70
     1
102
RTVSPropertyOp30
 70
     1
102
RTVSPropertyOp31
 70
     1
102
RTVSPropertyOp32
 70
     1
102
RTVSPropertyOp33
 70
     1
102
RTVSPropertyOp34
 70
     1
102
RTVSPropertyOp35
 70
     1
102
RTVSPropertyOp36
 70
     1
102
RTVSPropertyOp37
 70
     1
102
RTVSPropertyOp38
 70
     1
102
RTVSPropertyOp39
 70
     1
102
RTVSPropertyOp40
 70
     1
102
RTVSPropertyOp41
 70
     1
102
RTVSPropertyOp42
 70
     1
102
RTVSPropertyOp43
 70
     1
102
RTVSPropertyOp44
 70
     1
102
RTVSPropertyOp45
 70
     1
102
RTVSPropertyOp46
 70
     1
102
RTVSPropertyOp47
 70
     1
102
RTVSPropertyOp48
 70
     1
102
RTVSPropertyOp49
 70
     1
102
RTVSPropertyOp50
 70
     1
102
RTVSPropertyOp51
 70
     0
102
RTVSPropertyOp52
 70
     0
102
RTVSPropertyOp53
 70
     1
102
RTVSPropertyOp54
 70
     1
102
RTVSPropertyOp55
 70
     1
102
RTVSPropertyOp56
 70
     1
102
RTVSPropertyOp57
 70
     1
102
RTVSPropertyOp58
 70
     1
102
RTVSPropertyOp59
 70
     1
102
RTVSPropertyOp60
 70
     1
102
RTVSPropertyOp61
 70
     1
102
RTVSPropertyOp62
 70
     1
  0
XRECORD
  5
1000208
102
{ACAD_REACTORS
330
1000207
102
}
330
1000207
100
AcDbXrecord
280
     1
102
RTVSPost2010Prop28
280
     0
102
RTVSPost2010PropOp28
 70
     1
102
RTVSPost2010Prop29
280
     1
102
RTVSPost2010PropOp29
 70
     1
102
RTVSPost2010Prop30
280
     1
102
RTVSPost2010PropOp30
 70
     1
102
RTVSPost2010Prop31
280
     0
102
RTVSPost2010PropOp31
 70
     1
102
RTVSPost2010Prop32
280
     0
102
RTVSPost2010PropOp32
 70
     1
102
RTVSPost2010Prop33
280
     0
102
RTVSPost2010PropOp33
 70
     1
102
RTVSPost2010Prop34
280
     0
102
RTVSPost2010PropOp34
 70
     1
102
RTVSPost2010Prop35
280
     0
102
RTVSPost2010PropOp35
 70
     1
102
RTVSPost2010Prop36
280
     0
102
RTVSPost2010PropOp36
 70
     1
102
RTVSPost2010Prop37
 90
       50
102
RTVSPost2010PropOp37
 70
     1
102
RTVSPost2010Prop38
140
0.0
102
RTVSPost2010PropOp38
 70
     1
102
RTVSPost2010Prop39
140
1.0
102
RTVSPost2010PropOp39
 70
     1
102
RTVSPost2010Prop40
 90
        0
102
RTVSPost2010PropOp40
 70
     1
102
RTVSPost2010Prop41ColorIndex
 90
       18
102
RTVSPost2010Prop41ColorRGB
 90
        0
102
RTVSPost2010PropOp41
 70
     1
102
RTVSPost2010Prop42
 90
       50
102
RTVSPost2010PropOp42
 70
     1
102
RTVSPost2010Prop43
 90
        3
102
RTVSPost2010PropOp43
 70
     1
102
RTVSPost2010Prop44ColorIndex
 90
        5
102
RTVSPost2010Prop44ColorRGB
 90
      255
102
RTVSPost2010PropOp44
 70
     1
102
RTVSPost2010Prop45
280
     0
102
RTVSPost2010PropOp45
 70
     1
102
RTVSPost2010Prop46
 90
       50
102
RTVSPost2010PropOp46
 70
     1
102
RTVSPost2010Prop47
 90
       50
102
RTVSPost2010PropOp47
 70
     1
102
RTVSPost2010Prop48
 90
       50
102
RTVSPost2010PropOp48
 70
     1
102
RTVSPost2010Prop49
280
     0
102
RTVSPost2010PropOp49
 70
     1
102
RTVSPost2010Prop50
 90
       50
102
RTVSPost2010PropOp50
 70
     1
102
RTVSPost2010Prop51ColorIndex
 90
      256
102
RTVSPost2010Prop51ColorRGB
 90
-16777216
102
RTVSPost2010PropOp51
 70
     0
102
RTVSPost2010Prop52
140
1.0
102
RTVSPost2010PropOp52
 70
     0
102
RTVSPost2010Prop53
 90
        2
102
RTVSPost2010PropOp53
 70
     1
102
RTVSPost2010Prop54
  1
strokes_ogs.tif
102
RTVSPost2010PropOp54
 70
     1
102
RTVSPost2010Prop55
280
     0
102
RTVSPost2010PropOp55
 70
     1
102
RTVSPost2010Prop56
140
1.0
102
RTVSPost2010PropOp56
 70
     1
102
RTVSPost2010Prop57
140
1.0
102
RTVSPost2010PropOp57
 70
     1
102
RTVSPropertyOp0
 70
     1
102
RTVSPropertyOp1
 70
     1
102
RTVSPropertyOp2
 70
     1
102
RTVSPropertyOp3
 70
     1
102
RTVSPropertyOp4
 70
     1
102
RTVSPropertyOp5
 70
     1
102
RTVSPropertyOp6
 70
     1
102
RTVSPropertyOp7
 70
     1
102
RTVSPropertyOp8
 70
     1
102
RTVSPropertyOp9
 70
     1
102
RTVSPropertyOp10
 70
     1
102
RTVSPropertyOp11
 70
     1
102
RTVSPropertyOp12
 70
     1
102
RTVSPropertyOp13
 70
     1
102
RTVSPropertyOp14
 70
     1
102
RTVSPropertyOp15
 70
     1
102
RTVSPropertyOp16
 70
     1
102
RTVSPropertyOp17
 70
     1
102
RTVSPropertyOp18
 70
     1
102
RTVSPropertyOp19
 70
     1
102
RTVSPropertyOp20
 70
     1
102
RTVSPropertyOp21
 70
     1
102
RTVSPropertyOp22
 70
     1
102
RTVSPropertyOp23
 70
     1
102
RTVSPropertyOp24
 70
     1
102
RTVSPropertyOp25
 70
     1
102
RTVSPropertyOp26
 70
     1
102
RTVSPropertyOp27
 70
     1
102
RTVSPropertyOp28
 70
     1
102
RTVSPropertyOp29
 70
     1
102
RTVSPropertyOp30
 70
     1
102
RTVSPropertyOp31
 70
     1
102
RTVSPropertyOp32
 70
     1
102
RTVSPropertyOp33
 70
     1
102
RTVSPropertyOp34
 70
     1
102
RTVSPropertyOp35
 70
     1
102
RTVSPropertyOp36
 70
     1
102
RTVSPropertyOp37
 70
     1
102
RTVSPropertyOp38
 70
     1
102
RTVSPropertyOp39
 70
     1
102
RTVSPropertyOp40
 70
     1
102
RTVSPropertyOp41
 70
     1
102
RTVSPropertyOp42
 70
     1
102
RTVSPropertyOp43
 70
     1
102
RTVSPropertyOp44
 70
     1
102
RTVSPropertyOp45
 70
     1
102
RTVSPropertyOp46
 70
     1
102
RTVSPropertyOp47
 70
     1
102
RTVSPropertyOp48
 70
     1
102
RTVSPropertyOp49
 70
     1
102
RTVSPropertyOp50
 70
     1
102
RTVSPropertyOp51
 70
     0
102
RTVSPropertyOp52
 70
     0
102
RTVSPropertyOp53
 70
     1
102
RTVSPropertyOp54
 70
     1
102
RTVSPropertyOp55
 70
     1
102
RTVSPropertyOp56
 70
     1
102
RTVSPropertyOp57
 70
     1
102
RTVSPropertyOp58
 70
     1
102
RTVSPropertyOp59
 70
     1
102
RTVSPropertyOp60
 70
     1
102
RTVSPropertyOp61
 70
     1
102
RTVSPropertyOp62
 70
     1
  0
XRECORD
  5
1000220
102
{ACAD_REACTORS
330
100021F
102
}
330
100021F
100
AcDbXrecord
280
     1
102
RTVSPost2010Prop28
280
     0
102
RTVSPost2010PropOp28
 70
     1
102
RTVSPost2010Prop29
280
     1
102
RTVSPost2010PropOp29
 70
     1
102
RTVSPost2010Prop30
280
     1
102
RTVSPost2010PropOp30
 70
     1
102
RTVSPost2010Prop31
280
     0
102
RTVSPost2010PropOp31
 70
     1
102
RTVSPost2010Prop32
280
     0
102
RTVSPost2010PropOp32
 70
     1
102
RTVSPost2010Prop33
280
     0
102
RTVSPost2010PropOp33
 70
     1
102
RTVSPost2010Prop34
280
     0
102
RTVSPost2010PropOp34
 70
     1
102
RTVSPost2010Prop35
280
     0
102
RTVSPost2010PropOp35
 70
     1
102
RTVSPost2010Prop36
280
     0
102
RTVSPost2010PropOp36
 70
     1
102
RTVSPost2010Prop37
 90
       50
102
RTVSPost2010PropOp37
 70
     1
102
RTVSPost2010Prop38
140
0.0
102
RTVSPost2010PropOp38
 70
     1
102
RTVSPost2010Prop39
140
1.0
102
RTVSPost2010PropOp39
 70
     1
102
RTVSPost2010Prop40
 90
        0
102
RTVSPost2010PropOp40
 70
     1
102
RTVSPost2010Prop41ColorIndex
 90
       18
102
RTVSPost2010Prop41ColorRGB
 90
        0
102
RTVSPost2010PropOp41
 70
     1
102
RTVSPost2010Prop42
 90
       50
102
RTVSPost2010PropOp42
 70
     1
102
RTVSPost2010Prop43
 90
        3
102
RTVSPost2010PropOp43
 70
     1
102
RTVSPost2010Prop44ColorIndex
 90
        5
102
RTVSPost2010Prop44ColorRGB
 90
      255
102
RTVSPost2010PropOp44
 70
     1
102
RTVSPost2010Prop45
280
     0
102
RTVSPost2010PropOp45
 70
     1
102
RTVSPost2010Prop46
 90
       50
102
RTVSPost2010PropOp46
 70
     1
102
RTVSPost2010Prop47
 90
       50
102
RTVSPost2010PropOp47
 70
     1
102
RTVSPost2010Prop48
 90
       50
102
RTVSPost2010PropOp48
 70
     1
102
RTVSPost2010Prop49
280
     0
102
RTVSPost2010PropOp49
 70
     1
102
RTVSPost2010Prop50
 90
       50
102
RTVSPost2010PropOp50
 70
     1
102
RTVSPost2010Prop51ColorIndex
 90
      256
102
RTVSPost2010Prop51ColorRGB
 90
-16777216
102
RTVSPost2010PropOp51
 70
     0
102
RTVSPost2010Prop52
140
1.0
102
RTVSPost2010PropOp52
 70
     0
102
RTVSPost2010Prop53
 90
        2
102
RTVSPost2010PropOp53
 70
     1
102
RTVSPost2010Prop54
  1
strokes_ogs.tif
102
RTVSPost2010PropOp54
 70
     1
102
RTVSPost2010Prop55
280
     0
102
RTVSPost2010PropOp55
 70
     1
102
RTVSPost2010Prop56
140
1.0
102
RTVSPost2010PropOp56
 70
     1
102
RTVSPost2010Prop57
140
1.0
102
RTVSPost2010PropOp57
 70
     1
102
RTVSPropertyOp0
 70
     1
102
RTVSPropertyOp1
 70
     1
102
RTVSPropertyOp2
 70
     1
102
RTVSPropertyOp3
 70
     1
102
RTVSPropertyOp4
 70
     1
102
RTVSPropertyOp5
 70
     1
102
RTVSPropertyOp6
 70
     1
102
RTVSPropertyOp7
 70
     1
102
RTVSPropertyOp8
 70
     1
102
RTVSPropertyOp9
 70
     1
102
RTVSPropertyOp10
 70
     1
102
RTVSPropertyOp11
 70
     1
102
RTVSPropertyOp12
 70
     1
102
RTVSPropertyOp13
 70
     1
102
RTVSPropertyOp14
 70
     1
102
RTVSPropertyOp15
 70
     1
102
RTVSPropertyOp16
 70
     1
102
RTVSPropertyOp17
 70
     1
102
RTVSPropertyOp18
 70
     1
102
RTVSPropertyOp19
 70
     1
102
RTVSPropertyOp20
 70
     1
102
RTVSPropertyOp21
 70
     1
102
RTVSPropertyOp22
 70
     1
102
RTVSPropertyOp23
 70
     1
102
RTVSPropertyOp24
 70
     1
102
RTVSPropertyOp25
 70
     1
102
RTVSPropertyOp26
 70
     1
102
RTVSPropertyOp27
 70
     1
102
RTVSPropertyOp28
 70
     1
102
RTVSPropertyOp29
 70
     1
102
RTVSPropertyOp30
 70
     1
102
RTVSPropertyOp31
 70
     1
102
RTVSPropertyOp32
 70
     1
102
RTVSPropertyOp33
 70
     1
102
RTVSPropertyOp34
 70
     1
102
RTVSPropertyOp35
 70
     1
102
RTVSPropertyOp36
 70
     1
102
RTVSPropertyOp37
 70
     1
102
RTVSPropertyOp38
 70
     1
102
RTVSPropertyOp39
 70
     1
102
RTVSPropertyOp40
 70
     1
102
RTVSPropertyOp41
 70
     1
102
RTVSPropertyOp42
 70
     1
102
RTVSPropertyOp43
 70
     1
102
RTVSPropertyOp44
 70
     1
102
RTVSPropertyOp45
 70
     1
102
RTVSPropertyOp46
 70
     1
102
RTVSPropertyOp47
 70
     1
102
RTVSPropertyOp48
 70
     1
102
RTVSPropertyOp49
 70
     1
102
RTVSPropertyOp50
 70
     1
102
RTVSPropertyOp51
 70
     0
102
RTVSPropertyOp52
 70
     0
102
RTVSPropertyOp53
 70
     1
102
RTVSPropertyOp54
 70
     1
102
RTVSPropertyOp55
 70
     1
102
RTVSPropertyOp56
 70
     1
102
RTVSPropertyOp57
 70
     1
102
RTVSPropertyOp58
 70
     1
102
RTVSPropertyOp59
 70
     1
102
RTVSPropertyOp60
 70
     1
102
RTVSPropertyOp61
 70
     1
102
RTVSPropertyOp62
 70
     1
  0
ENDSEC
  0
EOF
