  0
SECTION
  2
HEADER
  9
$ACADVER
  1
AC1018
  9
$HANDSEED
  5
FFFFFF
  9
$EXTMAX
 10
7561192.50999999978
 20
5722606.78000000026
 30
1000000.00
  9
$EXTMIN
 10
7560544.91999999992
 20
5722093.16000000015
 30
0.00
  9
$LIMMIN
 10
7560544.91999999992
 20
5722093.16000000015
  9
$LIMMAX
 10
7561192.50999999978
 20
5722606.78000000026
  9
$DIMASZ
 40
2.5
  9
$DIMGAP
 40
0.625
  9
$INSUNITS
 70
6
  9
$DIMEXO
 40
0.625
  9
$DIMTXT
 40
2.5
  9
$DIMSTYLE
  2
Standard
  9
$PLIMMIN
 10
0.0
 20
0.0
  9
$PLIMMAX
 10
210.0
 20
297.0
  9
$DIMEXE
 40
1.25
  9
$TEXTSIZE
 40
2.5
  9
$TEXTSTYLE
  7
Standard
  9
$LWDISPLAY
290
1
  9
$TDCREATE
 40
44615.519643657
  9
$TDUCREATE
 40
44615.477976991
  9
$TDUPDATE
 40
44615.519643657
  9
$TDUUPDATE
 40
44615.477976991
  9
$TDINDWG
 40
0.0
  9
$TDUSRTIMER
 40
0.0
  9
$USRTIMER
 70
1
  0
ENDSEC
  0
SECTION
  2
CLASSES
  0
CLASS
  1
WIPEOUT
  2
AcDbWipeout
  3
WipeOut
 90
127
 91
1
280
0
281
1
  0
CLASS
  1
WIPEOUTVARIABLES
  2
AcDbWipeoutVariables
  3
WipeOut
 90
0
 91
1
280
0
281
0
  0
ENDSEC
  0
SECTION
  2
TABLES
  0
TABLE
  2
VPORT
  5
1
100
AcDbSymbolTable
 70
1
  0
VPORT
  5
2
100
AcDbSymbolTableRecord
100
AcDbViewportTableRecord
  2
*ACTIVE
 70
0
 10
0.0
 20
0.0
 11
1.0
 21
1.0
 12
7560868.71
 22
5722349.97
 13
0.0
 23
0.0
 14
1.0
 24
1.0
 15
0.0
 25
0.0
 16
0.0
 26
0.0
 36
1.0
 17
0.0
 27
0.0
 37
0.0
 40
513.62
 41
1.26
 42
50.0
 43
0.0
 44
0.0
 50
0.0
 51
0.0
 71
0
 72
100
 73
1
 74
1
 75
0
 76
0
 77
0
 78
0
  0
ENDTAB
  0
TABLE
  2
LTYPE
  5
3
100
AcDbSymbolTable
 70
3
  0
LTYPE
  5
4
100
AcDbSymbolTableRecord
100
AcDbLinetypeTableRecord
  2
ByBlock
 70
0
  3

 72
65
 73
0
 40
0.0
  0
LTYPE
  5
5
100
AcDbSymbolTableRecord
100
AcDbLinetypeTableRecord
  2
ByLayer
 70
0
  3

 72
65
 73
0
 40
0.0
  0
LTYPE
  5
6
100
AcDbSymbolTableRecord
100
AcDbLinetypeTableRecord
  2
CONTINUOUS
 70
0
  3
Solid line
 72
65
 73
0
 40
0.0
  0
LTYPE
  5
8
100
AcDbSymbolTableRecord
100
AcDbLinetypeTableRecord
  2
L_0_02
 70
0
  3
Dzialka_ewidencyjna (MLineStyle)
 72
65
 73
0
 40
0.0
  0
LTYPE
  5
9
100
AcDbSymbolTableRecord
100
AcDbLinetypeTableRecord
  2
L_0_03
 70
0
  3
Uzytek_gruntowy
 72
65
 73
2
 40
1.0
 49
0.5
 74
0
 49
-0.5
 74
0
  0
LTYPE
  5
A
100
AcDbSymbolTableRecord
100
AcDbLinetypeTableRecord
  2
L_0_04
 70
0
  3
Budynek_projektowany
 72
65
 73
2
 40
1.5
 49
1.0
 74
0
 49
-0.5
 74
0
  0
LTYPE
  5
B
100
AcDbSymbolTableRecord
100
AcDbLinetypeTableRecord
  2
L_0_06
 70
0
  3
Granica_konturu_klasyfikacyjnego_Krawedz_chodnika
 72
65
 73
2
 40
2.0
 49
1.5
 74
0
 49
-0.5
 74
0
  0
LTYPE
  5
D
100
AcDbSymbolTableRecord
100
AcDbLinetypeTableRecord
  2
L_0_E3_00
 70
0
  3
Budynek_w_budowie_dla_MZ2015_1_500___1_1000
 72
65
 73
3
 40
1.5
 49
0.0
 74
0
 49
1.0
 74
0
 49
-0.5
 74
0
  0
LTYPE
  5
E
100
AcDbSymbolTableRecord
100
AcDbLinetypeTableRecord
  2
L_0_E3
 70
0
  3
Budynek_w_budowie_dla_MZ2015_1_500___1_1000 (MLineStyle)
 72
65
 73
0
 40
0.0
  0
ENDTAB
  0
TABLE
  2
LAYER
  5
F
100
AcDbSymbolTable
 70
2
  0
LAYER
  5
10
100
AcDbSymbolTableRecord
100
AcDbLayerTableRecord
  2
0
 70
0
 62
7
  6
CONTINUOUS
370
18
390
11
  0
LAYER
  5
12
100
AcDbSymbolTableRecord
100
AcDbLayerTableRecord
  2
ewns_dzialki
 70
0
 62
7
  6
CONTINUOUS
370
18
390
11
  0
ENDTAB
  0
TABLE
  2
STYLE
  5
13
100
AcDbSymbolTable
 70
2
  0
STYLE
  5
14
100
AcDbSymbolTableRecord
100
AcDbTextStyleTableRecord
  2
STANDARD
 70
0
 40
0.0
 41
1.0
 50
0.0
 71
0
  3
simplex.shx
  4

  0
STYLE
  5
15
100
AcDbSymbolTableRecord
100
AcDbTextStyleTableRecord
  2
STANDARD_ITALIC
 70
0
 40
0.0
 41
1.0
 50
15.0
 71
0
  3
simplex.shx
  4

  0
ENDTAB
  0
TABLE
  2
VIEW
  5
16
100
AcDbSymbolTable
 70
0
  0
ENDTAB
  0
TABLE
  2
UCS
  5
17
100
AcDbSymbolTable
 70
0
  0
ENDTAB
  0
TABLE
  2
APPID
  5
18
100
AcDbSymbolTable
 70
1
  0
APPID
  5
19
100
AcDbSymbolTableRecord
100
AcDbRegAppTableRecord
  2
ACAD
 70
0
  0
ENDTAB
  0
TABLE
  2
DIMSTYLE
  5
1A
100
AcDbSymbolTable
 70
1
100
AcDbDimStyleTable
  0
DIMSTYLE
105
1B
100
AcDbSymbolTableRecord
100
AcDbDimStyleTableRecord
  2
Standard
 70
0
340
14
  0
ENDTAB
  0
TABLE
  2
BLOCK_RECORD
  5
1C
100
AcDbSymbolTable
 70
4
  0
BLOCK_RECORD
  5
1D
100
AcDbSymbolTableRecord
100
AcDbBlockTableRecord
  2
*Model_Space
340
1E
  0
BLOCK_RECORD
  5
1F
100
AcDbSymbolTableRecord
100
AcDbBlockTableRecord
  2
*Paper_Space
340
20
  0
BLOCK_RECORD
  5
21
100
AcDbSymbolTableRecord
100
AcDbBlockTableRecord
  2
L_0_02_1
340
22
  0
BLOCK_RECORD
  5
23
100
AcDbSymbolTableRecord
100
AcDbBlockTableRecord
  2
L_0_02_2
340
24
  0
ENDTAB
  0
ENDSEC
  0
SECTION
  2
BLOCKS
  0
BLOCK
  5
25
100
AcDbEntity
  8
0
100
AcDbBlockBegin
  2
*Model_Space
 70
0
 10
0.0
 20
0.0
 30
0.0
  3
*Model_Space
  1

  0
ENDBLK
  5
26
100
AcDbEntity
  8
0
100
AcDbBlockEnd
  0
BLOCK
  5
27
100
AcDbEntity
 67
1
  8
0
100
AcDbBlockBegin
  2
*Paper_Space
 70
0
 10
0.0
 20
0.0
 30
0.0
  3
*Paper_Space
  1

  0
ENDBLK
  5
28
100
AcDbEntity
 67
1
  8
0
100
AcDbBlockEnd
  0
BLOCK
  5
22
100
AcDbEntity
  8
0
100
AcDbBlockBegin
 62
0
370
13
  2
L_0_02_1
 70
0
 10
0
 20
0
 30
0
  3
L_0_02_1
  0
POINT
  5
29
100
AcDbEntity
  8
0
100
AcDbPoint
 62
0
 10
0.0
 20
0.0
 30
0.000
  0
ENDBLK
  5
2A
100
AcDbEntity
  8
0
100
AcDbBlockEnd
  0
BLOCK
  5
24
100
AcDbEntity
  8
0
100
AcDbBlockBegin
 62
0
370
13
  2
L_0_02_2
 70
0
 10
0
 20
0
 30
0
  3
L_0_02_2
  0
POINT
  5
2B
100
AcDbEntity
  8
0
100
AcDbPoint
 62
0
 10
-0.0
 20
-0.0
 30
0.000
  0
ENDBLK
  5
2C
100
AcDbEntity
  8
0
100
AcDbBlockEnd
  0
ENDSEC
  0
SECTION
  2
ENTITIES
  0
POLYLINE
  5
2D
100
AcDbEntity
  8
ewns_dzialki
  6
CONTINUOUS
370
18
100
AcDb2dPolyline
 66
1
 70
128
  0
VERTEX
  5
2E
100
AcDbEntity
  8
ewns_dzialki
100
AcDbVertex
100
AcDb2dVertex
 10
7560746.45999999996
 20
5722606.78000000026
  0
VERTEX
  5
2F
100
AcDbEntity
  8
ewns_dzialki
100
AcDbVertex
100
AcDb2dVertex
 10
7560880.91000000015
 20
5722431.59999999963
  0
SEQEND
  5
30
100
AcDbEntity
  8
ewns_dzialki
  0
POLYLINE
  5
31
100
AcDbEntity
  8
ewns_dzialki
  6
CONTINUOUS
370
18
100
AcDb2dPolyline
 66
1
 70
128
  0
VERTEX
  5
32
100
AcDbEntity
  8
ewns_dzialki
100
AcDbVertex
100
AcDb2dVertex
 10
7560880.91000000015
 20
5722431.59999999963
  0
VERTEX
  5
33
100
AcDbEntity
  8
ewns_dzialki
100
AcDbVertex
100
AcDb2dVertex
 10
7560857.53000000026
 20
5722412.9299999997
  0
SEQEND
  5
34
100
AcDbEntity
  8
ewns_dzialki
  0
POLYLINE
  5
35
100
AcDbEntity
  8
ewns_dzialki
  6
CONTINUOUS
370
18
100
AcDb2dPolyline
 66
1
 70
128
  0
VERTEX
  5
36
100
AcDbEntity
  8
ewns_dzialki
100
AcDbVertex
100
AcDb2dVertex
 10
7560857.53000000026
 20
5722412.9299999997
  0
VERTEX
  5
37
100
AcDbEntity
  8
ewns_dzialki
100
AcDbVertex
100
AcDb2dVertex
 10
7560846.71999999974
 20
5722406.75999999978
  0
SEQEND
  5
38
100
AcDbEntity
  8
ewns_dzialki
  0
POLYLINE
  5
39
100
AcDbEntity
  8
ewns_dzialki
  6
CONTINUOUS
370
18
100
AcDb2dPolyline
 66
1
 70
128
  0
VERTEX
  5
3A
100
AcDbEntity
  8
ewns_dzialki
100
AcDbVertex
100
AcDb2dVertex
 10
7560846.71999999974
 20
5722406.75999999978
  0
VERTEX
  5
3B
100
AcDbEntity
  8
ewns_dzialki
100
AcDbVertex
100
AcDb2dVertex
 10
7560824.91000000015
 20
5722396.91999999993
  0
SEQEND
  5
3C
100
AcDbEntity
  8
ewns_dzialki
  0
POLYLINE
  5
3D
100
AcDbEntity
  8
ewns_dzialki
  6
CONTINUOUS
370
18
100
AcDb2dPolyline
 66
1
 70
128
  0
VERTEX
  5
3E
100
AcDbEntity
  8
ewns_dzialki
100
AcDbVertex
100
AcDb2dVertex
 10
7560824.91000000015
 20
5722396.91999999993
  0
VERTEX
  5
3F
100
AcDbEntity
  8
ewns_dzialki
100
AcDbVertex
100
AcDb2dVertex
 10
7560816.83000000008
 20
5722377.1799999997
  0
SEQEND
  5
40
100
AcDbEntity
  8
ewns_dzialki
  0
POLYLINE
  5
41
100
AcDbEntity
  8
ewns_dzialki
  6
CONTINUOUS
370
18
100
AcDb2dPolyline
 66
1
 70
128
  0
VERTEX
  5
42
100
AcDbEntity
  8
ewns_dzialki
100
AcDbVertex
100
AcDb2dVertex
 10
7560816.83000000008
 20
5722377.1799999997
  0
VERTEX
  5
43
100
AcDbEntity
  8
ewns_dzialki
100
AcDbVertex
100
AcDb2dVertex
 10
7560809.55999999959
 20
5722363.49000000022
  0
SEQEND
  5
44
100
AcDbEntity
  8
ewns_dzialki
  0
POLYLINE
  5
45
100
AcDbEntity
  8
ewns_dzialki
  6
CONTINUOUS
370
18
100
AcDb2dPolyline
 66
1
 70
128
  0
VERTEX
  5
46
100
AcDbEntity
  8
ewns_dzialki
100
AcDbVertex
100
AcDb2dVertex
 10
7560809.55999999959
 20
5722363.49000000022
  0
VERTEX
  5
47
100
AcDbEntity
  8
ewns_dzialki
100
AcDbVertex
100
AcDb2dVertex
 10
7560782.04999999981
 20
5722345.58999999985
  0
SEQEND
  5
48
100
AcDbEntity
  8
ewns_dzialki
  0
POLYLINE
  5
49
100
AcDbEntity
  8
ewns_dzialki
  6
CONTINUOUS
370
18
100
AcDb2dPolyline
 66
1
 70
128
  0
VERTEX
  5
4A
100
AcDbEntity
  8
ewns_dzialki
100
AcDbVertex
100
AcDb2dVertex
 10
7560782.04999999981
 20
5722345.58999999985
  0
VERTEX
  5
4B
100
AcDbEntity
  8
ewns_dzialki
100
AcDbVertex
100
AcDb2dVertex
 10
7560769.79999999981
 20
5722361.15000000037
  0
SEQEND
  5
4C
100
AcDbEntity
  8
ewns_dzialki
  0
POLYLINE
  5
4D
100
AcDbEntity
  8
ewns_dzialki
  6
CONTINUOUS
370
18
100
AcDb2dPolyline
 66
1
 70
128
  0
VERTEX
  5
4E
100
AcDbEntity
  8
ewns_dzialki
100
AcDbVertex
100
AcDb2dVertex
 10
7560769.79999999981
 20
5722361.15000000037
  0
VERTEX
  5
4F
100
AcDbEntity
  8
ewns_dzialki
100
AcDbVertex
100
AcDb2dVertex
 10
7560756.71999999974
 20
5722378.25
  0
SEQEND
  5
50
100
AcDbEntity
  8
ewns_dzialki
  0
POLYLINE
  5
51
100
AcDbEntity
  8
ewns_dzialki
  6
CONTINUOUS
370
18
100
AcDb2dPolyline
 66
1
 70
128
  0
VERTEX
  5
52
100
AcDbEntity
  8
ewns_dzialki
100
AcDbVertex
100
AcDb2dVertex
 10
7560756.71999999974
 20
5722378.25
  0
VERTEX
  5
53
100
AcDbEntity
  8
ewns_dzialki
100
AcDbVertex
100
AcDb2dVertex
 10
7560744.91999999993
 20
5722393.55999999959
  0
SEQEND
  5
54
100
AcDbEntity
  8
ewns_dzialki
  0
POLYLINE
  5
55
100
AcDbEntity
  8
ewns_dzialki
  6
CONTINUOUS
370
18
100
AcDb2dPolyline
 66
1
 70
128
  0
VERTEX
  5
56
100
AcDbEntity
  8
ewns_dzialki
100
AcDbVertex
100
AcDb2dVertex
 10
7560744.91999999993
 20
5722393.55999999959
  0
VERTEX
  5
57
100
AcDbEntity
  8
ewns_dzialki
100
AcDbVertex
100
AcDb2dVertex
 10
7560707.50999999978
 20
5722441.96999999974
  0
SEQEND
  5
58
100
AcDbEntity
  8
ewns_dzialki
  0
POLYLINE
  5
59
100
AcDbEntity
  8
ewns_dzialki
  6
CONTINUOUS
370
18
100
AcDb2dPolyline
 66
1
 70
128
  0
VERTEX
  5
5A
100
AcDbEntity
  8
ewns_dzialki
100
AcDbVertex
100
AcDb2dVertex
 10
7560707.50999999978
 20
5722441.96999999974
  0
VERTEX
  5
5B
100
AcDbEntity
  8
ewns_dzialki
100
AcDbVertex
100
AcDb2dVertex
 10
7560689.41999999993
 20
5722464.95000000019
  0
SEQEND
  5
5C
100
AcDbEntity
  8
ewns_dzialki
  0
POLYLINE
  5
5D
100
AcDbEntity
  8
ewns_dzialki
  6
CONTINUOUS
370
18
100
AcDb2dPolyline
 66
1
 70
128
  0
VERTEX
  5
5E
100
AcDbEntity
  8
ewns_dzialki
100
AcDbVertex
100
AcDb2dVertex
 10
7560689.41999999993
 20
5722464.95000000019
  0
VERTEX
  5
5F
100
AcDbEntity
  8
ewns_dzialki
100
AcDbVertex
100
AcDb2dVertex
 10
7560654.48000000045
 20
5722511.0700000003
  0
SEQEND
  5
60
100
AcDbEntity
  8
ewns_dzialki
  0
POLYLINE
  5
61
100
AcDbEntity
  8
ewns_dzialki
  6
CONTINUOUS
370
18
100
AcDb2dPolyline
 66
1
 70
128
  0
VERTEX
  5
62
100
AcDbEntity
  8
ewns_dzialki
100
AcDbVertex
100
AcDb2dVertex
 10
7560654.48000000045
 20
5722511.0700000003
  0
VERTEX
  5
63
100
AcDbEntity
  8
ewns_dzialki
100
AcDbVertex
100
AcDb2dVertex
 10
7560637.26999999955
 20
5722533.50999999978
  0
SEQEND
  5
64
100
AcDbEntity
  8
ewns_dzialki
  0
POLYLINE
  5
65
100
AcDbEntity
  8
ewns_dzialki
  6
CONTINUOUS
370
18
100
AcDb2dPolyline
 66
1
 70
128
  0
VERTEX
  5
66
100
AcDbEntity
  8
ewns_dzialki
100
AcDbVertex
100
AcDb2dVertex
 10
7560637.26999999955
 20
5722533.50999999978
  0
VERTEX
  5
67
100
AcDbEntity
  8
ewns_dzialki
100
AcDbVertex
100
AcDb2dVertex
 10
7560746.45999999996
 20
5722606.78000000026
  0
SEQEND
  5
68
100
AcDbEntity
  8
ewns_dzialki
  0
POLYLINE
  5
69
100
AcDbEntity
  8
ewns_dzialki
  6
CONTINUOUS
370
18
100
AcDb2dPolyline
 66
1
 70
129
  0
VERTEX
  5
6A
100
AcDbEntity
  8
ewns_dzialki
100
AcDbVertex
100
AcDb2dVertex
 10
7560607.66999999993
 20
5722479.44000000041
  0
VERTEX
  5
6B
100
AcDbEntity
  8
ewns_dzialki
100
AcDbVertex
100
AcDb2dVertex
 10
7560562.08999999985
 20
5722448.65000000037
  0
VERTEX
  5
6C
100
AcDbEntity
  8
ewns_dzialki
100
AcDbVertex
100
AcDb2dVertex
 10
7560544.91999999992
 20
5722471.54999999981
  0
VERTEX
  5
6D
100
AcDbEntity
  8
ewns_dzialki
100
AcDbVertex
100
AcDb2dVertex
 10
7560553.54000000004
 20
5722477.36000000034
  0
VERTEX
  5
6E
100
AcDbEntity
  8
ewns_dzialki
100
AcDbVertex
100
AcDb2dVertex
 10
7560590.55999999959
 20
5722502.16999999993
  0
SEQEND
  5
6F
100
AcDbEntity
  8
ewns_dzialki
  0
POLYLINE
  5
70
100
AcDbEntity
  8
ewns_dzialki
  6
CONTINUOUS
370
18
100
AcDb2dPolyline
 66
1
 70
129
  0
VERTEX
  5
71
100
AcDbEntity
  8
ewns_dzialki
100
AcDbVertex
100
AcDb2dVertex
 10
7560637.26999999955
 20
5722533.50999999978
  0
VERTEX
  5
72
100
AcDbEntity
  8
ewns_dzialki
100
AcDbVertex
100
AcDb2dVertex
 10
7560654.48000000045
 20
5722511.0700000003
  0
VERTEX
  5
73
100
AcDbEntity
  8
ewns_dzialki
100
AcDbVertex
100
AcDb2dVertex
 10
7560607.66999999993
 20
5722479.44000000041
  0
VERTEX
  5
74
100
AcDbEntity
  8
ewns_dzialki
100
AcDbVertex
100
AcDb2dVertex
 10
7560590.55999999959
 20
5722502.16999999993
  0
SEQEND
  5
75
100
AcDbEntity
  8
ewns_dzialki
  0
POLYLINE
  5
76
100
AcDbEntity
  8
ewns_dzialki
  6
CONTINUOUS
370
18
100
AcDb2dPolyline
 66
1
 70
129
  0
VERTEX
  5
77
100
AcDbEntity
  8
ewns_dzialki
100
AcDbVertex
100
AcDb2dVertex
 10
7561040.12000000011
 20
5722324.86000000034
  0
VERTEX
  5
78
100
AcDbEntity
  8
ewns_dzialki
100
AcDbVertex
100
AcDb2dVertex
 10
7561032.03000000026
 20
5722319.88999999966
  0
VERTEX
  5
79
100
AcDbEntity
  8
ewns_dzialki
100
AcDbVertex
100
AcDb2dVertex
 10
7560948.33999999985
 20
5722403.12999999989
  0
VERTEX
  5
7A
100
AcDbEntity
  8
ewns_dzialki
100
AcDbVertex
100
AcDb2dVertex
 10
7560898.75
 20
5722449.45999999996
  0
VERTEX
  5
7B
100
AcDbEntity
  8
ewns_dzialki
100
AcDbVertex
100
AcDb2dVertex
 10
7560904.13999999966
 20
5722455.34999999963
  0
VERTEX
  5
7C
100
AcDbEntity
  8
ewns_dzialki
100
AcDbVertex
100
AcDb2dVertex
 10
7560954.16000000015
 20
5722408.74000000022
  0
SEQEND
  5
7D
100
AcDbEntity
  8
ewns_dzialki
  0
POLYLINE
  5
7E
100
AcDbEntity
  8
ewns_dzialki
  6
CONTINUOUS
370
18
100
AcDb2dPolyline
 66
1
 70
129
  0
VERTEX
  5
7F
100
AcDbEntity
  8
ewns_dzialki
100
AcDbVertex
100
AcDb2dVertex
 10
7560827.00999999978
 20
5722345.58000000007
  0
VERTEX
  5
80
100
AcDbEntity
  8
ewns_dzialki
100
AcDbVertex
100
AcDb2dVertex
 10
7560877.5
 20
5722294.53000000026
  0
VERTEX
  5
81
100
AcDbEntity
  8
ewns_dzialki
100
AcDbVertex
100
AcDb2dVertex
 10
7560863.63999999966
 20
5722281.12000000011
  0
VERTEX
  5
82
100
AcDbEntity
  8
ewns_dzialki
100
AcDbVertex
100
AcDb2dVertex
 10
7560843.51999999955
 20
5722300.44000000041
  0
VERTEX
  5
83
100
AcDbEntity
  8
ewns_dzialki
100
AcDbVertex
100
AcDb2dVertex
 10
7560821.45000000019
 20
5722322.66999999993
  0
VERTEX
  5
84
100
AcDbEntity
  8
ewns_dzialki
100
AcDbVertex
100
AcDb2dVertex
 10
7560813.34999999963
 20
5722338.09999999963
  0
SEQEND
  5
85
100
AcDbEntity
  8
ewns_dzialki
  0
POLYLINE
  5
86
100
AcDbEntity
  8
ewns_dzialki
  6
CONTINUOUS
370
18
100
AcDb2dPolyline
 66
1
 70
129
  0
VERTEX
  5
87
100
AcDbEntity
  8
ewns_dzialki
100
AcDbVertex
100
AcDb2dVertex
 10
7560801.29000000004
 20
5722320.23000000045
  0
VERTEX
  5
88
100
AcDbEntity
  8
ewns_dzialki
100
AcDbVertex
100
AcDb2dVertex
 10
7560803.70000000019
 20
5722283.74000000022
  0
VERTEX
  5
89
100
AcDbEntity
  8
ewns_dzialki
100
AcDbVertex
100
AcDb2dVertex
 10
7560790.91999999993
 20
5722262.61000000034
  0
VERTEX
  5
8A
100
AcDbEntity
  8
ewns_dzialki
100
AcDbVertex
100
AcDb2dVertex
 10
7560787.8200000003
 20
5722257.48000000045
  0
VERTEX
  5
8B
100
AcDbEntity
  8
ewns_dzialki
100
AcDbVertex
100
AcDb2dVertex
 10
7560758.98000000045
 20
5722329.53000000026
  0
VERTEX
  5
8C
100
AcDbEntity
  8
ewns_dzialki
100
AcDbVertex
100
AcDb2dVertex
 10
7560774.24000000022
 20
5722339.79000000004
  0
VERTEX
  5
8D
100
AcDbEntity
  8
ewns_dzialki
100
AcDbVertex
100
AcDb2dVertex
 10
7560782.04999999981
 20
5722345.58999999985
  0
SEQEND
  5
8E
100
AcDbEntity
  8
ewns_dzialki
  0
POLYLINE
  5
8F
100
AcDbEntity
  8
ewns_dzialki
  6
CONTINUOUS
370
18
100
AcDb2dPolyline
 66
1
 70
129
  0
VERTEX
  5
90
100
AcDbEntity
  8
ewns_dzialki
100
AcDbVertex
100
AcDb2dVertex
 10
7560809.55999999959
 20
5722363.49000000022
  0
VERTEX
  5
91
100
AcDbEntity
  8
ewns_dzialki
100
AcDbVertex
100
AcDb2dVertex
 10
7560816.83000000008
 20
5722377.1799999997
  0
VERTEX
  5
92
100
AcDbEntity
  8
ewns_dzialki
100
AcDbVertex
100
AcDb2dVertex
 10
7560824.91000000015
 20
5722396.91999999993
  0
VERTEX
  5
93
100
AcDbEntity
  8
ewns_dzialki
100
AcDbVertex
100
AcDb2dVertex
 10
7560846.71999999974
 20
5722406.75999999978
  0
VERTEX
  5
94
100
AcDbEntity
  8
ewns_dzialki
100
AcDbVertex
100
AcDb2dVertex
 10
7560848.83000000007
 20
5722404.36000000034
  0
VERTEX
  5
95
100
AcDbEntity
  8
ewns_dzialki
100
AcDbVertex
100
AcDb2dVertex
 10
7560839.01999999955
 20
5722397.34999999963
  0
VERTEX
  5
96
100
AcDbEntity
  8
ewns_dzialki
100
AcDbVertex
100
AcDb2dVertex
 10
7560836.5
 20
5722395.54000000004
  0
VERTEX
  5
97
100
AcDbEntity
  8
ewns_dzialki
100
AcDbVertex
100
AcDb2dVertex
 10
7560847.12999999989
 20
5722376.98000000045
  0
VERTEX
  5
98
100
AcDbEntity
  8
ewns_dzialki
100
AcDbVertex
100
AcDb2dVertex
 10
7560839.36000000034
 20
5722361.05999999959
  0
VERTEX
  5
99
100
AcDbEntity
  8
ewns_dzialki
100
AcDbVertex
100
AcDb2dVertex
 10
7560834.86000000034
 20
5722355.25
  0
VERTEX
  5
9A
100
AcDbEntity
  8
ewns_dzialki
100
AcDbVertex
100
AcDb2dVertex
 10
7560829.25999999978
 20
5722349.73000000045
  0
VERTEX
  5
9B
100
AcDbEntity
  8
ewns_dzialki
100
AcDbVertex
100
AcDb2dVertex
 10
7560827.00999999978
 20
5722345.58000000007
  0
VERTEX
  5
9C
100
AcDbEntity
  8
ewns_dzialki
100
AcDbVertex
100
AcDb2dVertex
 10
7560813.34999999963
 20
5722338.09999999963
  0
VERTEX
  5
9D
100
AcDbEntity
  8
ewns_dzialki
100
AcDbVertex
100
AcDb2dVertex
 10
7560821.45000000019
 20
5722322.66999999993
  0
VERTEX
  5
9E
100
AcDbEntity
  8
ewns_dzialki
100
AcDbVertex
100
AcDb2dVertex
 10
7560843.51999999955
 20
5722300.44000000041
  0
VERTEX
  5
9F
100
AcDbEntity
  8
ewns_dzialki
100
AcDbVertex
100
AcDb2dVertex
 10
7560863.84999999963
 20
5722267.87000000011
  0
VERTEX
  5
A0
100
AcDbEntity
  8
ewns_dzialki
100
AcDbVertex
100
AcDb2dVertex
 10
7560878.66000000015
 20
5722231.73000000045
  0
VERTEX
  5
A1
100
AcDbEntity
  8
ewns_dzialki
100
AcDbVertex
100
AcDb2dVertex
 10
7560893.24000000022
 20
5722210.0700000003
  0
VERTEX
  5
A2
100
AcDbEntity
  8
ewns_dzialki
100
AcDbVertex
100
AcDb2dVertex
 10
7560895.5
 20
5722208.34999999963
  0
VERTEX
  5
A3
100
AcDbEntity
  8
ewns_dzialki
100
AcDbVertex
100
AcDb2dVertex
 10
7560925.16000000015
 20
5722222.26999999955
  0
VERTEX
  5
A4
100
AcDbEntity
  8
ewns_dzialki
100
AcDbVertex
100
AcDb2dVertex
 10
7560939.45000000019
 20
5722211.1799999997
  0
VERTEX
  5
A5
100
AcDbEntity
  8
ewns_dzialki
100
AcDbVertex
100
AcDb2dVertex
 10
7560960.13999999966
 20
5722211.01999999955
  0
VERTEX
  5
A6
100
AcDbEntity
  8
ewns_dzialki
100
AcDbVertex
100
AcDb2dVertex
 10
7560964.20000000019
 20
5722213.48000000045
  0
VERTEX
  5
A7
100
AcDbEntity
  8
ewns_dzialki
100
AcDbVertex
100
AcDb2dVertex
 10
7560968.25999999978
 20
5722215.95000000019
  0
VERTEX
  5
A8
100
AcDbEntity
  8
ewns_dzialki
100
AcDbVertex
100
AcDb2dVertex
 10
7560974.86000000034
 20
5722220.19000000041
  0
VERTEX
  5
A9
100
AcDbEntity
  8
ewns_dzialki
100
AcDbVertex
100
AcDb2dVertex
 10
7560989.83999999985
 20
5722231.87000000011
  0
VERTEX
  5
AA
100
AcDbEntity
  8
ewns_dzialki
100
AcDbVertex
100
AcDb2dVertex
 10
7560998.66000000015
 20
5722238.63999999966
  0
VERTEX
  5
AB
100
AcDbEntity
  8
ewns_dzialki
100
AcDbVertex
100
AcDb2dVertex
 10
7561002.12999999989
 20
5722251.04000000004
  0
VERTEX
  5
AC
100
AcDbEntity
  8
ewns_dzialki
100
AcDbVertex
100
AcDb2dVertex
 10
7561005.1799999997
 20
5722265.12999999989
  0
VERTEX
  5
AD
100
AcDbEntity
  8
ewns_dzialki
100
AcDbVertex
100
AcDb2dVertex
 10
7561010.04999999981
 20
5722281.51999999955
  0
VERTEX
  5
AE
100
AcDbEntity
  8
ewns_dzialki
100
AcDbVertex
100
AcDb2dVertex
 10
7561016.33000000007
 20
5722293.79000000004
  0
VERTEX
  5
AF
100
AcDbEntity
  8
ewns_dzialki
100
AcDbVertex
100
AcDb2dVertex
 10
7561021.41000000015
 20
5722304.99000000022
  0
VERTEX
  5
B0
100
AcDbEntity
  8
ewns_dzialki
100
AcDbVertex
100
AcDb2dVertex
 10
7561038.5700000003
 20
5722312.51999999955
  0
VERTEX
  5
B1
100
AcDbEntity
  8
ewns_dzialki
100
AcDbVertex
100
AcDb2dVertex
 10
7561048.23000000045
 20
5722316.95000000019
  0
VERTEX
  5
B2
100
AcDbEntity
  8
ewns_dzialki
100
AcDbVertex
100
AcDb2dVertex
 10
7561057.16999999993
 20
5722320.58999999985
  0
VERTEX
  5
B3
100
AcDbEntity
  8
ewns_dzialki
100
AcDbVertex
100
AcDb2dVertex
 10
7561064.38999999966
 20
5722323.23000000045
  0
VERTEX
  5
B4
100
AcDbEntity
  8
ewns_dzialki
100
AcDbVertex
100
AcDb2dVertex
 10
7561074.74000000022
 20
5722332.94000000041
  0
VERTEX
  5
B5
100
AcDbEntity
  8
ewns_dzialki
100
AcDbVertex
100
AcDb2dVertex
 10
7561069.13999999966
 20
5722353.79999999981
  0
VERTEX
  5
B6
100
AcDbEntity
  8
ewns_dzialki
100
AcDbVertex
100
AcDb2dVertex
 10
7561079.25999999978
 20
5722361.94000000041
  0
VERTEX
  5
B7
100
AcDbEntity
  8
ewns_dzialki
100
AcDbVertex
100
AcDb2dVertex
 10
7561082.94000000041
 20
5722364.91000000015
  0
VERTEX
  5
B8
100
AcDbEntity
  8
ewns_dzialki
100
AcDbVertex
100
AcDb2dVertex
 10
7561085.75
 20
5722367.16999999993
  0
VERTEX
  5
B9
100
AcDbEntity
  8
ewns_dzialki
100
AcDbVertex
100
AcDb2dVertex
 10
7561088.91000000015
 20
5722369.70999999996
  0
VERTEX
  5
BA
100
AcDbEntity
  8
ewns_dzialki
100
AcDbVertex
100
AcDb2dVertex
 10
7561102.28000000026
 20
5722379.90000000037
  0
VERTEX
  5
BB
100
AcDbEntity
  8
ewns_dzialki
100
AcDbVertex
100
AcDb2dVertex
 10
7561121.54000000004
 20
5722360.63999999966
  0
VERTEX
  5
BC
100
AcDbEntity
  8
ewns_dzialki
100
AcDbVertex
100
AcDb2dVertex
 10
7561132.65000000037
 20
5722367.50999999978
  0
VERTEX
  5
BD
100
AcDbEntity
  8
ewns_dzialki
100
AcDbVertex
100
AcDb2dVertex
 10
7561142.38999999966
 20
5722373.53000000026
  0
VERTEX
  5
BE
100
AcDbEntity
  8
ewns_dzialki
100
AcDbVertex
100
AcDb2dVertex
 10
7561156.87000000011
 20
5722394.05999999959
  0
VERTEX
  5
BF
100
AcDbEntity
  8
ewns_dzialki
100
AcDbVertex
100
AcDb2dVertex
 10
7561161.25999999978
 20
5722397.01999999955
  0
VERTEX
  5
C0
100
AcDbEntity
  8
ewns_dzialki
100
AcDbVertex
100
AcDb2dVertex
 10
7561172.66999999993
 20
5722404.71999999974
  0
VERTEX
  5
C1
100
AcDbEntity
  8
ewns_dzialki
100
AcDbVertex
100
AcDb2dVertex
 10
7561188.37000000011
 20
5722415.30999999959
  0
VERTEX
  5
C2
100
AcDbEntity
  8
ewns_dzialki
100
AcDbVertex
100
AcDb2dVertex
 10
7561192.50999999978
 20
5722417.33999999985
  0
VERTEX
  5
C3
100
AcDbEntity
  8
ewns_dzialki
100
AcDbVertex
100
AcDb2dVertex
 10
7561175.98000000045
 20
5722393.66000000015
  0
VERTEX
  5
C4
100
AcDbEntity
  8
ewns_dzialki
100
AcDbVertex
100
AcDb2dVertex
 10
7561179.08999999985
 20
5722389.75
  0
VERTEX
  5
C5
100
AcDbEntity
  8
ewns_dzialki
100
AcDbVertex
100
AcDb2dVertex
 10
7561177.29000000004
 20
5722380.0
  0
VERTEX
  5
C6
100
AcDbEntity
  8
ewns_dzialki
100
AcDbVertex
100
AcDb2dVertex
 10
7561153.09999999963
 20
5722368.5
  0
VERTEX
  5
C7
100
AcDbEntity
  8
ewns_dzialki
100
AcDbVertex
100
AcDb2dVertex
 10
7561128.88999999966
 20
5722353.16000000015
  0
VERTEX
  5
C8
100
AcDbEntity
  8
ewns_dzialki
100
AcDbVertex
100
AcDb2dVertex
 10
7561118.21999999974
 20
5722345.54000000004
  0
VERTEX
  5
C9
100
AcDbEntity
  8
ewns_dzialki
100
AcDbVertex
100
AcDb2dVertex
 10
7561101.79999999981
 20
5722343.95000000019
  0
VERTEX
  5
CA
100
AcDbEntity
  8
ewns_dzialki
100
AcDbVertex
100
AcDb2dVertex
 10
7561094.25999999978
 20
5722330.75
  0
VERTEX
  5
CB
100
AcDbEntity
  8
ewns_dzialki
100
AcDbVertex
100
AcDb2dVertex
 10
7561085.23000000045
 20
5722320.23000000045
  0
VERTEX
  5
CC
100
AcDbEntity
  8
ewns_dzialki
100
AcDbVertex
100
AcDb2dVertex
 10
7561080.79000000004
 20
5722307.36000000034
  0
VERTEX
  5
CD
100
AcDbEntity
  8
ewns_dzialki
100
AcDbVertex
100
AcDb2dVertex
 10
7561067.0700000003
 20
5722294.75
  0
VERTEX
  5
CE
100
AcDbEntity
  8
ewns_dzialki
100
AcDbVertex
100
AcDb2dVertex
 10
7561033.28000000026
 20
5722282.50999999978
  0
VERTEX
  5
CF
100
AcDbEntity
  8
ewns_dzialki
100
AcDbVertex
100
AcDb2dVertex
 10
7561021.15000000037
 20
5722261.26999999955
  0
VERTEX
  5
D0
100
AcDbEntity
  8
ewns_dzialki
100
AcDbVertex
100
AcDb2dVertex
 10
7561021.15000000037
 20
5722236.01999999955
  0
VERTEX
  5
D1
100
AcDbEntity
  8
ewns_dzialki
100
AcDbVertex
100
AcDb2dVertex
 10
7560896.75
 20
5722093.16000000015
  0
VERTEX
  5
D2
100
AcDbEntity
  8
ewns_dzialki
100
AcDbVertex
100
AcDb2dVertex
 10
7560895.28000000026
 20
5722126.33000000007
  0
VERTEX
  5
D3
100
AcDbEntity
  8
ewns_dzialki
100
AcDbVertex
100
AcDb2dVertex
 10
7560885.3200000003
 20
5722144.9299999997
  0
VERTEX
  5
D4
100
AcDbEntity
  8
ewns_dzialki
100
AcDbVertex
100
AcDb2dVertex
 10
7560855.41999999993
 20
5722139.1799999997
  0
VERTEX
  5
D5
100
AcDbEntity
  8
ewns_dzialki
100
AcDbVertex
100
AcDb2dVertex
 10
7560853.98000000045
 20
5722149.26999999955
  0
VERTEX
  5
D6
100
AcDbEntity
  8
ewns_dzialki
100
AcDbVertex
100
AcDb2dVertex
 10
7560827.5
 20
5722197.83999999985
  0
VERTEX
  5
D7
100
AcDbEntity
  8
ewns_dzialki
100
AcDbVertex
100
AcDb2dVertex
 10
7560842.19000000041
 20
5722178.08000000007
  0
VERTEX
  5
D8
100
AcDbEntity
  8
ewns_dzialki
100
AcDbVertex
100
AcDb2dVertex
 10
7560862.41000000015
 20
5722163.74000000022
  0
VERTEX
  5
D9
100
AcDbEntity
  8
ewns_dzialki
100
AcDbVertex
100
AcDb2dVertex
 10
7560887.55999999959
 20
5722188.26999999955
  0
VERTEX
  5
DA
100
AcDbEntity
  8
ewns_dzialki
100
AcDbVertex
100
AcDb2dVertex
 10
7560876.4299999997
 20
5722206.25999999978
  0
VERTEX
  5
DB
100
AcDbEntity
  8
ewns_dzialki
100
AcDbVertex
100
AcDb2dVertex
 10
7560862.96999999974
 20
5722223.04000000004
  0
VERTEX
  5
DC
100
AcDbEntity
  8
ewns_dzialki
100
AcDbVertex
100
AcDb2dVertex
 10
7560818.79000000004
 20
5722272.79999999981
  0
VERTEX
  5
DD
100
AcDbEntity
  8
ewns_dzialki
100
AcDbVertex
100
AcDb2dVertex
 10
7560796.63999999966
 20
5722248.86000000034
  0
VERTEX
  5
DE
100
AcDbEntity
  8
ewns_dzialki
100
AcDbVertex
100
AcDb2dVertex
 10
7560790.91999999993
 20
5722262.61000000034
  0
VERTEX
  5
DF
100
AcDbEntity
  8
ewns_dzialki
100
AcDbVertex
100
AcDb2dVertex
 10
7560803.70000000019
 20
5722283.74000000022
  0
VERTEX
  5
E0
100
AcDbEntity
  8
ewns_dzialki
100
AcDbVertex
100
AcDb2dVertex
 10
7560801.29000000004
 20
5722320.23000000045
  0
VERTEX
  5
E1
100
AcDbEntity
  8
ewns_dzialki
100
AcDbVertex
100
AcDb2dVertex
 10
7560782.04999999981
 20
5722345.58999999985
  0
VERTEX
  5
E2
100
AcDbEntity
  8
ewns_dzialki
100
AcDbVertex
100
AcDb2dVertex
 10
7560809.55999999959
 20
5722363.49000000022
  0
SEQEND
  5
E3
100
AcDbEntity
  8
ewns_dzialki
  0
POLYLINE
  5
E4
100
AcDbEntity
  8
ewns_dzialki
  6
CONTINUOUS
370
18
100
AcDb2dPolyline
 66
1
 70
129
  0
VERTEX
  5
E5
100
AcDbEntity
  8
ewns_dzialki
100
AcDbVertex
100
AcDb2dVertex
 10
7560945.24000000022
 20
5722198.65000000037
  0
VERTEX
  5
E6
100
AcDbEntity
  8
ewns_dzialki
100
AcDbVertex
100
AcDb2dVertex
 10
7560965.12999999989
 20
5722180.98000000045
  0
VERTEX
  5
E7
100
AcDbEntity
  8
ewns_dzialki
100
AcDbVertex
100
AcDb2dVertex
 10
7560932.79000000004
 20
5722147.87999999989
  0
VERTEX
  5
E8
100
AcDbEntity
  8
ewns_dzialki
100
AcDbVertex
100
AcDb2dVertex
 10
7560927.73000000045
 20
5722157.0
  0
VERTEX
  5
E9
100
AcDbEntity
  8
ewns_dzialki
100
AcDbVertex
100
AcDb2dVertex
 10
7560921.25
 20
5722150.76999999955
  0
VERTEX
  5
EA
100
AcDbEntity
  8
ewns_dzialki
100
AcDbVertex
100
AcDb2dVertex
 10
7560907.80999999959
 20
5722186.75999999978
  0
VERTEX
  5
EB
100
AcDbEntity
  8
ewns_dzialki
100
AcDbVertex
100
AcDb2dVertex
 10
7560932.28000000026
 20
5722203.16000000015
  0
SEQEND
  5
EC
100
AcDbEntity
  8
ewns_dzialki
  0
POINT
  5
ED
100
AcDbEntity
  8
0
100
AcDbPoint
 62
0
 10
7560746.45999999996
 20
5722606.78000000026
  0
POINT
  5
EE
100
AcDbEntity
  8
0
100
AcDbPoint
 62
0
 10
7560880.91000000015
 20
5722431.59999999963
  0
POINT
  5
EF
100
AcDbEntity
  8
0
100
AcDbPoint
 62
0
 10
7560857.53000000026
 20
5722412.9299999997
  0
POINT
  5
F0
100
AcDbEntity
  8
0
100
AcDbPoint
 62
0
 10
7560846.71999999974
 20
5722406.75999999978
  0
POINT
  5
F1
100
AcDbEntity
  8
0
100
AcDbPoint
 62
0
 10
7560824.91000000015
 20
5722396.91999999993
  0
POINT
  5
F2
100
AcDbEntity
  8
0
100
AcDbPoint
 62
0
 10
7560816.83000000008
 20
5722377.1799999997
  0
POINT
  5
F3
100
AcDbEntity
  8
0
100
AcDbPoint
 62
0
 10
7560809.55999999959
 20
5722363.49000000022
  0
POINT
  5
F4
100
AcDbEntity
  8
0
100
AcDbPoint
 62
0
 10
7560782.04999999981
 20
5722345.58999999985
  0
POINT
  5
F5
100
AcDbEntity
  8
0
100
AcDbPoint
 62
0
 10
7560769.79999999981
 20
5722361.15000000037
  0
POINT
  5
F6
100
AcDbEntity
  8
0
100
AcDbPoint
 62
0
 10
7560756.71999999974
 20
5722378.25
  0
POINT
  5
F7
100
AcDbEntity
  8
0
100
AcDbPoint
 62
0
 10
7560744.91999999993
 20
5722393.55999999959
  0
POINT
  5
F8
100
AcDbEntity
  8
0
100
AcDbPoint
 62
0
 10
7560707.50999999978
 20
5722441.96999999974
  0
POINT
  5
F9
100
AcDbEntity
  8
0
100
AcDbPoint
 62
0
 10
7560689.41999999993
 20
5722464.95000000019
  0
POINT
  5
FA
100
AcDbEntity
  8
0
100
AcDbPoint
 62
0
 10
7560654.48000000045
 20
5722511.0700000003
  0
POINT
  5
FB
100
AcDbEntity
  8
0
100
AcDbPoint
 62
0
 10
7560637.26999999955
 20
5722533.50999999978
  0
POINT
  5
FC
100
AcDbEntity
  8
0
100
AcDbPoint
 62
0
 10
7560607.66999999993
 20
5722479.44000000041
  0
POINT
  5
FD
100
AcDbEntity
  8
0
100
AcDbPoint
 62
0
 10
7560562.08999999985
 20
5722448.65000000037
  0
POINT
  5
FE
100
AcDbEntity
  8
0
100
AcDbPoint
 62
0
 10
7560544.91999999992
 20
5722471.54999999981
  0
POINT
  5
FF
100
AcDbEntity
  8
0
100
AcDbPoint
 62
0
 10
7560553.54000000004
 20
5722477.36000000034
  0
POINT
  5
100
100
AcDbEntity
  8
0
100
AcDbPoint
 62
0
 10
7560590.55999999959
 20
5722502.16999999993
  0
POINT
  5
101
100
AcDbEntity
  8
0
100
AcDbPoint
 62
0
 10
7561040.12000000011
 20
5722324.86000000034
  0
POINT
  5
102
100
AcDbEntity
  8
0
100
AcDbPoint
 62
0
 10
7561032.03000000026
 20
5722319.88999999966
  0
POINT
  5
103
100
AcDbEntity
  8
0
100
AcDbPoint
 62
0
 10
7560948.33999999985
 20
5722403.12999999989
  0
POINT
  5
104
100
AcDbEntity
  8
0
100
AcDbPoint
 62
0
 10
7560898.75
 20
5722449.45999999996
  0
POINT
  5
105
100
AcDbEntity
  8
0
100
AcDbPoint
 62
0
 10
7560904.13999999966
 20
5722455.34999999963
  0
POINT
  5
106
100
AcDbEntity
  8
0
100
AcDbPoint
 62
0
 10
7560954.16000000015
 20
5722408.74000000022
  0
POINT
  5
107
100
AcDbEntity
  8
0
100
AcDbPoint
 62
0
 10
7560827.00999999978
 20
5722345.58000000007
  0
POINT
  5
108
100
AcDbEntity
  8
0
100
AcDbPoint
 62
0
 10
7560877.5
 20
5722294.53000000026
  0
POINT
  5
109
100
AcDbEntity
  8
0
100
AcDbPoint
 62
0
 10
7560863.63999999966
 20
5722281.12000000011
  0
POINT
  5
10A
100
AcDbEntity
  8
0
100
AcDbPoint
 62
0
 10
7560843.51999999955
 20
5722300.44000000041
  0
POINT
  5
10B
100
AcDbEntity
  8
0
100
AcDbPoint
 62
0
 10
7560821.45000000019
 20
5722322.66999999993
  0
POINT
  5
10C
100
AcDbEntity
  8
0
100
AcDbPoint
 62
0
 10
7560813.34999999963
 20
5722338.09999999963
  0
POINT
  5
10D
100
AcDbEntity
  8
0
100
AcDbPoint
 62
0
 10
7560801.29000000004
 20
5722320.23000000045
  0
POINT
  5
10E
100
AcDbEntity
  8
0
100
AcDbPoint
 62
0
 10
7560803.70000000019
 20
5722283.74000000022
  0
POINT
  5
10F
100
AcDbEntity
  8
0
100
AcDbPoint
 62
0
 10
7560790.91999999993
 20
5722262.61000000034
  0
POINT
  5
110
100
AcDbEntity
  8
0
100
AcDbPoint
 62
0
 10
7560787.8200000003
 20
5722257.48000000045
  0
POINT
  5
111
100
AcDbEntity
  8
0
100
AcDbPoint
 62
0
 10
7560758.98000000045
 20
5722329.53000000026
  0
POINT
  5
112
100
AcDbEntity
  8
0
100
AcDbPoint
 62
0
 10
7560774.24000000022
 20
5722339.79000000004
  0
POINT
  5
113
100
AcDbEntity
  8
0
100
AcDbPoint
 62
0
 10
7560848.83000000007
 20
5722404.36000000034
  0
POINT
  5
114
100
AcDbEntity
  8
0
100
AcDbPoint
 62
0
 10
7560839.01999999955
 20
5722397.34999999963
  0
POINT
  5
115
100
AcDbEntity
  8
0
100
AcDbPoint
 62
0
 10
7560836.5
 20
5722395.54000000004
  0
POINT
  5
116
100
AcDbEntity
  8
0
100
AcDbPoint
 62
0
 10
7560847.12999999989
 20
5722376.98000000045
  0
POINT
  5
117
100
AcDbEntity
  8
0
100
AcDbPoint
 62
0
 10
7560839.36000000034
 20
5722361.05999999959
  0
POINT
  5
118
100
AcDbEntity
  8
0
100
AcDbPoint
 62
0
 10
7560834.86000000034
 20
5722355.25
  0
POINT
  5
119
100
AcDbEntity
  8
0
100
AcDbPoint
 62
0
 10
7560829.25999999978
 20
5722349.73000000045
  0
POINT
  5
11A
100
AcDbEntity
  8
0
100
AcDbPoint
 62
0
 10
7560863.84999999963
 20
5722267.87000000011
  0
POINT
  5
11B
100
AcDbEntity
  8
0
100
AcDbPoint
 62
0
 10
7560878.66000000015
 20
5722231.73000000045
  0
POINT
  5
11C
100
AcDbEntity
  8
0
100
AcDbPoint
 62
0
 10
7560893.24000000022
 20
5722210.0700000003
  0
POINT
  5
11D
100
AcDbEntity
  8
0
100
AcDbPoint
 62
0
 10
7560895.5
 20
5722208.34999999963
  0
POINT
  5
11E
100
AcDbEntity
  8
0
100
AcDbPoint
 62
0
 10
7560925.16000000015
 20
5722222.26999999955
  0
POINT
  5
11F
100
AcDbEntity
  8
0
100
AcDbPoint
 62
0
 10
7560939.45000000019
 20
5722211.1799999997
  0
POINT
  5
120
100
AcDbEntity
  8
0
100
AcDbPoint
 62
0
 10
7560960.13999999966
 20
5722211.01999999955
  0
POINT
  5
121
100
AcDbEntity
  8
0
100
AcDbPoint
 62
0
 10
7560964.20000000019
 20
5722213.48000000045
  0
POINT
  5
122
100
AcDbEntity
  8
0
100
AcDbPoint
 62
0
 10
7560968.25999999978
 20
5722215.95000000019
  0
POINT
  5
123
100
AcDbEntity
  8
0
100
AcDbPoint
 62
0
 10
7560974.86000000034
 20
5722220.19000000041
  0
POINT
  5
124
100
AcDbEntity
  8
0
100
AcDbPoint
 62
0
 10
7560989.83999999985
 20
5722231.87000000011
  0
POINT
  5
125
100
AcDbEntity
  8
0
100
AcDbPoint
 62
0
 10
7560998.66000000015
 20
5722238.63999999966
  0
POINT
  5
126
100
AcDbEntity
  8
0
100
AcDbPoint
 62
0
 10
7561002.12999999989
 20
5722251.04000000004
  0
POINT
  5
127
100
AcDbEntity
  8
0
100
AcDbPoint
 62
0
 10
7561005.1799999997
 20
5722265.12999999989
  0
POINT
  5
128
100
AcDbEntity
  8
0
100
AcDbPoint
 62
0
 10
7561010.04999999981
 20
5722281.51999999955
  0
POINT
  5
129
100
AcDbEntity
  8
0
100
AcDbPoint
 62
0
 10
7561016.33000000007
 20
5722293.79000000004
  0
POINT
  5
12A
100
AcDbEntity
  8
0
100
AcDbPoint
 62
0
 10
7561021.41000000015
 20
5722304.99000000022
  0
POINT
  5
12B
100
AcDbEntity
  8
0
100
AcDbPoint
 62
0
 10
7561038.5700000003
 20
5722312.51999999955
  0
POINT
  5
12C
100
AcDbEntity
  8
0
100
AcDbPoint
 62
0
 10
7561048.23000000045
 20
5722316.95000000019
  0
POINT
  5
12D
100
AcDbEntity
  8
0
100
AcDbPoint
 62
0
 10
7561057.16999999993
 20
5722320.58999999985
  0
POINT
  5
12E
100
AcDbEntity
  8
0
100
AcDbPoint
 62
0
 10
7561064.38999999966
 20
5722323.23000000045
  0
POINT
  5
12F
100
AcDbEntity
  8
0
100
AcDbPoint
 62
0
 10
7561074.74000000022
 20
5722332.94000000041
  0
POINT
  5
130
100
AcDbEntity
  8
0
100
AcDbPoint
 62
0
 10
7561069.13999999966
 20
5722353.79999999981
  0
POINT
  5
131
100
AcDbEntity
  8
0
100
AcDbPoint
 62
0
 10
7561079.25999999978
 20
5722361.94000000041
  0
POINT
  5
132
100
AcDbEntity
  8
0
100
AcDbPoint
 62
0
 10
7561082.94000000041
 20
5722364.91000000015
  0
POINT
  5
133
100
AcDbEntity
  8
0
100
AcDbPoint
 62
0
 10
7561085.75
 20
5722367.16999999993
  0
POINT
  5
134
100
AcDbEntity
  8
0
100
AcDbPoint
 62
0
 10
7561088.91000000015
 20
5722369.70999999996
  0
POINT
  5
135
100
AcDbEntity
  8
0
100
AcDbPoint
 62
0
 10
7561102.28000000026
 20
5722379.90000000037
  0
POINT
  5
136
100
AcDbEntity
  8
0
100
AcDbPoint
 62
0
 10
7561121.54000000004
 20
5722360.63999999966
  0
POINT
  5
137
100
AcDbEntity
  8
0
100
AcDbPoint
 62
0
 10
7561132.65000000037
 20
5722367.50999999978
  0
POINT
  5
138
100
AcDbEntity
  8
0
100
AcDbPoint
 62
0
 10
7561142.38999999966
 20
5722373.53000000026
  0
POINT
  5
139
100
AcDbEntity
  8
0
100
AcDbPoint
 62
0
 10
7561156.87000000011
 20
5722394.05999999959
  0
POINT
  5
13A
100
AcDbEntity
  8
0
100
AcDbPoint
 62
0
 10
7561161.25999999978
 20
5722397.01999999955
  0
POINT
  5
13B
100
AcDbEntity
  8
0
100
AcDbPoint
 62
0
 10
7561172.66999999993
 20
5722404.71999999974
  0
POINT
  5
13C
100
AcDbEntity
  8
0
100
AcDbPoint
 62
0
 10
7561188.37000000011
 20
5722415.30999999959
  0
POINT
  5
13D
100
AcDbEntity
  8
0
100
AcDbPoint
 62
0
 10
7561192.50999999978
 20
5722417.33999999985
  0
POINT
  5
13E
100
AcDbEntity
  8
0
100
AcDbPoint
 62
0
 10
7561175.98000000045
 20
5722393.66000000015
  0
POINT
  5
13F
100
AcDbEntity
  8
0
100
AcDbPoint
 62
0
 10
7561179.08999999985
 20
5722389.75
  0
POINT
  5
140
100
AcDbEntity
  8
0
100
AcDbPoint
 62
0
 10
7561177.29000000004
 20
5722380.0
  0
POINT
  5
141
100
AcDbEntity
  8
0
100
AcDbPoint
 62
0
 10
7561153.09999999963
 20
5722368.5
  0
POINT
  5
142
100
AcDbEntity
  8
0
100
AcDbPoint
 62
0
 10
7561128.88999999966
 20
5722353.16000000015
  0
POINT
  5
143
100
AcDbEntity
  8
0
100
AcDbPoint
 62
0
 10
7561118.21999999974
 20
5722345.54000000004
  0
POINT
  5
144
100
AcDbEntity
  8
0
100
AcDbPoint
 62
0
 10
7561101.79999999981
 20
5722343.95000000019
  0
POINT
  5
145
100
AcDbEntity
  8
0
100
AcDbPoint
 62
0
 10
7561094.25999999978
 20
5722330.75
  0
POINT
  5
146
100
AcDbEntity
  8
0
100
AcDbPoint
 62
0
 10
7561085.23000000045
 20
5722320.23000000045
  0
POINT
  5
147
100
AcDbEntity
  8
0
100
AcDbPoint
 62
0
 10
7561080.79000000004
 20
5722307.36000000034
  0
POINT
  5
148
100
AcDbEntity
  8
0
100
AcDbPoint
 62
0
 10
7561067.0700000003
 20
5722294.75
  0
POINT
  5
149
100
AcDbEntity
  8
0
100
AcDbPoint
 62
0
 10
7561033.28000000026
 20
5722282.50999999978
  0
POINT
  5
14A
100
AcDbEntity
  8
0
100
AcDbPoint
 62
0
 10
7561021.15000000037
 20
5722261.26999999955
  0
POINT
  5
14B
100
AcDbEntity
  8
0
100
AcDbPoint
 62
0
 10
7561021.15000000037
 20
5722236.01999999955
  0
POINT
  5
14C
100
AcDbEntity
  8
0
100
AcDbPoint
 62
0
 10
7560896.75
 20
5722093.16000000015
  0
POINT
  5
14D
100
AcDbEntity
  8
0
100
AcDbPoint
 62
0
 10
7560895.28000000026
 20
5722126.33000000007
  0
POINT
  5
14E
100
AcDbEntity
  8
0
100
AcDbPoint
 62
0
 10
7560885.3200000003
 20
5722144.9299999997
  0
POINT
  5
14F
100
AcDbEntity
  8
0
100
AcDbPoint
 62
0
 10
7560855.41999999993
 20
5722139.1799999997
  0
POINT
  5
150
100
AcDbEntity
  8
0
100
AcDbPoint
 62
0
 10
7560853.98000000045
 20
5722149.26999999955
  0
POINT
  5
151
100
AcDbEntity
  8
0
100
AcDbPoint
 62
0
 10
7560827.5
 20
5722197.83999999985
  0
POINT
  5
152
100
AcDbEntity
  8
0
100
AcDbPoint
 62
0
 10
7560842.19000000041
 20
5722178.08000000007
  0
POINT
  5
153
100
AcDbEntity
  8
0
100
AcDbPoint
 62
0
 10
7560862.41000000015
 20
5722163.74000000022
  0
POINT
  5
154
100
AcDbEntity
  8
0
100
AcDbPoint
 62
0
 10
7560887.55999999959
 20
5722188.26999999955
  0
POINT
  5
155
100
AcDbEntity
  8
0
100
AcDbPoint
 62
0
 10
7560876.4299999997
 20
5722206.25999999978
  0
POINT
  5
156
100
AcDbEntity
  8
0
100
AcDbPoint
 62
0
 10
7560862.96999999974
 20
5722223.04000000004
  0
POINT
  5
157
100
AcDbEntity
  8
0
100
AcDbPoint
 62
0
 10
7560818.79000000004
 20
5722272.79999999981
  0
POINT
  5
158
100
AcDbEntity
  8
0
100
AcDbPoint
 62
0
 10
7560796.63999999966
 20
5722248.86000000034
  0
POINT
  5
159
100
AcDbEntity
  8
0
100
AcDbPoint
 62
0
 10
7560932.28000000026
 20
5722203.16000000015
  0
POINT
  5
15A
100
AcDbEntity
  8
0
100
AcDbPoint
 62
0
 10
7560907.80999999959
 20
5722186.75999999978
  0
POINT
  5
15B
100
AcDbEntity
  8
0
100
AcDbPoint
 62
0
 10
7560921.25
 20
5722150.76999999955
  0
POINT
  5
15C
100
AcDbEntity
  8
0
100
AcDbPoint
 62
0
 10
7560927.73000000045
 20
5722157.0
  0
POINT
  5
15D
100
AcDbEntity
  8
0
100
AcDbPoint
 62
0
 10
7560932.79000000004
 20
5722147.87999999989
  0
POINT
  5
15E
100
AcDbEntity
  8
0
100
AcDbPoint
 62
0
 10
7560965.12999999989
 20
5722180.98000000045
  0
POINT
  5
15F
100
AcDbEntity
  8
0
100
AcDbPoint
 62
0
 10
7560945.24000000022
 20
5722198.65000000037
  0
TEXT
  5
160
100
AcDbEntity
  8
ewns_dzialki
370
25
100
AcDbText
 39
0.25
 10
7560757.21499999985
 20
5722474.93500000052
 40
2.50
  1
179
 50
0.00
 41
0.66
  7
STANDARD
 72
1
 11
7560759.08999999985
 21
5722476.18500000052
100
AcDbText
 73
2
  0
TEXT
  5
161
100
AcDbEntity
  8
ewns_dzialki
370
25
100
AcDbText
 39
0.25
 10
7560573.16999999993
 20
5722474.16000000015
 40
2.50
  1
170/2
 50
0.00
 41
0.66
  7
STANDARD
 72
1
 11
7560576.29499999993
 21
5722475.41000000015
100
AcDbText
 73
2
  0
TEXT
  5
162
100
AcDbEntity
  8
ewns_dzialki
370
25
100
AcDbText
 39
0.25
 10
7560619.39499999955
 20
5722505.22499999963
 40
2.50
  1
170/3
 50
0.00
 41
0.66
  7
STANDARD
 72
1
 11
7560622.51999999955
 21
5722506.47499999963
100
AcDbText
 73
2
  0
TEXT
  5
163
100
AcDbEntity
  8
ewns_dzialki
370
25
100
AcDbText
 39
0.25
 10
7560967.56000000052
 20
5722386.36999999918
 40
2.50
  1
206
 50
0.00
 41
0.66
  7
STANDARD
 72
1
 11
7560969.43500000052
 21
5722387.61999999918
100
AcDbText
 73
2
  0
TEXT
  5
164
100
AcDbEntity
  8
ewns_dzialki
370
25
100
AcDbText
 39
0.25
 10
7560842.29999999981
 20
5722312.09999999963
 40
2.50
  1
194/3
 50
0.00
 41
0.66
  7
STANDARD
 72
1
 11
7560845.42499999981
 21
5722313.34999999963
100
AcDbText
 73
2
  0
TEXT
  5
165
100
AcDbEntity
  8
ewns_dzialki
370
25
100
AcDbText
 39
0.25
 10
7560778.21499999985
 20
5722300.28500000015
 40
2.50
  1
177/2
 50
0.00
 41
0.66
  7
STANDARD
 72
1
 11
7560781.33999999985
 21
5722301.53500000015
100
AcDbText
 73
2
  0
TEXT
  5
166
100
AcDbEntity
  8
ewns_dzialki
370
25
100
AcDbText
 39
0.25
 10
7560933.34499999974
 20
5722174.26999999955
 40
2.50
  1
187/1
 50
0.00
 41
0.66
  7
STANDARD
 72
1
 11
7560936.46999999974
 21
5722175.51999999955
100
AcDbText
 73
2
  0
ENDSEC
  0
SECTION
  2
OBJECTS
  0
DICTIONARY
  5
167
330
0
100
AcDbDictionary
280
0
281
1
  3
ACAD_GROUP
350
168
  3
ACAD_LAYOUT
350
169
  3
ACAD_MLINESTYLE
350
16A
  3
ACAD_PLOTSETTINGS
350
16B
  3
ACAD_PLOTSTYLENAME
350
16C
  3
ACAD_WIPEOUT_VARS
350
16D
  0
DICTIONARY
  5
168
102
{ACAD_REACTORS
330
167
102
}
330
167
100
AcDbDictionary
280
0
281
1
  0
DICTIONARY
  5
169
102
{ACAD_REACTORS
330
167
102
}
330
167
100
AcDbDictionary
280
0
281
1
  3
Layout
350
20
  3
Model
350
1E
  0
DICTIONARY
  5
16A
102
{ACAD_REACTORS
330
167
102
}
330
167
100
AcDbDictionary
280
0
281
1
  3
Standard
350
16E
  3
L_0_02
350
7
  3
L_0_E3
350
C
  0
DICTIONARY
  5
16B
102
{ACAD_REACTORS
330
167
102
}
330
167
100
AcDbDictionary
280
0
281
1
  0
ACDBDICTIONARYWDFLT
  5
16C
102
{ACAD_REACTORS
330
167
102
}
330
167
100
AcDbDictionary
281
1
  3
Normal
350
11
100
AcDbDictionaryWithDefault
340
11
  0
WIPEOUTVARIABLES
  5
16D
102
{ACAD_REACTORS
330
167
102
}
330
167
100
AcDbWipeoutVariables
 70
0
  0
LAYOUT
  5
20
100
AcDbPlotSettings
  1

  2

  4

  6

 40
0.0
 41
0.0
 42
0.0
 43
0.0
 44
0.0
 45
0.0
 46
0.0
 47
0.0
 48
0.0
 49
0.0
140
0.0
141
0.0
142
1.0
143
1.0
 70
688
 72
1
 73
0
 74
5
  7

 75
0
147
1.0
148
0.0
149
0.0
100
AcDbLayout
  1
Layout
 70
1
 71
1
 10
0.0
 20
0.0
 11
420.0
 21
297.0
 12
0.0
 22
0.0
 32
0.0
 14
100000000000000000000.0
 24
100000000000000000000.0
 34
100000000000000000000.0
 15
-100000000000000000000.0
 25
-100000000000000000000.0
 35
-100000000000000000000.0
146
0.0
 13
0.0
 23
0.0
 33
0.0
 16
1.0
 26
0.0
 36
0.0
 17
0.0
 27
1.0
 37
0.0
 76
0
330
1F
  0
LAYOUT
  5
1E
100
AcDbPlotSettings
  1

  2

  4

  6

 40
0.0
 41
0.0
 42
0.0
 43
0.0
 44
0.0
 45
0.0
 46
0.0
 47
0.0
 48
0.0
 49
0.0
140
0.0
141
0.0
142
1.0
143
1.0
 70
1712
 72
1
 73
0
 74
0
  7

 75
0
147
1.0
148
0.0
149
0.0
100
AcDbLayout
  1
Model
 70
1
 71
0
 10
0.0
 20
0.0
 11
12.0
 21
9.0
 12
0.0
 22
0.0
 32
0.0
 14
0.0
 24
0.0
 34
0.0
 15
0.0
 25
0.0
 35
0.0
146
0.0
 13
0.0
 23
0.0
 33
0.0
 16
1.0
 26
0.0
 36
0.0
 17
0.0
 27
1.0
 37
0.0
 76
0
330
1D
  0
MLINESTYLE
  5
16E
102
{ACAD_REACTORS
330
16A
102
}
330
16A
100
AcDbMlineStyle
  2
Standard
 70
0
  3

 62
256
 51
90.0
 52
90.0
  2
Standard
 71
2
 49
0.5
 62
256
  6
ByLayer
 49
-0.5
 62
256
  6
ByLayer
  0
MLINESTYLE
  5
7
100
AcDbMlineStyle
  2
L_0_02
 70
0
  3

 51
90.0
 52
90.0
 71
1
 49
0.0
 62
256
  6
CONTINUOUS
  0
MLINESTYLE
  5
C
100
AcDbMlineStyle
  2
L_0_E3
 70
0
  3

 51
90.0
 52
90.0
 71
2
 49
0.0
 62
256
  6
CONTINUOUS
 49
-0.5
 62
256
  6
L_0_E3_00
  0
ACDBPLACEHOLDER
  5
11
  0
ENDSEC
  0
EOF
