  0
SECTION
  2
HEADER
  9
$ACADVER
  1
AC1018
  9
$HANDSEED
  5
FFFFFF
  9
$EXTMAX
 10
8417921.66200000048
 20
5761821.79000000004
 30
1000000.00
  9
$EXTMIN
 10
8417606.56000000052
 20
5761378.24799999967
 30
0.00
  9
$LIMMIN
 10
8417606.56000000052
 20
5761378.24799999967
  9
$LIMMAX
 10
8417921.66200000048
 20
5761821.79000000004
  9
$DIMASZ
 40
2.5
  9
$DIMGAP
 40
0.625
  9
$INSUNITS
 70
6
  9
$DIMEXO
 40
0.625
  9
$DIMTXT
 40
2.5
  9
$DIMSTYLE
  2
Standard
  9
$PLIMMIN
 10
0.0
 20
0.0
  9
$PLIMMAX
 10
210.0
 20
297.0
  9
$DIMEXE
 40
1.25
  9
$TEXTSIZE
 40
2.5
  9
$TEXTSTYLE
  7
Standard
  9
$LWDISPLAY
290
1
  9
$TDCREATE
 40
44279.939721042
  9
$TDUCREATE
 40
44279.898054375
  9
$TDUPDATE
 40
44279.939721042
  9
$TDUUPDATE
 40
44279.898054375
  9
$TDINDWG
 40
0.0
  9
$TDUSRTIMER
 40
0.0
  9
$USRTIMER
 70
1
  0
ENDSEC
  0
SECTION
  2
TABLES
  0
TABLE
  2
VPORT
  5
1
100
AcDbSymbolTable
 70
1
  0
VPORT
  5
2
100
AcDbSymbolTableRecord
100
AcDbViewportTableRecord
  2
*ACTIVE
 70
0
 10
0.0
 20
0.0
 11
1.0
 21
1.0
 12
8417764.111
 22
5761600.019
 13
0.0
 23
0.0
 14
1.0
 24
1.0
 15
0.0
 25
0.0
 16
0.0
 26
0.0
 36
1.0
 17
0.0
 27
0.0
 37
0.0
 40
443.542
 41
0.710
 42
50.0
 43
0.0
 44
0.0
 50
0.0
 51
0.0
 71
0
 72
100
 73
1
 74
1
 75
0
 76
0
 77
0
 78
0
  0
ENDTAB
  0
TABLE
  2
LTYPE
  5
3
100
AcDbSymbolTable
 70
3
  0
LTYPE
  5
4
100
AcDbSymbolTableRecord
100
AcDbLinetypeTableRecord
  2
ByBlock
 70
0
  3

 72
65
 73
0
 40
0.0
  0
LTYPE
  5
5
100
AcDbSymbolTableRecord
100
AcDbLinetypeTableRecord
  2
ByLayer
 70
0
  3

 72
65
 73
0
 40
0.0
  0
LTYPE
  5
6
100
AcDbSymbolTableRecord
100
AcDbLinetypeTableRecord
  2
CONTINUOUS
 70
0
  3
Solid line
 72
65
 73
0
 40
0.0
  0
ENDTAB
  0
TABLE
  2
LAYER
  5
7
100
AcDbSymbolTable
 70
9
  0
LAYER
  5
8
100
AcDbSymbolTableRecord
100
AcDbLayerTableRecord
  2
0
 70
0
420
0
  6
CONTINUOUS
370
18
390
9
  0
LAYER
  5
A
100
AcDbSymbolTableRecord
100
AcDbLayerTableRecord
  2
11_Dowolne_wymiarowanie
 70
0
420
0
  6
CONTINUOUS
370
18
390
9
  0
LAYER
  5
B
100
AcDbSymbolTableRecord
100
AcDbLayerTableRecord
  2
23_Oznaczenie_czesci
 70
0
420
0
  6
CONTINUOUS
370
18
390
9
  0
LAYER
  5
C
100
AcDbSymbolTableRecord
100
AcDbLayerTableRecord
  2
CIAGLA_0_5
 70
0
420
0
  6
CONTINUOUS
370
50
390
9
  0
LAYER
  5
D
100
AcDbSymbolTableRecord
100
AcDbLayerTableRecord
  2
Defpoints
 70
0
420
0
  6
CONTINUOUS
370
18
390
9
  0
LAYER
  5
E
100
AcDbSymbolTableRecord
100
AcDbLayerTableRecord
  2
KOT_osie
 70
0
420
65535
  6
CONTINUOUS
370
18
390
9
  0
LAYER
  5
F
100
AcDbSymbolTableRecord
100
AcDbLayerTableRecord
  2
KOT_sciana_zew
 70
0
420
65280
  6
CONTINUOUS
370
18
390
9
  0
LAYER
  5
10
100
AcDbSymbolTableRecord
100
AcDbLayerTableRecord
  2
OPISY
 70
0
420
16776960
  6
CONTINUOUS
370
18
390
9
  0
LAYER
  5
11
100
AcDbSymbolTableRecord
100
AcDbLayerTableRecord
  2
_Agat_sciana
 70
0
420
65280
  6
CONTINUOUS
370
18
390
9
  0
ENDTAB
  0
TABLE
  2
STYLE
  5
12
100
AcDbSymbolTable
 70
2
  0
STYLE
  5
13
100
AcDbSymbolTableRecord
100
AcDbTextStyleTableRecord
  2
STANDARD
 70
0
 40
0.0
 41
1.0
 50
0.0
 71
0
  3
simplex.shx
  4

  0
STYLE
  5
14
100
AcDbSymbolTableRecord
100
AcDbTextStyleTableRecord
  2
STANDARD_ITALIC
 70
0
 40
0.0
 41
1.0
 50
15.0
 71
0
  3
simplex.shx
  4

  0
ENDTAB
  0
TABLE
  2
VIEW
  5
15
100
AcDbSymbolTable
 70
0
  0
ENDTAB
  0
TABLE
  2
UCS
  5
16
100
AcDbSymbolTable
 70
0
  0
ENDTAB
  0
TABLE
  2
APPID
  5
17
100
AcDbSymbolTable
 70
1
  0
APPID
  5
18
100
AcDbSymbolTableRecord
100
AcDbRegAppTableRecord
  2
ACAD
 70
0
  0
ENDTAB
  0
TABLE
  2
DIMSTYLE
  5
19
100
AcDbSymbolTable
 70
1
100
AcDbDimStyleTable
  0
DIMSTYLE
105
1A
100
AcDbSymbolTableRecord
100
AcDbDimStyleTableRecord
  2
Standard
 70
0
340
13
  0
ENDTAB
  0
TABLE
  2
BLOCK_RECORD
  5
1B
100
AcDbSymbolTable
 70
3
  0
BLOCK_RECORD
  5
1C
100
AcDbSymbolTableRecord
100
AcDbBlockTableRecord
  2
*Model_Space
340
1D
  0
BLOCK_RECORD
  5
1E
100
AcDbSymbolTableRecord
100
AcDbBlockTableRecord
  2
*Paper_Space
340
1F
  0
BLOCK_RECORD
  5
20
100
AcDbSymbolTableRecord
100
AcDbBlockTableRecord
  2
pikieta
340
21
  0
ENDTAB
  0
ENDSEC
  0
SECTION
  2
BLOCKS
  0
BLOCK
  5
22
100
AcDbEntity
  8
0
100
AcDbBlockBegin
  2
*Model_Space
 70
0
 10
0.0
 20
0.0
 30
0.0
  3
*Model_Space
  1

  0
ENDBLK
  5
23
100
AcDbEntity
  8
0
100
AcDbBlockEnd
  0
BLOCK
  5
24
100
AcDbEntity
 67
1
  8
0
100
AcDbBlockBegin
  2
*Paper_Space
 70
0
 10
0.0
 20
0.0
 30
0.0
  3
*Paper_Space
  1

  0
ENDBLK
  5
25
100
AcDbEntity
 67
1
  8
0
100
AcDbBlockEnd
  0
BLOCK
  5
21
100
AcDbEntity
  8
0
100
AcDbBlockBegin
 62
0
370
13
  2
pikieta
 70
0
 10
0
 20
0
 30
0
  3
pikieta
  0
POINT
  5
26
100
AcDbEntity
  8
0
100
AcDbPoint
 62
0
 10
0.0
 20
0.0
 30
0.000
  0
ENDBLK
  5
27
100
AcDbEntity
  8
0
100
AcDbBlockEnd
  0
ENDSEC
  0
SECTION
  2
ENTITIES
  0
POLYLINE
  5
28
100
AcDbEntity
  8
11_Dowolne_wymiarowanie
  6
CONTINUOUS
370
18
100
AcDb2dPolyline
 66
1
 70
128
  0
VERTEX
  5
29
100
AcDbEntity
  8
11_Dowolne_wymiarowanie
100
AcDbVertex
100
AcDb2dVertex
 10
8417628.52818289585
 20
5761386.69313363824
  0
VERTEX
  5
2A
100
AcDbEntity
  8
11_Dowolne_wymiarowanie
100
AcDbVertex
100
AcDb2dVertex
 10
8417629.07291468419
 20
5761387.57912476175
  0
SEQEND
  5
2B
100
AcDbEntity
  8
11_Dowolne_wymiarowanie
  0
POLYLINE
  5
2C
100
AcDbEntity
  8
CIAGLA_0_5
  6
CONTINUOUS
370
50
100
AcDb2dPolyline
 66
1
 70
128
  0
VERTEX
  5
2D
100
AcDbEntity
  8
CIAGLA_0_5
100
AcDbVertex
100
AcDb2dVertex
 10
8417628.40991902538
 20
5761386.50078710169
  0
VERTEX
  5
2E
100
AcDbEntity
  8
CIAGLA_0_5
100
AcDbVertex
100
AcDb2dVertex
 10
8417632.14387651533
 20
5761392.5739652589
  0
SEQEND
  5
2F
100
AcDbEntity
  8
CIAGLA_0_5
  0
POLYLINE
  5
30
100
AcDbEntity
  8
CIAGLA_0_5
  6
CONTINUOUS
370
50
100
AcDb2dPolyline
 66
1
 70
128
  0
VERTEX
  5
31
100
AcDbEntity
  8
CIAGLA_0_5
100
AcDbVertex
100
AcDb2dVertex
 10
8417624.1505716294
 20
5761389.119551396
  0
VERTEX
  5
32
100
AcDbEntity
  8
CIAGLA_0_5
100
AcDbVertex
100
AcDb2dVertex
 10
8417627.88452911936
 20
5761395.19272955321
  0
SEQEND
  5
33
100
AcDbEntity
  8
CIAGLA_0_5
  0
POLYLINE
  5
34
100
AcDbEntity
  8
CIAGLA_0_5
  6
CONTINUOUS
370
50
100
AcDb2dPolyline
 66
1
 70
128
  0
VERTEX
  5
35
100
AcDbEntity
  8
CIAGLA_0_5
100
AcDbVertex
100
AcDb2dVertex
 10
8417619.41885818727
 20
5761392.87932797894
  0
VERTEX
  5
36
100
AcDbEntity
  8
CIAGLA_0_5
100
AcDbVertex
100
AcDb2dVertex
 10
8417622.77330883592
 20
5761398.33524880093
  0
SEQEND
  5
37
100
AcDbEntity
  8
CIAGLA_0_5
  0
CIRCLE
  5
38
100
AcDbEntity
  8
KOT_osie
  6
ByLayer
370
18
100
AcDbCircle
 10
8417611.0979375802
 20
5761397.72674426716
 40
0.400000018999
  0
CIRCLE
  5
39
100
AcDbEntity
  8
KOT_osie
  6
ByLayer
370
18
100
AcDbCircle
 10
8417606.96028723754
 20
5761390.99697089568
 40
0.400000018999
  0
CIRCLE
  5
3A
100
AcDbEntity
  8
KOT_osie
  6
ByLayer
370
18
100
AcDbCircle
 10
8417608.59452119097
 20
5761386.78689435031
 40
0.400000018999
  0
CIRCLE
  5
3B
100
AcDbEntity
  8
KOT_osie
  6
ByLayer
370
18
100
AcDbCircle
 10
8417618.05450298823
 20
5761380.97063654102
 40
0.400000018999
  0
POLYLINE
  5
3C
100
AcDbEntity
  8
KOT_osie
  6
CONTINUOUS
370
18
100
AcDb2dPolyline
 66
1
 70
128
  0
VERTEX
  5
3D
100
AcDbEntity
  8
KOT_osie
100
AcDbVertex
100
AcDb2dVertex
 10
8417624.01680492796
 20
5761389.78386819176
  0
VERTEX
  5
3E
100
AcDbEntity
  8
KOT_osie
100
AcDbVertex
100
AcDb2dVertex
 10
8417611.43868559972
 20
5761397.51724298392
  0
SEQEND
  5
3F
100
AcDbEntity
  8
KOT_osie
  0
POLYLINE
  5
40
100
AcDbEntity
  8
KOT_osie
  6
CONTINUOUS
370
18
100
AcDb2dPolyline
 66
1
 70
128
  0
VERTEX
  5
41
100
AcDbEntity
  8
KOT_osie
100
AcDbVertex
100
AcDb2dVertex
 10
8417619.87915458344
 20
5761383.05409482028
  0
VERTEX
  5
42
100
AcDbEntity
  8
KOT_osie
100
AcDbVertex
100
AcDb2dVertex
 10
8417607.30103525706
 20
5761390.78746961243
  0
SEQEND
  5
43
100
AcDbEntity
  8
KOT_osie
  0
POLYLINE
  5
44
100
AcDbEntity
  8
KOT_osie
  6
CONTINUOUS
370
18
100
AcDb2dPolyline
 66
1
 70
128
  0
VERTEX
  5
45
100
AcDbEntity
  8
KOT_osie
100
AcDbVertex
100
AcDb2dVertex
 10
8417614.40749795176
 20
5761396.24153962173
  0
VERTEX
  5
46
100
AcDbEntity
  8
KOT_osie
100
AcDbVertex
100
AcDb2dVertex
 10
8417608.80402247421
 20
5761387.1276423689
  0
SEQEND
  5
47
100
AcDbEntity
  8
KOT_osie
  0
POLYLINE
  5
48
100
AcDbEntity
  8
KOT_osie
  6
CONTINUOUS
370
18
100
AcDb2dPolyline
 66
1
 70
128
  0
VERTEX
  5
49
100
AcDbEntity
  8
KOT_osie
100
AcDbVertex
100
AcDb2dVertex
 10
8417623.86747974902
 20
5761390.42528181244
  0
VERTEX
  5
4A
100
AcDbEntity
  8
KOT_osie
100
AcDbVertex
100
AcDb2dVertex
 10
8417618.26400427148
 20
5761381.31138455961
  0
SEQEND
  5
4B
100
AcDbEntity
  8
KOT_osie
  0
POLYLINE
  5
4C
100
AcDbEntity
  8
KOT_sciana_zew
  6
CONTINUOUS
370
18
100
AcDb2dPolyline
 66
1
 70
128
  0
VERTEX
  5
4D
100
AcDbEntity
  8
KOT_sciana_zew
100
AcDbVertex
100
AcDb2dVertex
 10
8417614.12290712818
 20
5761396.00777608715
  0
VERTEX
  5
4E
100
AcDbEntity
  8
KOT_sciana_zew
100
AcDbVertex
100
AcDb2dVertex
 10
8417614.12290712818
 20
5761396.00777608715
  0
VERTEX
  5
4F
100
AcDbEntity
  8
KOT_sciana_zew
100
AcDbVertex
100
AcDb2dVertex
 10
8417623.78733773716
 20
5761390.06581750792
  0
VERTEX
  5
50
100
AcDbEntity
  8
KOT_sciana_zew
100
AcDbVertex
100
AcDb2dVertex
 10
8417619.52398662455
 20
5761383.13159532472
  0
VERTEX
  5
51
100
AcDbEntity
  8
KOT_sciana_zew
100
AcDbVertex
100
AcDb2dVertex
 10
8417617.61579771899
 20
5761384.30480251089
  0
SEQEND
  5
52
100
AcDbEntity
  8
KOT_sciana_zew
  0
POLYLINE
  5
53
100
AcDbEntity
  8
KOT_sciana_zew
  6
CONTINUOUS
370
18
100
AcDb2dPolyline
 66
1
 70
128
  0
VERTEX
  5
54
100
AcDbEntity
  8
KOT_sciana_zew
100
AcDbVertex
100
AcDb2dVertex
 10
8417615.58337153308
 20
5761385.55439420417
  0
VERTEX
  5
55
100
AcDbEntity
  8
KOT_sciana_zew
100
AcDbVertex
100
AcDb2dVertex
 10
8417614.47880380787
 20
5761386.2335129166
  0
SEQEND
  5
56
100
AcDbEntity
  8
KOT_sciana_zew
  0
POLYLINE
  5
57
100
AcDbEntity
  8
KOT_sciana_zew
  6
CONTINUOUS
370
18
100
AcDb2dPolyline
 66
1
 70
128
  0
VERTEX
  5
58
100
AcDbEntity
  8
KOT_sciana_zew
100
AcDbVertex
100
AcDb2dVertex
 10
8417611.76774492115
 20
5761387.9003467178
  0
VERTEX
  5
59
100
AcDbEntity
  8
KOT_sciana_zew
100
AcDbVertex
100
AcDb2dVertex
 10
8417611.17143588886
 20
5761388.26697396301
  0
SEQEND
  5
5A
100
AcDbEntity
  8
KOT_sciana_zew
  0
POLYLINE
  5
5B
100
AcDbEntity
  8
KOT_sciana_zew
  6
CONTINUOUS
370
18
100
AcDb2dPolyline
 66
1
 70
128
  0
VERTEX
  5
5C
100
AcDbEntity
  8
KOT_sciana_zew
100
AcDbVertex
100
AcDb2dVertex
 10
8417610.31956584007
 20
5761388.79072717205
  0
VERTEX
  5
5D
100
AcDbEntity
  8
KOT_sciana_zew
100
AcDbVertex
100
AcDb2dVertex
 10
8417609.85955601558
 20
5761389.07355390396
  0
VERTEX
  5
5E
100
AcDbEntity
  8
KOT_sciana_zew
100
AcDbVertex
100
AcDb2dVertex
 10
8417610.34140896611
 20
5761389.85727434698
  0
SEQEND
  5
5F
100
AcDbEntity
  8
KOT_sciana_zew
  0
POLYLINE
  5
60
100
AcDbEntity
  8
KOT_sciana_zew
  6
CONTINUOUS
370
18
100
AcDb2dPolyline
 66
1
 70
128
  0
VERTEX
  5
61
100
AcDbEntity
  8
KOT_sciana_zew
100
AcDbVertex
100
AcDb2dVertex
 10
8417617.38764914684
 20
5761393.71878950763
  0
VERTEX
  5
62
100
AcDbEntity
  8
KOT_sciana_zew
100
AcDbVertex
100
AcDb2dVertex
 10
8417623.4571881555
 20
5761389.98706946615
  0
VERTEX
  5
63
100
AcDbEntity
  8
KOT_sciana_zew
100
AcDbVertex
100
AcDb2dVertex
 10
8417619.44523858279
 20
5761383.46174490545
  0
VERTEX
  5
64
100
AcDbEntity
  8
KOT_sciana_zew
100
AcDbVertex
100
AcDb2dVertex
 10
8417617.74149848893
 20
5761384.50925132167
  0
SEQEND
  5
65
100
AcDbEntity
  8
KOT_sciana_zew
  0
POLYLINE
  5
66
100
AcDbEntity
  8
KOT_sciana_zew
  6
CONTINUOUS
370
18
100
AcDb2dPolyline
 66
1
 70
128
  0
VERTEX
  5
67
100
AcDbEntity
  8
KOT_sciana_zew
100
AcDbVertex
100
AcDb2dVertex
 10
8417615.69701037556
 20
5761385.76625902113
  0
VERTEX
  5
68
100
AcDbEntity
  8
KOT_sciana_zew
100
AcDbVertex
100
AcDb2dVertex
 10
8417614.60450457782
 20
5761386.43796172738
  0
SEQEND
  5
69
100
AcDbEntity
  8
KOT_sciana_zew
  0
POLYLINE
  5
6A
100
AcDbEntity
  8
KOT_sciana_zew
  6
CONTINUOUS
370
18
100
AcDb2dPolyline
 66
1
 70
128
  0
VERTEX
  5
6B
100
AcDbEntity
  8
KOT_sciana_zew
100
AcDbVertex
100
AcDb2dVertex
 10
8417611.89344569109
 20
5761388.10479552951
  0
VERTEX
  5
6C
100
AcDbEntity
  8
KOT_sciana_zew
100
AcDbVertex
100
AcDb2dVertex
 10
8417611.2971366588
 20
5761388.47142277472
  0
SEQEND
  5
6D
100
AcDbEntity
  8
KOT_sciana_zew
  0
POLYLINE
  5
6E
100
AcDbEntity
  8
KOT_sciana_zew
  6
CONTINUOUS
370
18
100
AcDb2dPolyline
 66
1
 70
128
  0
VERTEX
  5
6F
100
AcDbEntity
  8
KOT_sciana_zew
100
AcDbVertex
100
AcDb2dVertex
 10
8417610.44526661001
 20
5761388.99517598283
  0
VERTEX
  5
70
100
AcDbEntity
  8
KOT_sciana_zew
100
AcDbVertex
100
AcDb2dVertex
 10
8417610.18970559724
 20
5761389.15230194479
  0
VERTEX
  5
71
100
AcDbEntity
  8
KOT_sciana_zew
100
AcDbVertex
100
AcDb2dVertex
 10
8417610.54585777782
 20
5761389.73157357797
  0
SEQEND
  5
72
100
AcDbEntity
  8
KOT_sciana_zew
  0
POLYLINE
  5
73
100
AcDbEntity
  8
KOT_sciana_zew
  6
CONTINUOUS
370
18
100
AcDb2dPolyline
 66
1
 70
128
  0
VERTEX
  5
74
100
AcDbEntity
  8
KOT_sciana_zew
100
AcDbVertex
100
AcDb2dVertex
 10
8417611.74261955544
 20
5761391.67807337083
  0
VERTEX
  5
75
100
AcDbEntity
  8
KOT_sciana_zew
100
AcDbVertex
100
AcDb2dVertex
 10
8417612.06474208087
 20
5761392.20199671388
  0
SEQEND
  5
76
100
AcDbEntity
  8
KOT_sciana_zew
  0
POLYLINE
  5
77
100
AcDbEntity
  8
KOT_sciana_zew
  6
CONTINUOUS
370
18
100
AcDb2dPolyline
 66
1
 70
128
  0
VERTEX
  5
78
100
AcDbEntity
  8
KOT_sciana_zew
100
AcDbVertex
100
AcDb2dVertex
 10
8417612.19044285081
 20
5761392.40644552466
  0
VERTEX
  5
79
100
AcDbEntity
  8
KOT_sciana_zew
100
AcDbVertex
100
AcDb2dVertex
 10
8417612.21605687775
 20
5761392.44810602814
  0
SEQEND
  5
7A
100
AcDbEntity
  8
KOT_sciana_zew
  0
POLYLINE
  5
7B
100
AcDbEntity
  8
KOT_sciana_zew
  6
CONTINUOUS
370
18
100
AcDb2dPolyline
 66
1
 70
128
  0
VERTEX
  5
7C
100
AcDbEntity
  8
KOT_sciana_zew
100
AcDbVertex
100
AcDb2dVertex
 10
8417613.88738553599
 20
5761395.16647567321
  0
VERTEX
  5
7D
100
AcDbEntity
  8
KOT_sciana_zew
100
AcDbVertex
100
AcDb2dVertex
 10
8417614.20165516995
 20
5761395.67762650549
  0
VERTEX
  5
7E
100
AcDbEntity
  8
KOT_sciana_zew
100
AcDbVertex
100
AcDb2dVertex
 10
8417617.18320033513
 20
5761393.84449027758
  0
SEQEND
  5
7F
100
AcDbEntity
  8
KOT_sciana_zew
  0
POLYLINE
  5
80
100
AcDbEntity
  8
KOT_sciana_zew
  6
CONTINUOUS
370
18
100
AcDb2dPolyline
 66
1
 70
128
  0
VERTEX
  5
81
100
AcDbEntity
  8
KOT_sciana_zew
100
AcDbVertex
100
AcDb2dVertex
 10
8417612.19044285081
 20
5761392.40644552466
  0
VERTEX
  5
82
100
AcDbEntity
  8
KOT_sciana_zew
100
AcDbVertex
100
AcDb2dVertex
 10
8417615.171988016
 20
5761390.57330929674
  0
VERTEX
  5
83
100
AcDbEntity
  8
KOT_sciana_zew
100
AcDbVertex
100
AcDb2dVertex
 10
8417616.21949443221
 20
5761392.27704939153
  0
SEQEND
  5
84
100
AcDbEntity
  8
KOT_sciana_zew
  0
POLYLINE
  5
85
100
AcDbEntity
  8
KOT_sciana_zew
  6
CONTINUOUS
370
18
100
AcDb2dPolyline
 66
1
 70
128
  0
VERTEX
  5
86
100
AcDbEntity
  8
KOT_sciana_zew
100
AcDbVertex
100
AcDb2dVertex
 10
8417612.06474208087
 20
5761392.20199671388
  0
VERTEX
  5
87
100
AcDbEntity
  8
KOT_sciana_zew
100
AcDbVertex
100
AcDb2dVertex
 10
8417615.25073605776
 20
5761390.24315971602
  0
VERTEX
  5
88
100
AcDbEntity
  8
KOT_sciana_zew
100
AcDbVertex
100
AcDb2dVertex
 10
8417617.38764914684
 20
5761393.71878950763
  0
SEQEND
  5
89
100
AcDbEntity
  8
KOT_sciana_zew
  0
POLYLINE
  5
8A
100
AcDbEntity
  8
KOT_sciana_zew
  6
CONTINUOUS
370
18
100
AcDb2dPolyline
 66
1
 70
128
  0
VERTEX
  5
8B
100
AcDbEntity
  8
KOT_sciana_zew
100
AcDbVertex
100
AcDb2dVertex
 10
8417610.54585777782
 20
5761389.73157357797
  0
VERTEX
  5
8C
100
AcDbEntity
  8
KOT_sciana_zew
100
AcDbVertex
100
AcDb2dVertex
 10
8417610.34140896611
 20
5761389.85727434698
  0
SEQEND
  5
8D
100
AcDbEntity
  8
KOT_sciana_zew
  0
POLYLINE
  5
8E
100
AcDbEntity
  8
KOT_sciana_zew
  6
CONTINUOUS
370
18
100
AcDb2dPolyline
 66
1
 70
128
  0
VERTEX
  5
8F
100
AcDbEntity
  8
KOT_sciana_zew
100
AcDbVertex
100
AcDb2dVertex
 10
8417612.21605687775
 20
5761392.44810602814
  0
VERTEX
  5
90
100
AcDbEntity
  8
KOT_sciana_zew
100
AcDbVertex
100
AcDb2dVertex
 10
8417612.01160806604
 20
5761392.57380679809
  0
SEQEND
  5
91
100
AcDbEntity
  8
KOT_sciana_zew
  0
POLYLINE
  5
92
100
AcDbEntity
  8
KOT_sciana_zew
  6
CONTINUOUS
370
18
100
AcDb2dPolyline
 66
1
 70
128
  0
VERTEX
  5
93
100
AcDbEntity
  8
KOT_sciana_zew
100
AcDbVertex
100
AcDb2dVertex
 10
8417613.88738553785
 20
5761395.16647567134
  0
VERTEX
  5
94
100
AcDbEntity
  8
KOT_sciana_zew
100
AcDbVertex
100
AcDb2dVertex
 10
8417613.68293672614
 20
5761395.29217644129
  0
SEQEND
  5
95
100
AcDbEntity
  8
KOT_sciana_zew
  0
POLYLINE
  5
96
100
AcDbEntity
  8
KOT_sciana_zew
  6
CONTINUOUS
370
18
100
AcDb2dPolyline
 66
1
 70
128
  0
VERTEX
  5
97
100
AcDbEntity
  8
KOT_sciana_zew
100
AcDbVertex
100
AcDb2dVertex
 10
8417613.99720635824
 20
5761395.80332727544
  0
VERTEX
  5
98
100
AcDbEntity
  8
KOT_sciana_zew
100
AcDbVertex
100
AcDb2dVertex
 10
8417613.68293672241
 20
5761395.29217644502
  0
SEQEND
  5
99
100
AcDbEntity
  8
KOT_sciana_zew
  0
POLYLINE
  5
9A
100
AcDbEntity
  8
KOT_sciana_zew
  6
CONTINUOUS
370
18
100
AcDb2dPolyline
 66
1
 70
129
  0
VERTEX
  5
9B
100
AcDbEntity
  8
KOT_sciana_zew
100
AcDbVertex
100
AcDb2dVertex
 10
8417614.60450457782
 20
5761386.43796172738
  0
VERTEX
  5
9C
100
AcDbEntity
  8
KOT_sciana_zew
100
AcDbVertex
100
AcDb2dVertex
 10
8417615.03043960221
 20
5761386.17608512379
  0
VERTEX
  5
9D
100
AcDbEntity
  8
KOT_sciana_zew
100
AcDbVertex
100
AcDb2dVertex
 10
8417614.90473883226
 20
5761385.97163631208
  0
VERTEX
  5
9E
100
AcDbEntity
  8
KOT_sciana_zew
100
AcDbVertex
100
AcDb2dVertex
 10
8417614.47880380787
 20
5761386.2335129166
  0
SEQEND
  5
9F
100
AcDbEntity
  8
KOT_sciana_zew
  0
POLYLINE
  5
A0
100
AcDbEntity
  8
KOT_sciana_zew
  6
CONTINUOUS
370
18
100
AcDb2dPolyline
 66
1
 70
129
  0
VERTEX
  5
A1
100
AcDbEntity
  8
KOT_sciana_zew
100
AcDbVertex
100
AcDb2dVertex
 10
8417618.74215492047
 20
5761393.16773509979
  0
VERTEX
  5
A2
100
AcDbEntity
  8
KOT_sciana_zew
100
AcDbVertex
100
AcDb2dVertex
 10
8417619.16808994487
 20
5761392.90585849527
  0
VERTEX
  5
A3
100
AcDbEntity
  8
KOT_sciana_zew
100
AcDbVertex
100
AcDb2dVertex
 10
8417619.04238917492
 20
5761392.70140968449
  0
VERTEX
  5
A4
100
AcDbEntity
  8
KOT_sciana_zew
100
AcDbVertex
100
AcDb2dVertex
 10
8417618.61645415053
 20
5761392.96328628808
  0
SEQEND
  5
A5
100
AcDbEntity
  8
KOT_sciana_zew
  0
POLYLINE
  5
A6
100
AcDbEntity
  8
KOT_sciana_zew
  6
CONTINUOUS
370
18
100
AcDb2dPolyline
 66
1
 70
129
  0
VERTEX
  5
A7
100
AcDbEntity
  8
KOT_sciana_zew
100
AcDbVertex
100
AcDb2dVertex
 10
8417613.93793380447
 20
5761386.84778783005
  0
VERTEX
  5
A8
100
AcDbEntity
  8
KOT_sciana_zew
100
AcDbVertex
100
AcDb2dVertex
 10
8417614.60450457782
 20
5761386.43796172738
  0
VERTEX
  5
A9
100
AcDbEntity
  8
KOT_sciana_zew
100
AcDbVertex
100
AcDb2dVertex
 10
8417614.47880380787
 20
5761386.2335129166
  0
VERTEX
  5
AA
100
AcDbEntity
  8
KOT_sciana_zew
100
AcDbVertex
100
AcDb2dVertex
 10
8417613.81223303452
 20
5761386.64333901834
  0
SEQEND
  5
AB
100
AcDbEntity
  8
KOT_sciana_zew
  0
POLYLINE
  5
AC
100
AcDbEntity
  8
KOT_sciana_zew
  6
CONTINUOUS
370
18
100
AcDb2dPolyline
 66
1
 70
129
  0
VERTEX
  5
AD
100
AcDbEntity
  8
KOT_sciana_zew
100
AcDbVertex
100
AcDb2dVertex
 10
8417621.32027506642
 20
5761386.51143967453
  0
VERTEX
  5
AE
100
AcDbEntity
  8
KOT_sciana_zew
100
AcDbVertex
100
AcDb2dVertex
 10
8417621.58215167187
 20
5761386.937374698
  0
VERTEX
  5
AF
100
AcDbEntity
  8
KOT_sciana_zew
100
AcDbVertex
100
AcDb2dVertex
 10
8417621.78660048172
 20
5761386.81167392805
  0
VERTEX
  5
B0
100
AcDbEntity
  8
KOT_sciana_zew
100
AcDbVertex
100
AcDb2dVertex
 10
8417621.52472387813
 20
5761386.38573890459
  0
SEQEND
  5
B1
100
AcDbEntity
  8
KOT_sciana_zew
  0
POLYLINE
  5
B2
100
AcDbEntity
  8
KOT_sciana_zew
  6
CONTINUOUS
370
18
100
AcDb2dPolyline
 66
1
 70
129
  0
VERTEX
  5
B3
100
AcDbEntity
  8
KOT_sciana_zew
100
AcDbVertex
100
AcDb2dVertex
 10
8417611.59841666557
 20
5761391.90176246036
  0
VERTEX
  5
B4
100
AcDbEntity
  8
KOT_sciana_zew
100
AcDbVertex
100
AcDb2dVertex
 10
8417611.86029327102
 20
5761392.32769748382
  0
VERTEX
  5
B5
100
AcDbEntity
  8
KOT_sciana_zew
100
AcDbVertex
100
AcDb2dVertex
 10
8417612.06474208087
 20
5761392.20199671388
  0
VERTEX
  5
B6
100
AcDbEntity
  8
KOT_sciana_zew
100
AcDbVertex
100
AcDb2dVertex
 10
8417611.80286547728
 20
5761391.77606169041
  0
SEQEND
  5
B7
100
AcDbEntity
  8
KOT_sciana_zew
  0
POLYLINE
  5
B8
100
AcDbEntity
  8
_Agat_sciana
  6
CONTINUOUS
370
18
100
AcDb2dPolyline
 66
1
 70
128
  0
VERTEX
  5
B9
100
AcDbEntity
  8
_Agat_sciana
100
AcDbVertex
100
AcDb2dVertex
 10
8417616.761982942
 20
5761378.2477948023
  0
VERTEX
  5
BA
100
AcDbEntity
  8
_Agat_sciana
100
AcDbVertex
100
AcDb2dVertex
 10
8417624.07199162617
 20
5761390.13732091337
  0
SEQEND
  5
BB
100
AcDbEntity
  8
_Agat_sciana
  0
INSERT
  5
BC
100
AcDbEntity
  8
KOT_osie
  6
CONTINUOUS
100
AcDbBlockReference
 66
1
  2
pikieta
 10
8417610.02463080734
 20
5761389.11292792577
 41
0.10
 42
0.10
 43
0.10
 50
0.00
  0
ATTRIB
  5
BD
100
AcDbEntity
  8
KOT_osie
100
AcDbText
 10
8417610.02463080734
 20
5761389.11292792577
 40
0.2
  1
A1
 50
0.00
 41
0.62
 51
0.00
  7
STANDARD
100
AcDbAttribute
  2
Nr
 70
0
  0
SEQEND
  5
BE
100
AcDbEntity
  8
KOT_osie
  0
INSERT
  5
BF
100
AcDbEntity
  8
KOT_osie
  6
CONTINUOUS
100
AcDbBlockReference
 66
1
  2
pikieta
 10
8417614.16228114627
 20
5761395.84270129818
 41
0.10
 42
0.10
 43
0.10
 50
0.00
  0
ATTRIB
  5
C0
100
AcDbEntity
  8
KOT_osie
100
AcDbText
 10
8417614.16228114627
 20
5761395.84270129818
 40
0.2
  1
B1
 50
0.00
 41
0.62
 51
0.00
  7
STANDARD
100
AcDbAttribute
  2
Nr
 70
0
  0
SEQEND
  5
C1
100
AcDbEntity
  8
KOT_osie
  0
INSERT
  5
C2
100
AcDbEntity
  8
KOT_osie
  6
CONTINUOUS
100
AcDbBlockReference
 66
1
  2
pikieta
 10
8417623.62226294354
 20
5761390.02644348796
 41
0.10
 42
0.10
 43
0.10
 50
0.00
  0
ATTRIB
  5
C3
100
AcDbEntity
  8
KOT_osie
100
AcDbText
 10
8417623.62226294354
 20
5761390.02644348796
 40
0.2
  1
B2
 50
0.00
 41
0.62
 51
0.00
  7
STANDARD
100
AcDbAttribute
  2
Nr
 70
0
  0
SEQEND
  5
C4
100
AcDbEntity
  8
KOT_osie
  0
INSERT
  5
C5
100
AcDbEntity
  8
KOT_osie
  6
CONTINUOUS
100
AcDbBlockReference
 66
1
  2
pikieta
 10
8417619.48461260274
 20
5761383.29667011369
 41
0.10
 42
0.10
 43
0.10
 50
0.00
  0
ATTRIB
  5
C6
100
AcDbEntity
  8
KOT_osie
100
AcDbText
 10
8417619.48461260274
 20
5761383.29667011369
 40
0.2
  1
A2
 50
0.00
 41
0.62
 51
0.00
  7
STANDARD
100
AcDbAttribute
  2
Nr
 70
0
  0
SEQEND
  5
C7
100
AcDbEntity
  8
KOT_osie
  0
TEXT
  5
C8
100
AcDbEntity
  8
KOT_osie
370
9
100
AcDbText
 39
0.09
 10
8417817.80951287039
 20
5761727.36510590091
 40
0.10
  1
1
 50
-31.60
 41
0.66
  7
STANDARD
 72
0
 11
8417817.86191146076
 21
5761727.45027859416
100
AcDbText
 73
3
  0
TEXT
  5
C9
100
AcDbEntity
  8
KOT_osie
370
9
100
AcDbText
 39
0.09
 10
8417827.26949466765
 20
5761721.54884809162
 40
0.10
  1
2
 50
-31.60
 41
0.66
  7
STANDARD
 72
0
 11
8417827.32189325802
 21
5761721.63402078487
100
AcDbText
 73
3
  0
TEXT
  5
CA
100
AcDbEntity
  8
KOT_osie
370
18
100
AcDbText
 39
0.18
 10
8417606.90700000152
 20
5761390.93200000189
 40
0.18
  1
A
 50
0.00
 41
0.66
 51
15.00
  7
STANDARD
 72
0
 11
8417606.90700000152
 21
5761391.11200000159
100
AcDbText
 73
3
  0
TEXT
  5
CB
100
AcDbEntity
  8
KOT_osie
370
18
100
AcDbText
 39
0.18
 10
8417611.05500000156
 20
5761397.65800000168
 40
0.18
  1
B
 50
0.00
 41
0.66
 51
15.00
  7
STANDARD
 72
0
 11
8417611.05500000156
 21
5761397.83800000139
100
AcDbText
 73
3
  0
TEXT
  5
CC
100
AcDbEntity
  8
KOT_osie
370
18
100
AcDbText
 39
0.18
 10
8417608.51000000164
 20
5761386.68900000211
 40
0.18
  1
1
 50
0.00
 41
0.66
 51
15.00
  7
STANDARD
 72
0
 11
8417608.51000000164
 21
5761386.86900000181
100
AcDbText
 73
3
  0
TEXT
  5
CD
100
AcDbEntity
  8
KOT_osie
370
18
100
AcDbText
 39
0.18
 10
8417618.00200000219
 20
5761380.8860000018
 40
0.18
  1
2
 50
0.00
 41
0.66
 51
15.00
  7
STANDARD
 72
0
 11
8417618.00200000219
 21
5761381.0660000015
100
AcDbText
 73
3
  0
TEXT
  5
CE
100
AcDbEntity
  8
OPISY
370
9
100
AcDbText
 39
0.09
 10
8417753.59780063853
 20
5761597.57169838902
 40
0.10
  1
IPE 400
 50
-31.60
 41
0.66
  7
STANDARD
 72
0
 11
8417753.6501992289
 21
5761597.65687108226
100
AcDbText
 73
3
  0
TEXT
  5
CF
100
AcDbEntity
  8
OPISY
370
9
100
AcDbText
 39
0.09
 10
8417746.32897984423
 20
5761597.93803073
 40
0.10
  1
IPE 220
 50
-31.60
 41
0.66
  7
STANDARD
 72
0
 11
8417746.3813784346
 21
5761598.02320342325
100
AcDbText
 73
3
  0
TEXT
  5
D0
100
AcDbEntity
  8
OPISY
370
9
100
AcDbText
 39
0.09
 10
8417746.86138000153
 20
5761598.82801372092
 40
0.10
  1
IPE 220
 50
-31.60
 41
0.66
  7
STANDARD
 72
0
 11
8417746.9137785919
 21
5761598.91318641417
100
AcDbText
 73
3
  0
TEXT
  5
D1
100
AcDbEntity
  8
OPISY
370
9
100
AcDbText
 39
0.09
 10
8417747.84826105833
 20
5761599.89368918259
 40
0.10
  1
IPE 360
 50
-31.60
 41
0.66
  7
STANDARD
 72
0
 11
8417747.9006596487
 21
5761599.97886187583
100
AcDbText
 73
3
  0
TEXT
  5
D2
100
AcDbEntity
  8
OPISY
370
9
100
AcDbText
 39
0.09
 10
8417745.52798657119
 20
5761596.71609329618
 40
0.10
  1
IPE 360
 50
-31.60
 41
0.66
  7
STANDARD
 72
0
 11
8417745.58038516156
 21
5761596.80126598943
100
AcDbText
 73
3
  0
TEXT
  5
D3
100
AcDbEntity
  8
OPISY
370
9
100
AcDbText
 39
0.09
 10
8417749.42529232986
 20
5761597.23601494078
 40
0.10
  1
IPE 220
 50
-31.60
 41
0.66
  7
STANDARD
 72
0
 11
8417749.47769092023
 21
5761597.32118763402
100
AcDbText
 73
3
  0
TEXT
  5
D4
100
AcDbEntity
  8
OPISY
370
9
100
AcDbText
 39
0.09
 10
8417749.08104972914
 20
5761596.2788054822
 40
0.10
  1
IPE 220
 50
-31.60
 41
0.66
  7
STANDARD
 72
0
 11
8417749.13344831951
 21
5761596.36397817545
100
AcDbText
 73
3
  0
TEXT
  5
D5
100
AcDbEntity
  8
OPISY
370
9
100
AcDbText
 39
0.09
 10
8417744.05277682468
 20
5761598.93726808298
 40
0.10
  1
IPE 160
 50
-31.60
 41
0.66
  7
STANDARD
 72
0
 11
8417744.10517541505
 21
5761599.02244077623
100
AcDbText
 73
3
  0
TEXT
  5
D6
100
AcDbEntity
  8
OPISY
370
9
100
AcDbText
 39
0.09
 10
8417751.01529251784
 20
5761597.94651086442
 40
0.10
  1
IPE 360
 50
-31.60
 41
0.66
  7
STANDARD
 72
0
 11
8417751.06769110821
 21
5761598.03168355767
100
AcDbText
 73
3
  0
TEXT
  5
D7
100
AcDbEntity
  8
OPISY
370
9
100
AcDbText
 39
0.09
 10
8417751.11896550283
 20
5761594.3940234948
 40
0.10
  1
IPE 360
 50
-31.60
 41
0.66
  7
STANDARD
 72
0
 11
8417751.1713640932
 21
5761594.47919618804
100
AcDbText
 73
3
  0
TEXT
  5
D8
100
AcDbEntity
  8
OPISY
370
9
100
AcDbText
 39
0.09
 10
8417751.93629946932
 20
5761595.61948291771
 40
0.10
  1
IPE 160
 50
-31.60
 41
0.66
  7
STANDARD
 72
0
 11
8417751.98869805969
 21
5761595.70465561096
100
AcDbText
 73
3
  0
ENDSEC
  0
SECTION
  2
OBJECTS
  0
DICTIONARY
  5
D9
330
0
100
AcDbDictionary
280
0
281
1
  3
ACAD_GROUP
350
DA
  3
ACAD_LAYOUT
350
DB
  3
ACAD_MLINESTYLE
350
DC
  3
ACAD_PLOTSETTINGS
350
DD
  3
ACAD_PLOTSTYLENAME
350
DE
  0
DICTIONARY
  5
DA
102
{ACAD_REACTORS
330
D9
102
}
330
D9
100
AcDbDictionary
280
0
281
1
  0
DICTIONARY
  5
DB
102
{ACAD_REACTORS
330
D9
102
}
330
D9
100
AcDbDictionary
280
0
281
1
  3
Layout
350
1F
  3
Model
350
1D
  0
DICTIONARY
  5
DC
102
{ACAD_REACTORS
330
D9
102
}
330
D9
100
AcDbDictionary
280
0
281
1
  3
Standard
350
DF
  0
DICTIONARY
  5
DD
102
{ACAD_REACTORS
330
D9
102
}
330
D9
100
AcDbDictionary
280
0
281
1
  0
ACDBDICTIONARYWDFLT
  5
DE
102
{ACAD_REACTORS
330
D9
102
}
330
D9
100
AcDbDictionary
281
1
  3
Normal
350
9
100
AcDbDictionaryWithDefault
340
9
  0
LAYOUT
  5
1F
100
AcDbPlotSettings
  1

  2

  4

  6

 40
0.0
 41
0.0
 42
0.0
 43
0.0
 44
0.0
 45
0.0
 46
0.0
 47
0.0
 48
0.0
 49
0.0
140
0.0
141
0.0
142
1.0
143
1.0
 70
688
 72
1
 73
0
 74
5
  7

 75
0
147
1.0
148
0.0
149
0.0
100
AcDbLayout
  1
Layout
 70
1
 71
1
 10
0.0
 20
0.0
 11
420.0
 21
297.0
 12
0.0
 22
0.0
 32
0.0
 14
100000000000000000000.0
 24
100000000000000000000.0
 34
100000000000000000000.0
 15
-100000000000000000000.0
 25
-100000000000000000000.0
 35
-100000000000000000000.0
146
0.0
 13
0.0
 23
0.0
 33
0.0
 16
1.0
 26
0.0
 36
0.0
 17
0.0
 27
1.0
 37
0.0
 76
0
330
1E
  0
LAYOUT
  5
1D
100
AcDbPlotSettings
  1

  2

  4

  6

 40
0.0
 41
0.0
 42
0.0
 43
0.0
 44
0.0
 45
0.0
 46
0.0
 47
0.0
 48
0.0
 49
0.0
140
0.0
141
0.0
142
1.0
143
1.0
 70
1712
 72
1
 73
0
 74
0
  7

 75
0
147
1.0
148
0.0
149
0.0
100
AcDbLayout
  1
Model
 70
1
 71
0
 10
0.0
 20
0.0
 11
12.0
 21
9.0
 12
0.0
 22
0.0
 32
0.0
 14
0.0
 24
0.0
 34
0.0
 15
0.0
 25
0.0
 35
0.0
146
0.0
 13
0.0
 23
0.0
 33
0.0
 16
1.0
 26
0.0
 36
0.0
 17
0.0
 27
1.0
 37
0.0
 76
0
330
1C
  0
MLINESTYLE
  5
DF
102
{ACAD_REACTORS
330
DC
102
}
330
DC
100
AcDbMlineStyle
  2
Standard
 70
0
  3

 62
256
 51
90.0
 52
90.0
  2
Standard
 71
2
 49
0.5
 62
256
  6
ByLayer
 49
-0.5
 62
256
  6
ByLayer
  0
ACDBPLACEHOLDER
  5
9
  0
ENDSEC
  0
EOF
