  0
SECTION
  2
HEADER
  9
$ACADVER
  1
AC1018
  9
$HANDSEED
  5
FFFFFF
  9
$EXTMAX
 10
8412637.28
 20
5787175.07
 30
1000000.00
  9
$EXTMIN
 10
8412533.36
 20
5787025.25
 30
0.00
  9
$LIMMIN
 10
8412533.36
 20
5787025.25
  9
$LIMMAX
 10
8412637.28
 20
5787175.07
  9
$DIMASZ
 40
2.5
  9
$DIMGAP
 40
0.625
  9
$INSUNITS
 70
6
  9
$DIMEXO
 40
0.625
  9
$DIMTXT
 40
2.5
  9
$DIMSTYLE
  2
Standard
  9
$PLIMMIN
 10
0.0
 20
0.0
  9
$PLIMMAX
 10
210.0
 20
297.0
  9
$DIMEXE
 40
1.25
  9
$TEXTSIZE
 40
2.5
  9
$TEXTSTYLE
  7
Standard
  9
$LWDISPLAY
290
1
  9
$TDCREATE
 40
43684.970912257
  9
$TDUCREATE
 40
43684.887578924
  9
$TDUPDATE
 40
43684.970912257
  9
$TDUUPDATE
 40
43684.887578924
  9
$TDINDWG
 40
0.0
  9
$TDUSRTIMER
 40
0.0
  9
$USRTIMER
 70
1
  0
ENDSEC
  0
SECTION
  2
TABLES
  0
TABLE
  2
VPORT
  5
1
100
AcDbSymbolTable
 70
1
  0
VPORT
  5
2
100
AcDbSymbolTableRecord
100
AcDbViewportTableRecord
  2
*ACTIVE
 70
0
 10
0.0
 20
0.0
 11
1.0
 21
1.0
 12
8412585.32
 22
5787100.16
 13
0.0
 23
0.0
 14
1.0
 24
1.0
 15
0.0
 25
0.0
 16
0.0
 26
0.0
 36
1.0
 17
0.0
 27
0.0
 37
0.0
 40
149.82
 41
0.69
 42
50.0
 43
0.0
 44
0.0
 50
0.0
 51
0.0
 71
0
 72
100
 73
1
 74
1
 75
0
 76
0
 77
0
 78
0
  0
ENDTAB
  0
TABLE
  2
LTYPE
  5
3
100
AcDbSymbolTable
 70
3
  0
LTYPE
  5
4
100
AcDbSymbolTableRecord
100
AcDbLinetypeTableRecord
  2
ByBlock
 70
0
  3

 72
65
 73
0
 40
0.0
  0
LTYPE
  5
5
100
AcDbSymbolTableRecord
100
AcDbLinetypeTableRecord
  2
ByLayer
 70
0
  3

 72
65
 73
0
 40
0.0
  0
LTYPE
  5
6
100
AcDbSymbolTableRecord
100
AcDbLinetypeTableRecord
  2
CONTINUOUS
 70
0
  3
Solid line
 72
65
 73
0
 40
0.0
  0
LTYPE
  5
8
100
AcDbSymbolTableRecord
100
AcDbLinetypeTableRecord
  2
L_0_02
 70
0
  3
Dzialka_ewidencyjna (MLineStyle)
 72
65
 73
0
 40
0.0
  0
LTYPE
  5
9
100
AcDbSymbolTableRecord
100
AcDbLinetypeTableRecord
  2
L_0_03
 70
0
  3
Uzytek_gruntowy
 72
65
 73
3
 40
1.0
 49
-0.25
 74
0
 49
0.5
 74
0
 49
-0.25
 74
0
  0
LTYPE
  5
A
100
AcDbSymbolTableRecord
100
AcDbLinetypeTableRecord
  2
L_0_04
 70
0
  3
Budynek_projektowany
 72
65
 73
2
 40
1.5
 49
1.0
 74
0
 49
-0.5
 74
0
  0
ENDTAB
  0
TABLE
  2
LAYER
  5
B
100
AcDbSymbolTable
 70
20
  0
LAYER
  5
C
100
AcDbSymbolTableRecord
100
AcDbLayerTableRecord
  2
0
 70
0
420
0
  6
CONTINUOUS
370
18
390
D
  0
LAYER
  5
E
100
AcDbSymbolTableRecord
100
AcDbLayerTableRecord
  2
chodnik_z__kostki
 70
0
420
16711680
  6
CONTINUOUS
370
18
390
D
  0
LAYER
  5
F
100
AcDbSymbolTableRecord
100
AcDbLayerTableRecord
  2
Defpoints
 70
0
420
0
  6
CONTINUOUS
370
18
390
D
  0
LAYER
  5
10
100
AcDbSymbolTableRecord
100
AcDbLayerTableRecord
  2
dzialki
 70
0
420
0
  6
L_0_02
370
25
390
D
  0
LAYER
  5
11
100
AcDbSymbolTableRecord
100
AcDbLayerTableRecord
  2
kraweznik__obnizony___3cm
 70
0
420
255
  6
L_0_04
370
35
390
D
  0
LAYER
  5
12
100
AcDbSymbolTableRecord
100
AcDbLayerTableRecord
  2
kraweznik_10cm
 70
0
420
255
  6
CONTINUOUS
370
35
390
D
  0
LAYER
  5
13
100
AcDbSymbolTableRecord
100
AcDbLayerTableRecord
  2
krawezniki__2
 70
0
420
0
  6
L_0_03
370
35
390
D
  0
LAYER
  5
14
100
AcDbSymbolTableRecord
100
AcDbLayerTableRecord
  2
napisy
 70
0
420
0
  6
CONTINUOUS
370
13
390
D
  0
LAYER
  5
15
100
AcDbSymbolTableRecord
100
AcDbLayerTableRecord
  2
obrzeze_obramowanie_chodnika
 70
0
420
13395456
  6
CONTINUOUS
370
25
390
D
  0
LAYER
  5
16
100
AcDbSymbolTableRecord
100
AcDbLayerTableRecord
  2
os
 70
0
420
16711680
  6
CONTINUOUS
370
50
390
D
  0
LAYER
  5
17
100
AcDbSymbolTableRecord
100
AcDbLayerTableRecord
  2
planowana__granica__pasa
 70
0
420
65471
  6
L_0_03
370
13
390
D
  0
LAYER
  5
18
100
AcDbSymbolTableRecord
100
AcDbLayerTableRecord
  2
PP_Opisy_tab
 70
0
420
0
  6
CONTINUOUS
370
18
390
D
  0
LAYER
  5
19
100
AcDbSymbolTableRecord
100
AcDbLayerTableRecord
  2
przestawienie_kraweznika
 70
0
420
255
  6
CONTINUOUS
370
35
390
D
  0
LAYER
  5
1A
100
AcDbSymbolTableRecord
100
AcDbLayerTableRecord
  2
TT_OpisLukiKlotki
 70
0
420
0
  6
CONTINUOUS
370
18
390
D
  0
LAYER
  5
1B
100
AcDbSymbolTableRecord
100
AcDbLayerTableRecord
  2
zjazd_z__kostki
 70
0
420
8421504
  6
CONTINUOUS
370
13
390
D
  0
LAYER
  5
1C
100
AcDbSymbolTableRecord
100
AcDbLayerTableRecord
  2
_MF_granica
 70
0
420
2529536
  6
CONTINUOUS
370
18
390
D
  0
LAYER
  5
1D
100
AcDbSymbolTableRecord
100
AcDbLayerTableRecord
  2
_MF_granica_pasa
 70
0
420
2064128
  6
CONTINUOUS
370
13
390
D
  0
LAYER
  5
1E
100
AcDbSymbolTableRecord
100
AcDbLayerTableRecord
  2
_MF_kraweznik
 70
0
420
16711935
  6
CONTINUOUS
370
35
390
D
  0
LAYER
  5
1F
100
AcDbSymbolTableRecord
100
AcDbLayerTableRecord
  2
_MF_obrzeze
 70
0
420
10027008
  6
L_0_03
370
35
390
D
  0
LAYER
  5
20
100
AcDbSymbolTableRecord
100
AcDbLayerTableRecord
  2
_pobocze
 70
0
420
13415014
  6
CONTINUOUS
370
35
390
D
  0
ENDTAB
  0
TABLE
  2
STYLE
  5
21
100
AcDbSymbolTable
 70
3
  0
STYLE
  5
22
100
AcDbSymbolTableRecord
100
AcDbTextStyleTableRecord
  2
STANDARD
 70
0
 40
0.0
 41
1.0
 50
0.0
 71
0
  3
simplex.shx
  4

  0
STYLE
  5
23
100
AcDbSymbolTableRecord
100
AcDbTextStyleTableRecord
  2
STANDARD_ITALIC
 70
0
 40
0.0
 41
1.0
 50
15.0
 71
0
  3
simplex.shx
  4

  0
STYLE
  5
24
100
AcDbSymbolTableRecord
100
AcDbTextStyleTableRecord
  2
arial.ttf
 70
0
 40
0.0
 41
1.0
 50
0.0
 71
0
  3
arial.ttf.ttf
  4

  0
ENDTAB
  0
TABLE
  2
VIEW
  5
25
100
AcDbSymbolTable
 70
0
  0
ENDTAB
  0
TABLE
  2
UCS
  5
26
100
AcDbSymbolTable
 70
0
  0
ENDTAB
  0
TABLE
  2
APPID
  5
27
100
AcDbSymbolTable
 70
1
  0
APPID
  5
28
100
AcDbSymbolTableRecord
100
AcDbRegAppTableRecord
  2
ACAD
 70
0
  0
ENDTAB
  0
TABLE
  2
DIMSTYLE
  5
29
100
AcDbSymbolTable
 70
1
100
AcDbDimStyleTable
  0
DIMSTYLE
105
2A
100
AcDbSymbolTableRecord
100
AcDbDimStyleTableRecord
  2
Standard
 70
0
340
22
  0
ENDTAB
  0
TABLE
  2
BLOCK_RECORD
  5
2B
100
AcDbSymbolTable
 70
4
  0
BLOCK_RECORD
  5
2C
100
AcDbSymbolTableRecord
100
AcDbBlockTableRecord
  2
*Model_Space
340
2D
  0
BLOCK_RECORD
  5
2E
100
AcDbSymbolTableRecord
100
AcDbBlockTableRecord
  2
*Paper_Space
340
2F
  0
BLOCK_RECORD
  5
30
100
AcDbSymbolTableRecord
100
AcDbBlockTableRecord
  2
L_0_02_1
340
31
  0
BLOCK_RECORD
  5
32
100
AcDbSymbolTableRecord
100
AcDbBlockTableRecord
  2
L_0_02_2
340
33
  0
ENDTAB
  0
ENDSEC
  0
SECTION
  2
BLOCKS
  0
BLOCK
  5
34
100
AcDbEntity
  8
0
100
AcDbBlockBegin
  2
*Model_Space
 70
0
 10
0.0
 20
0.0
 30
0.0
  3
*Model_Space
  1

  0
ENDBLK
  5
35
100
AcDbEntity
  8
0
100
AcDbBlockEnd
  0
BLOCK
  5
36
100
AcDbEntity
 67
1
  8
0
100
AcDbBlockBegin
  2
*Paper_Space
 70
0
 10
0.0
 20
0.0
 30
0.0
  3
*Paper_Space
  1

  0
ENDBLK
  5
37
100
AcDbEntity
 67
1
  8
0
100
AcDbBlockEnd
  0
BLOCK
  5
31
100
AcDbEntity
  8
0
100
AcDbBlockBegin
 62
0
370
13
  2
L_0_02_1
 70
0
 10
0
 20
0
 30
0
  3
L_0_02_1
  0
POINT
  5
38
100
AcDbEntity
  8
0
100
AcDbPoint
 62
0
 10
0.0
 20
0.0
 30
0.000
  0
ENDBLK
  5
39
100
AcDbEntity
  8
0
100
AcDbBlockEnd
  0
BLOCK
  5
33
100
AcDbEntity
  8
0
100
AcDbBlockBegin
 62
0
370
13
  2
L_0_02_2
 70
0
 10
0
 20
0
 30
0
  3
L_0_02_2
  0
POINT
  5
3A
100
AcDbEntity
  8
0
100
AcDbPoint
 62
0
 10
-0.0
 20
-0.0
 30
0.000
  0
ENDBLK
  5
3B
100
AcDbEntity
  8
0
100
AcDbBlockEnd
  0
ENDSEC
  0
SECTION
  2
ENTITIES
  0
POLYLINE
  5
3C
100
AcDbEntity
  8
chodnik_z__kostki
  6
CONTINUOUS
420
16711680
370
18
100
AcDb3dPolyline
 66
1
 70
136
  0
VERTEX
  5
3D
100
AcDbEntity
  8
chodnik_z__kostki
100
AcDbVertex
100
AcDb3dPolylineVertex
 10
8412581.84762907008
 20
5787072.2187084416
 30
0.000
 70
32
  0
VERTEX
  5
3E
100
AcDbEntity
  8
chodnik_z__kostki
100
AcDbVertex
100
AcDb3dPolylineVertex
 10
8412581.14571055616
 20
5787072.42495706752
 30
0.000
 70
32
  0
SEQEND
  5
3F
100
AcDbEntity
  8
chodnik_z__kostki
  0
POLYLINE
  5
40
100
AcDbEntity
  8
chodnik_z__kostki
  6
CONTINUOUS
420
16776960
370
18
100
AcDb3dPolyline
 66
1
 70
136
  0
VERTEX
  5
41
100
AcDbEntity
  8
chodnik_z__kostki
100
AcDbVertex
100
AcDb3dPolylineVertex
 10
8412592.90362842368
 20
5787112.219542208
 30
0.000
 70
32
  0
VERTEX
  5
42
100
AcDbEntity
  8
chodnik_z__kostki
100
AcDbVertex
100
AcDb3dPolylineVertex
 10
8412592.45647715328
 20
5787112.32599297024
 30
0.000
 70
32
  0
SEQEND
  5
43
100
AcDbEntity
  8
chodnik_z__kostki
  0
POLYLINE
  5
44
100
AcDbEntity
  8
chodnik_z__kostki
  6
CONTINUOUS
420
16711680
370
18
100
AcDb3dPolyline
 66
1
 70
136
  0
VERTEX
  5
45
100
AcDbEntity
  8
chodnik_z__kostki
100
AcDbVertex
100
AcDb3dPolylineVertex
 10
8412580.73933128576
 20
5787071.0419411392
 30
0.000
 70
32
  0
VERTEX
  5
46
100
AcDbEntity
  8
chodnik_z__kostki
100
AcDbVertex
100
AcDb3dPolylineVertex
 10
8412581.14571055616
 20
5787072.42495706752
 30
0.000
 70
32
  0
SEQEND
  5
47
100
AcDbEntity
  8
chodnik_z__kostki
  0
POLYLINE
  5
48
100
AcDbEntity
  8
chodnik_z__kostki
  6
CONTINUOUS
420
16711680
370
18
100
AcDb3dPolyline
 66
1
 70
136
  0
VERTEX
  5
49
100
AcDbEntity
  8
chodnik_z__kostki
100
AcDbVertex
100
AcDb3dPolylineVertex
 10
8412581.14571055616
 20
5787072.42495706752
 30
0.000
 70
32
  0
VERTEX
  5
4A
100
AcDbEntity
  8
chodnik_z__kostki
100
AcDbVertex
100
AcDb3dPolylineVertex
 10
8412581.84762907008
 20
5787072.2187084416
 30
0.000
 70
32
  0
SEQEND
  5
4B
100
AcDbEntity
  8
chodnik_z__kostki
  0
POLYLINE
  5
4C
100
AcDbEntity
  8
chodnik_z__kostki
  6
CONTINUOUS
420
16711680
370
18
100
AcDb3dPolyline
 66
1
 70
137
  0
VERTEX
  5
4D
100
AcDbEntity
  8
chodnik_z__kostki
100
AcDbVertex
100
AcDb3dPolylineVertex
 10
8412588.3617440384
 20
5787093.18128078848
 30
0.000
 70
32
  0
VERTEX
  5
4E
100
AcDbEntity
  8
chodnik_z__kostki
100
AcDbVertex
100
AcDb3dPolylineVertex
 10
8412594.32992127488
 20
5787111.75573305344
 30
0.000
 70
32
  0
VERTEX
  5
4F
100
AcDbEntity
  8
chodnik_z__kostki
100
AcDbVertex
100
AcDb3dPolylineVertex
 10
8412594.22718310528
 20
5787111.79676740736
 30
0.000
 70
32
  0
VERTEX
  5
50
100
AcDbEntity
  8
chodnik_z__kostki
100
AcDbVertex
100
AcDb3dPolylineVertex
 10
8412592.54643995648
 20
5787112.30457603712
 30
0.000
 70
32
  0
VERTEX
  5
51
100
AcDbEntity
  8
chodnik_z__kostki
100
AcDbVertex
100
AcDb3dPolylineVertex
 10
8412592.45647715328
 20
5787112.32599297024
 30
0.000
 70
32
  0
VERTEX
  5
52
100
AcDbEntity
  8
chodnik_z__kostki
100
AcDbVertex
100
AcDb3dPolylineVertex
 10
8412586.47200957184
 20
5787093.7647400064
 30
0.000
 70
32
  0
SEQEND
  5
53
100
AcDbEntity
  8
chodnik_z__kostki
  0
POLYLINE
  5
54
100
AcDbEntity
  8
chodnik_z__kostki
  6
CONTINUOUS
420
16711680
370
18
100
AcDb3dPolyline
 66
1
 70
137
  0
VERTEX
  5
55
100
AcDbEntity
  8
chodnik_z__kostki
100
AcDbVertex
100
AcDb3dPolylineVertex
 10
8412581.14571055616
 20
5787072.42495706752
 30
0.000
 70
32
  0
VERTEX
  5
56
100
AcDbEntity
  8
chodnik_z__kostki
100
AcDbVertex
100
AcDb3dPolylineVertex
 10
8412581.84762907008
 20
5787072.2187084416
 30
0.000
 70
32
  0
VERTEX
  5
57
100
AcDbEntity
  8
chodnik_z__kostki
100
AcDbVertex
100
AcDb3dPolylineVertex
 10
8412582.49933311104
 20
5787074.43662930944
 30
0.000
 70
32
  0
VERTEX
  5
58
100
AcDbEntity
  8
chodnik_z__kostki
100
AcDbVertex
100
AcDb3dPolylineVertex
 10
8412584.22881601792
 20
5787080.31858063488
 30
0.000
 70
32
  0
VERTEX
  5
59
100
AcDbEntity
  8
chodnik_z__kostki
100
AcDbVertex
100
AcDb3dPolylineVertex
 10
8412588.05036074112
 20
5787092.21217850112
 30
0.000
 70
32
  0
VERTEX
  5
5A
100
AcDbEntity
  8
chodnik_z__kostki
100
AcDbVertex
100
AcDb3dPolylineVertex
 10
8412586.75325588352
 20
5787093.07805283456
 30
0.000
 70
32
  0
VERTEX
  5
5B
100
AcDbEntity
  8
chodnik_z__kostki
100
AcDbVertex
100
AcDb3dPolylineVertex
 10
8412586.77910871936
 20
5787093.1585132928
 30
0.000
 70
32
  0
VERTEX
  5
5C
100
AcDbEntity
  8
chodnik_z__kostki
100
AcDbVertex
100
AcDb3dPolylineVertex
 10
8412586.34133187584
 20
5787093.35943381248
 30
0.000
 70
32
  0
VERTEX
  5
5D
100
AcDbEntity
  8
chodnik_z__kostki
100
AcDbVertex
100
AcDb3dPolylineVertex
 10
8412579.78220163456
 20
5787073.01582363648
 30
0.000
 70
32
  0
VERTEX
  5
5E
100
AcDbEntity
  8
chodnik_z__kostki
100
AcDbVertex
100
AcDb3dPolylineVertex
 10
8412577.16723572608
 20
5787074.06590043008
 30
0.000
 70
32
  0
VERTEX
  5
5F
100
AcDbEntity
  8
chodnik_z__kostki
100
AcDbVertex
100
AcDb3dPolylineVertex
 10
8412576.61366191616
 20
5787072.56995202944
 30
0.000
 70
32
  0
VERTEX
  5
60
100
AcDbEntity
  8
chodnik_z__kostki
100
AcDbVertex
100
AcDb3dPolylineVertex
 10
8412580.73933128576
 20
5787071.0419411392
 30
0.000
 70
32
  0
SEQEND
  5
61
100
AcDbEntity
  8
chodnik_z__kostki
  0
POLYLINE
  5
62
100
AcDbEntity
  8
chodnik_z__kostki
  6
CONTINUOUS
420
16711680
370
18
100
AcDb3dPolyline
 66
1
 70
137
  0
VERTEX
  5
63
100
AcDbEntity
  8
chodnik_z__kostki
100
AcDbVertex
100
AcDb3dPolylineVertex
 10
8412587.89261672704
 20
5787091.94822940032
 30
0.000
 70
32
  0
VERTEX
  5
64
100
AcDbEntity
  8
chodnik_z__kostki
100
AcDbVertex
100
AcDb3dPolylineVertex
 10
8412588.2602912704
 20
5787093.23242866944
 30
0.000
 70
32
  0
VERTEX
  5
65
100
AcDbEntity
  8
chodnik_z__kostki
100
AcDbVertex
100
AcDb3dPolylineVertex
 10
8412586.48870247808
 20
5787093.81561426048
 30
0.000
 70
32
  0
VERTEX
  5
66
100
AcDbEntity
  8
chodnik_z__kostki
100
AcDbVertex
100
AcDb3dPolylineVertex
 10
8412586.29741320832
 20
5787093.23451977728
 30
0.000
 70
32
  0
SEQEND
  5
67
100
AcDbEntity
  8
chodnik_z__kostki
  0
INSERT
  5
68
100
AcDbEntity
  8
dzialki
  6
CONTINUOUS
420
536870911
100
AcDbBlockReference
 66
0
  2
L_0_02_1
 10
8412594.18522632704
 20
5787122.99387366784
 41
0.50
 42
0.50
 43
0.50
 50
74.57
  0
INSERT
  5
69
100
AcDbEntity
  8
dzialki
  6
CONTINUOUS
420
536870911
100
AcDbBlockReference
 66
0
  2
L_0_02_2
 10
8412601.18477367424
 20
5787148.35612633088
 41
0.50
 42
0.50
 43
0.50
 50
254.57
  0
MLINE
  5
6A
100
AcDbEntity
  8
dzialki
  6
L_0_02
420
536870911
370
25
100
AcDbMline
  2
L_0_02
340
7
 40
1.0
 70
1
 71
1
 72
2
 73
1
 10
8412594.18522632704
 20
5787122.99387366784
 30
0.0
210
0.0
220
0.0
230
1.0
 11
8412594.18522632704
 21
5787122.99387366784
 12
0.26603721157
 22
0.963962759685
 13
-0.963962759685
 23
0.26603721157
 74
3
 41
0.0
 41
0.25
 41
26.060407127316
 75
0
 11
8412601.18477367424
 21
5787148.35612633088
 12
0.26603721157
 22
0.963962759685
 13
-0.963962759685
 23
0.26603721157
 74
0
 75
0
  0
INSERT
  5
6B
100
AcDbEntity
  8
dzialki
  6
CONTINUOUS
420
536870911
100
AcDbBlockReference
 66
0
  2
L_0_02_1
 10
8412601.27012901248
 20
5787148.68519582976
 41
0.50
 42
0.50
 43
0.50
 50
76.35
  0
INSERT
  5
6C
100
AcDbEntity
  8
dzialki
  6
CONTINUOUS
420
536870911
100
AcDbBlockReference
 66
0
  2
L_0_02_2
 10
8412604.61987098624
 20
5787162.47480417152
 41
0.50
 42
0.50
 43
0.50
 50
256.35
  0
MLINE
  5
6D
100
AcDbEntity
  8
dzialki
  6
L_0_02
420
536870911
370
25
100
AcDbMline
  2
L_0_02
340
7
 40
1.0
 70
1
 71
1
 72
2
 73
1
 10
8412601.27012901248
 20
5787148.68519582976
 30
0.0
210
0.0
220
0.0
230
1.0
 11
8412601.27012901248
 21
5787148.68519582976
 12
0.236053031238
 22
0.971740174349
 13
-0.971740174349
 23
0.236053031238
 74
3
 41
0.0
 41
0.25
 41
13.940633161601
 75
0
 11
8412604.61987098624
 21
5787162.47480417152
 12
0.236053031238
 22
0.971740174349
 13
-0.971740174349
 23
0.236053031238
 74
0
 75
0
  0
INSERT
  5
6E
100
AcDbEntity
  8
dzialki
  6
CONTINUOUS
420
536870911
100
AcDbBlockReference
 66
0
  2
L_0_02_1
 10
8412604.70696395264
 20
5787162.80338416896
 41
0.50
 42
0.50
 43
0.50
 50
73.96
  0
INSERT
  5
6F
100
AcDbEntity
  8
dzialki
  6
CONTINUOUS
420
536870911
100
AcDbBlockReference
 66
0
  2
L_0_02_2
 10
8412607.26999997056
 20
5787171.72000000128
 41
0.50
 42
0.50
 43
0.50
 50
253.96
  0
MLINE
  5
70
100
AcDbEntity
  8
dzialki
  6
L_0_02
420
536870911
370
25
100
AcDbMline
  2
L_0_02
340
7
 40
1.0
 70
1
 71
1
 72
2
 73
1
 10
8412604.70696395264
 20
5787162.80338416896
 30
0.0
210
0.0
220
0.0
230
1.0
 11
8412604.70696395264
 21
5787162.80338416896
 12
0.276258538732
 22
0.961083357351
 13
-0.961083357351
 23
0.276258538732
 74
3
 41
0.0
 41
0.25
 41
9.027671665411
 75
0
 11
8412607.26999997056
 21
5787171.72000000128
 12
0.276258538732
 22
0.961083357351
 13
-0.961083357351
 23
0.276258538732
 74
0
 75
0
  0
INSERT
  5
71
100
AcDbEntity
  8
dzialki
  6
CONTINUOUS
420
536870911
100
AcDbBlockReference
 66
0
  2
L_0_02_1
 10
8412607.26999997056
 20
5787171.72000000128
 41
0.50
 42
0.50
 43
0.50
 50
172.48
  0
INSERT
  5
72
100
AcDbEntity
  8
dzialki
  6
CONTINUOUS
420
536870911
100
AcDbBlockReference
 66
0
  2
L_0_02_2
 10
8412601.58999998336
 20
5787172.46999999232
 41
0.50
 42
0.50
 43
0.50
 50
352.48
  0
MLINE
  5
73
100
AcDbEntity
  8
dzialki
  6
L_0_02
420
536870911
370
25
100
AcDbMline
  2
L_0_02
340
7
 40
1.0
 70
1
 71
1
 72
2
 73
1
 10
8412607.26999997056
 20
5787171.72000000128
 30
0.0
210
0.0
220
0.0
230
1.0
 11
8412607.26999997056
 21
5787171.72000000128
 12
-0.991394784693
 22
0.130906000182
 13
-0.130906000182
 23
-0.991394784693
 74
3
 41
0.0
 41
0.25
 41
5.479301862751
 75
0
 11
8412601.58999998336
 21
5787172.46999999232
 31
0.000
 12
-0.991394784693
 22
0.130906000182
 32
0.0
 13
-0.130906000182
 23
-0.991394784693
 33
0.0
 74
0
 75
0
  0
INSERT
  5
74
100
AcDbEntity
  8
dzialki
  6
CONTINUOUS
420
536870911
100
AcDbBlockReference
 66
0
  2
L_0_02_1
 10
8412601.58999998336
 20
5787172.46999999232
 30
0.000
 41
0.50
 42
0.50
 43
0.50
 50
254.00
  0
INSERT
  5
75
100
AcDbEntity
  8
dzialki
  6
CONTINUOUS
420
536870911
100
AcDbBlockReference
 66
0
  2
L_0_02_2
 10
8412593.6068489792
 20
5787144.62341717504
 30
0.000
 41
0.50
 42
0.50
 43
0.50
 50
74.00
  0
MLINE
  5
76
100
AcDbEntity
  8
dzialki
  6
L_0_02
420
536870911
370
25
100
AcDbMline
  2
L_0_02
340
7
 40
1.0
 70
1
 71
1
 72
2
 73
1
 10
8412601.58999998336
 20
5787172.46999999232
 30
0.0
210
0.0
220
0.0
230
1.0
 11
8412601.58999998336
 21
5787172.46999999232
 31
0.000
 12
-0.275582231951
 22
-0.961277500742
 32
0.0
 13
0.961277500742
 23
-0.275582231951
 33
0.0
 74
3
 41
0.0
 41
0.25
 41
28.718308106056
 75
0
 11
8412593.6068489792
 21
5787144.62341717504
 12
-0.275582231951
 22
-0.961277500742
 13
0.961277500742
 23
-0.275582231951
 74
0
 75
0
  0
INSERT
  5
77
100
AcDbEntity
  8
dzialki
  6
CONTINUOUS
420
536870911
100
AcDbBlockReference
 66
0
  2
L_0_02_1
 10
8412593.50418855552
 20
5787144.29942265856
 41
0.50
 42
0.50
 43
0.50
 50
250.83
  0
INSERT
  5
78
100
AcDbEntity
  8
dzialki
  6
CONTINUOUS
420
536870911
100
AcDbBlockReference
 66
0
  2
L_0_02_2
 10
8412583.68581144832
 20
5787116.05057734144
 41
0.50
 42
0.50
 43
0.50
 50
70.83
  0
MLINE
  5
79
100
AcDbEntity
  8
dzialki
  6
L_0_02
420
536870911
370
25
100
AcDbMline
  2
L_0_02
340
7
 40
1.0
 70
1
 71
1
 72
2
 73
1
 10
8412593.50418855552
 20
5787144.29942265856
 30
0.0
210
0.0
220
0.0
230
1.0
 11
8412593.50418855552
 21
5787144.29942265856
 12
-0.328302620772
 22
-0.944572596042
 13
0.944572596042
 23
-0.328302620772
 74
3
 41
0.0
 41
0.25
 41
29.656484092127
 75
0
 11
8412583.68581144832
 21
5787116.05057734144
 12
-0.328302620772
 22
-0.944572596042
 13
0.944572596042
 23
-0.328302620772
 74
0
 75
0
  0
INSERT
  5
7A
100
AcDbEntity
  8
dzialki
  6
CONTINUOUS
420
536870911
100
AcDbBlockReference
 66
0
  2
L_0_02_1
 10
8412583.57784770688
 20
5787115.72819722368
 41
0.50
 42
0.50
 43
0.50
 50
252.13
  0
INSERT
  5
7B
100
AcDbEntity
  8
dzialki
  6
CONTINUOUS
420
536870911
100
AcDbBlockReference
 66
0
  2
L_0_02_2
 10
8412579.29215229056
 20
5787102.43180277632
 41
0.50
 42
0.50
 43
0.50
 50
72.13
  0
MLINE
  5
7C
100
AcDbEntity
  8
dzialki
  6
L_0_02
420
536870911
370
25
100
AcDbMline
  2
L_0_02
340
7
 40
1.0
 70
1
 71
1
 72
2
 73
1
 10
8412583.57784770688
 20
5787115.72819722368
 30
0.0
210
0.0
220
0.0
230
1.0
 11
8412583.57784770688
 21
5787115.72819722368
 12
-0.306778176718
 22
-0.951781041149
 13
0.951781041149
 23
-0.306778176718
 74
3
 41
0.0
 41
0.25
 41
13.720013977881
 75
0
 11
8412579.29215229056
 21
5787102.43180277632
 12
-0.306778176718
 22
-0.951781041149
 13
0.951781041149
 23
-0.306778176718
 74
0
 75
0
  0
INSERT
  5
7D
100
AcDbEntity
  8
dzialki
  6
CONTINUOUS
420
536870911
100
AcDbBlockReference
 66
0
  2
L_0_02_1
 10
8412579.1890643328
 20
5787102.10781011712
 41
0.50
 42
0.50
 43
0.50
 50
252.57
  0
INSERT
  5
7E
100
AcDbEntity
  8
dzialki
  6
CONTINUOUS
420
536870911
100
AcDbBlockReference
 66
0
  2
L_0_02_2
 10
8412578.53093566464
 20
5787100.01218988032
 41
0.50
 42
0.50
 43
0.50
 50
72.57
  0
MLINE
  5
7F
100
AcDbEntity
  8
dzialki
  6
L_0_02
420
536870911
370
25
100
AcDbMline
  2
L_0_02
340
7
 40
1.0
 70
1
 71
1
 72
2
 73
1
 10
8412579.1890643328
 20
5787102.10781011712
 30
0.0
210
0.0
220
0.0
230
1.0
 11
8412579.1890643328
 21
5787102.10781011712
 12
-0.299621561475
 22
-0.954058132348
 13
0.954058132348
 23
-0.299621561475
 74
3
 41
0.0
 41
0.25
 41
1.946533067856
 75
0
 11
8412578.53093566464
 21
5787100.01218988032
 12
-0.299621561475
 22
-0.954058132348
 13
0.954058132348
 23
-0.299621561475
 74
0
 75
0
  0
INSERT
  5
80
100
AcDbEntity
  8
dzialki
  6
CONTINUOUS
420
536870911
100
AcDbBlockReference
 66
0
  2
L_0_02_1
 10
8412578.43827828608
 20
5787099.68519921664
 41
0.50
 42
0.50
 43
0.50
 50
255.79
  0
INSERT
  5
81
100
AcDbEntity
  8
dzialki
  6
CONTINUOUS
420
536870911
100
AcDbBlockReference
 66
0
  2
L_0_02_2
 10
8412577.32172171648
 20
5787095.27480078336
 41
0.50
 42
0.50
 43
0.50
 50
75.79
  0
MLINE
  5
82
100
AcDbEntity
  8
dzialki
  6
L_0_02
420
536870911
370
25
100
AcDbMline
  2
L_0_02
340
7
 40
1.0
 70
1
 71
1
 72
2
 73
1
 10
8412578.43827828608
 20
5787099.68519921664
 30
0.0
210
0.0
220
0.0
230
1.0
 11
8412578.43827828608
 21
5787099.68519921664
 12
-0.245421867974
 22
-0.969416374279
 13
0.969416374279
 23
-0.245421867974
 74
3
 41
0.0
 41
0.25
 41
4.299539856219
 75
0
 11
8412577.32172171648
 21
5787095.27480078336
 12
-0.245421867974
 22
-0.969416374279
 13
0.969416374279
 23
-0.245421867974
 74
0
 75
0
  0
INSERT
  5
83
100
AcDbEntity
  8
dzialki
  6
CONTINUOUS
420
536870911
100
AcDbBlockReference
 66
0
  2
L_0_02_1
 10
8412577.22590430208
 20
5787094.94883655552
 41
0.50
 42
0.50
 43
0.50
 50
251.45
  0
INSERT
  5
84
100
AcDbEntity
  8
dzialki
  6
CONTINUOUS
420
536870911
100
AcDbBlockReference
 66
0
  2
L_0_02_2
 10
8412573.96409569792
 20
5787085.23116344448
 41
0.50
 42
0.50
 43
0.50
 50
71.45
  0
MLINE
  5
85
100
AcDbEntity
  8
dzialki
  6
L_0_02
420
536870911
370
25
100
AcDbMline
  2
L_0_02
340
7
 40
1.0
 70
1
 71
1
 72
2
 73
1
 10
8412577.22590430208
 20
5787094.94883655552
 30
0.0
210
0.0
220
0.0
230
1.0
 11
8412577.22590430208
 21
5787094.94883655552
 12
-0.318209986282
 22
-0.94802025539
 13
0.94802025539
 23
-0.318209986282
 74
3
 41
0.0
 41
0.25
 41
10.000491016887
 75
0
 11
8412573.96409569792
 21
5787085.23116344448
 12
-0.318209986282
 22
-0.94802025539
 13
0.94802025539
 23
-0.318209986282
 74
0
 75
0
  0
INSERT
  5
86
100
AcDbEntity
  8
dzialki
  6
CONTINUOUS
420
536870911
100
AcDbBlockReference
 66
0
  2
L_0_02_1
 10
8412574.06205262208
 20
5787084.9939736896
 41
0.50
 42
0.50
 43
0.50
 50
333.43
  0
INSERT
  5
87
100
AcDbEntity
  8
dzialki
  6
CONTINUOUS
420
536870911
100
AcDbBlockReference
 66
0
  2
L_0_02_2
 10
8412574.47794737664
 20
5787084.7860263104
 41
0.50
 42
0.50
 43
0.50
 50
153.43
  0
MLINE
  5
88
100
AcDbEntity
  8
dzialki
  6
L_0_02
420
536870911
370
25
100
AcDbMline
  2
L_0_02
340
7
 40
1.0
 70
1
 71
1
 72
2
 73
1
 10
8412574.06205262208
 20
5787084.9939736896
 30
0.0
210
0.0
220
0.0
230
1.0
 11
8412574.06205262208
 21
5787084.9939736896
 12
0.894427188596
 22
-0.447213600307
 13
0.447213600307
 23
0.894427188596
 74
0
 75
0
 11
8412574.47794737664
 21
5787084.7860263104
 12
0.894427188596
 22
-0.447213600307
 13
0.447213600307
 23
0.894427188596
 74
0
 75
0
  0
INSERT
  5
89
100
AcDbEntity
  8
dzialki
  6
CONTINUOUS
420
536870911
100
AcDbBlockReference
 66
0
  2
L_0_02_1
 10
8412574.57002835328
 20
5787084.55092956928
 41
0.50
 42
0.50
 43
0.50
 50
249.34
  0
INSERT
  5
8A
100
AcDbEntity
  8
dzialki
  6
CONTINUOUS
420
536870911
100
AcDbBlockReference
 66
0
  2
L_0_02_2
 10
8412569.53997164544
 20
5787071.20907042944
 41
0.50
 42
0.50
 43
0.50
 50
69.34
  0
MLINE
  5
8B
100
AcDbEntity
  8
dzialki
  6
L_0_02
420
536870911
370
25
100
AcDbMline
  2
L_0_02
340
7
 40
1.0
 70
1
 71
1
 72
2
 73
1
 10
8412574.57002835328
 20
5787084.55092956928
 30
0.0
210
0.0
220
0.0
230
1.0
 11
8412574.57002835328
 21
5787084.55092956928
 12
-0.352774399685
 22
-0.935708406998
 13
0.935708406998
 23
-0.352774399685
 74
3
 41
0.0
 41
0.25
 41
14.008564998079
 75
0
 11
8412569.53997164544
 21
5787071.20907042944
 12
-0.352774399685
 22
-0.935708406998
 13
0.935708406998
 23
-0.352774399685
 74
0
 75
0
  0
INSERT
  5
8C
100
AcDbEntity
  8
dzialki
  6
CONTINUOUS
420
536870911
100
AcDbBlockReference
 66
0
  2
L_0_02_1
 10
8412569.4200280384
 20
5787070.8909296896
 41
0.50
 42
0.50
 43
0.50
 50
249.34
  0
INSERT
  5
8D
100
AcDbEntity
  8
dzialki
  6
CONTINUOUS
420
536870911
100
AcDbBlockReference
 66
0
  2
L_0_02_2
 10
8412558.54997196032
 20
5787042.05907031296
 41
0.50
 42
0.50
 43
0.50
 50
69.34
  0
MLINE
  5
8E
100
AcDbEntity
  8
dzialki
  6
L_0_02
420
536870911
370
25
100
AcDbMline
  2
L_0_02
340
7
 40
1.0
 70
1
 71
1
 72
2
 73
1
 10
8412569.4200280384
 20
5787070.8909296896
 30
0.0
210
0.0
220
0.0
230
1.0
 11
8412569.4200280384
 21
5787070.8909296896
 12
-0.352776251287
 22
-0.935707708918
 13
0.935707708918
 23
-0.352776251287
 74
3
 41
0.0
 41
0.25
 41
30.562890715235
 75
0
 11
8412558.54997196032
 21
5787042.05907031296
 12
-0.352776251287
 22
-0.935707708918
 13
0.935707708918
 23
-0.352776251287
 74
0
 75
0
  0
INSERT
  5
8F
100
AcDbEntity
  8
dzialki
  6
CONTINUOUS
420
536870911
100
AcDbBlockReference
 66
0
  2
L_0_02_1
 10
8412558.41916870016
 20
5787041.74545897984
 41
0.50
 42
0.50
 43
0.50
 50
245.38
  0
INSERT
  5
90
100
AcDbEntity
  8
dzialki
  6
CONTINUOUS
420
536870911
100
AcDbBlockReference
 66
0
  2
L_0_02_2
 10
8412555.92083129856
 20
5787036.29454102016
 41
0.50
 42
0.50
 43
0.50
 50
65.38
  0
MLINE
  5
91
100
AcDbEntity
  8
dzialki
  6
L_0_02
420
536870911
370
25
100
AcDbMline
  2
L_0_02
340
7
 40
1.0
 70
1
 71
1
 72
2
 73
1
 10
8412558.41916870016
 20
5787041.74545897984
 30
0.0
210
0.0
220
0.0
230
1.0
 11
8412558.41916870016
 21
5787041.74545897984
 12
-0.416654710862
 22
-0.909064822725
 13
0.909064822725
 23
-0.416654710862
 74
3
 41
0.0
 41
0.25
 41
5.74618181661
 75
0
 11
8412555.92083129856
 21
5787036.29454102016
 12
-0.416654710862
 22
-0.909064822725
 13
0.909064822725
 23
-0.416654710862
 74
0
 75
0
  0
INSERT
  5
92
100
AcDbEntity
  8
dzialki
  6
CONTINUOUS
420
536870911
100
AcDbBlockReference
 66
0
  2
L_0_02_1
 10
8412555.77906014848
 20
5787035.98550877696
 41
0.50
 42
0.50
 43
0.50
 50
245.34
  0
INSERT
  5
93
100
AcDbEntity
  8
dzialki
  6
CONTINUOUS
420
536870911
100
AcDbBlockReference
 66
0
  2
L_0_02_2
 10
8412554.12093985024
 20
5787032.37449122176
 41
0.50
 42
0.50
 43
0.50
 50
65.34
  0
MLINE
  5
94
100
AcDbEntity
  8
dzialki
  6
L_0_02
420
536870911
370
25
100
AcDbMline
  2
L_0_02
340
7
 40
1.0
 70
1
 71
1
 72
2
 73
1
 10
8412555.77906014848
 20
5787035.98550877696
 30
0.0
210
0.0
220
0.0
230
1.0
 11
8412555.77906014848
 21
5787035.98550877696
 12
-0.417293218499
 22
-0.908771901961
 13
0.908771901961
 23
-0.417293218499
 74
3
 41
0.0
 41
0.25
 41
3.7235136476
 75
0
 11
8412554.12093985024
 21
5787032.37449122176
 12
-0.417293218499
 22
-0.908771901961
 13
0.908771901961
 23
-0.417293218499
 74
0
 75
0
  0
INSERT
  5
95
100
AcDbEntity
  8
dzialki
  6
CONTINUOUS
420
536870911
100
AcDbBlockReference
 66
0
  2
L_0_02_1
 10
8412554.216722336
 20
5787032.25322142464
 41
0.50
 42
0.50
 43
0.50
 50
11.27
  0
INSERT
  5
96
100
AcDbEntity
  8
dzialki
  6
CONTINUOUS
420
536870911
100
AcDbBlockReference
 66
0
  2
L_0_02_2
 10
8412562.01327766272
 20
5787033.80677857536
 41
0.50
 42
0.50
 43
0.50
 50
191.27
  0
MLINE
  5
97
100
AcDbEntity
  8
dzialki
  6
L_0_02
420
536870911
370
25
100
AcDbMline
  2
L_0_02
340
7
 40
1.0
 70
1
 71
1
 72
2
 73
1
 10
8412554.216722336
 20
5787032.25322142464
 30
0.0
210
0.0
220
0.0
230
1.0
 11
8412554.216722336
 21
5787032.25322142464
 12
0.980719616866
 22
0.195420145056
 13
-0.195420145056
 23
0.980719616866
 74
3
 41
0.0
 41
0.25
 41
7.699831117037
 75
0
 11
8412562.01327766272
 21
5787033.80677857536
 12
0.980719616866
 22
0.195420145056
 13
-0.195420145056
 23
0.980719616866
 74
0
 75
0
  0
INSERT
  5
98
100
AcDbEntity
  8
dzialki
  6
CONTINUOUS
420
536870911
100
AcDbBlockReference
 66
0
  2
L_0_02_1
 10
8412562.23946211584
 20
5787033.99926159872
 41
0.50
 42
0.50
 43
0.50
 50
69.53
  0
INSERT
  5
99
100
AcDbEntity
  8
dzialki
  6
CONTINUOUS
420
536870911
100
AcDbBlockReference
 66
0
  2
L_0_02_2
 10
8412576.3605378816
 20
5787071.82073840128
 41
0.50
 42
0.50
 43
0.50
 50
249.53
  0
MLINE
  5
9A
100
AcDbEntity
  8
dzialki
  6
L_0_02
420
536870911
370
25
100
AcDbMline
  2
L_0_02
340
7
 40
1.0
 70
1
 71
1
 72
2
 73
1
 10
8412562.23946211584
 20
5787033.99926159872
 30
0.0
210
0.0
220
0.0
230
1.0
 11
8412562.23946211584
 21
5787033.99926159872
 12
0.349777160903
 22
0.936832929454
 13
-0.936832929454
 23
0.349777160903
 74
3
 41
0.0
 41
0.25
 41
40.121634699319
 75
0
 11
8412576.3605378816
 21
5787071.82073840128
 12
0.349777160903
 22
0.936832929454
 13
-0.936832929454
 23
0.349777160903
 74
0
 75
0
  0
INSERT
  5
9B
100
AcDbEntity
  8
dzialki
  6
CONTINUOUS
420
536870911
100
AcDbBlockReference
 66
0
  2
L_0_02_1
 10
8412576.47594155648
 20
5787072.14053205888
 41
0.50
 42
0.50
 43
0.50
 50
70.79
  0
INSERT
  5
9C
100
AcDbEntity
  8
dzialki
  6
CONTINUOUS
420
536870911
100
AcDbBlockReference
 66
0
  2
L_0_02_2
 10
8412594.08405844736
 20
5787122.66946793856
 41
0.50
 42
0.50
 43
0.50
 50
250.79
  0
MLINE
  5
9D
100
AcDbEntity
  8
dzialki
  6
L_0_02
420
536870911
370
25
100
AcDbMline
  2
L_0_02
340
7
 40
1.0
 70
1
 71
1
 72
2
 73
1
 10
8412576.47594155648
 20
5787072.14053205888
 30
0.0
210
0.0
220
0.0
230
1.0
 11
8412576.47594155648
 21
5787072.14053205888
 12
0.329067974648
 22
0.944306236377
 13
-0.944306236377
 23
0.329067974648
 74
3
 41
0.0
 41
0.25
 41
53.259056632135
 75
0
 11
8412594.08405844736
 21
5787122.66946793856
 12
0.329067974648
 22
0.944306236377
 13
-0.944306236377
 23
0.329067974648
 74
0
 75
0
  0
INSERT
  5
9E
100
AcDbEntity
  8
dzialki
  6
CONTINUOUS
420
536870911
100
AcDbBlockReference
 66
0
  2
L_0_02_1
 10
8412601.58999998336
 20
5787172.46999999232
 30
0.000
 41
0.50
 42
0.50
 43
0.50
 50
173.50
  0
INSERT
  5
9F
100
AcDbEntity
  8
dzialki
  6
CONTINUOUS
420
536870911
100
AcDbBlockReference
 66
0
  2
L_0_02_2
 10
8412585.17890612864
 20
5787174.34074592512
 30
0.000
 41
0.50
 42
0.50
 43
0.50
 50
353.50
  0
MLINE
  5
A0
100
AcDbEntity
  8
dzialki
  6
L_0_02
420
536870911
370
25
100
AcDbMline
  2
L_0_02
340
7
 40
1.0
 70
1
 71
1
 72
2
 73
1
 10
8412601.58999998336
 20
5787172.46999999232
 30
0.0
210
0.0
220
0.0
230
1.0
 11
8412601.58999998336
 21
5787172.46999999232
 31
0.000
 12
-0.993565466951
 22
0.113259272828
 32
0.0
 13
-0.113259272828
 23
-0.993565466951
 33
0.0
 74
3
 41
0.0
 41
0.25
 41
16.267375451633
 75
0
 11
8412585.17890612864
 21
5787174.34074592512
 12
-0.993565466951
 22
0.113259272828
 13
-0.113259272828
 23
-0.993565466951
 74
0
 75
0
  0
INSERT
  5
A1
100
AcDbEntity
  8
dzialki
  6
CONTINUOUS
420
536870911
100
AcDbBlockReference
 66
0
  2
L_0_02_1
 10
8412577.86430969856
 20
5787148.62638437248
 41
0.50
 42
0.50
 43
0.50
 50
345.13
  0
INSERT
  5
A2
100
AcDbEntity
  8
dzialki
  6
CONTINUOUS
420
536870911
100
AcDbBlockReference
 66
0
  2
L_0_02_2
 10
8412593.39569030144
 20
5787144.50361562624
 41
0.50
 42
0.50
 43
0.50
 50
165.13
  0
MLINE
  5
A3
100
AcDbEntity
  8
dzialki
  6
L_0_02
420
536870911
370
25
100
AcDbMline
  2
L_0_02
340
7
 40
1.0
 70
1
 71
1
 72
2
 73
1
 10
8412577.86430969856
 20
5787148.62638437248
 30
0.0
210
0.0
220
0.0
230
1.0
 11
8412577.86430969856
 21
5787148.62638437248
 12
0.966527640503
 22
-0.256562507282
 13
0.256562507282
 23
0.966527640503
 74
3
 41
0.0
 41
0.25
 41
15.81925653466
 75
0
 11
8412593.39569030144
 21
5787144.50361562624
 12
0.966527640503
 22
-0.256562507282
 13
0.256562507282
 23
0.966527640503
 74
0
 75
0
  0
INSERT
  5
A4
100
AcDbEntity
  8
dzialki
  6
CONTINUOUS
420
536870911
100
AcDbBlockReference
 66
0
  2
L_0_02_1
 10
8412569.6834021376
 20
5787119.89309860864
 41
0.50
 42
0.50
 43
0.50
 50
343.98
  0
INSERT
  5
A5
100
AcDbEntity
  8
dzialki
  6
CONTINUOUS
420
536870911
100
AcDbBlockReference
 66
0
  2
L_0_02_2
 10
8412583.46659786112
 20
5787115.93690139264
 41
0.50
 42
0.50
 43
0.50
 50
163.98
  0
MLINE
  5
A6
100
AcDbEntity
  8
dzialki
  6
L_0_02
420
536870911
370
25
100
AcDbMline
  2
L_0_02
340
7
 40
1.0
 70
1
 71
1
 72
2
 73
1
 10
8412569.6834021376
 20
5787119.89309860864
 30
0.0
210
0.0
220
0.0
230
1.0
 11
8412569.6834021376
 21
5787119.89309860864
 12
0.961189057119
 22
-0.275890551623
 13
0.275890551623
 23
0.961189057119
 74
3
 41
0.0
 41
0.25
 41
14.089734332973
 75
0
 11
8412583.46659786112
 21
5787115.93690139264
 12
0.961189057119
 22
-0.275890551623
 13
0.275890551623
 23
0.961189057119
 74
0
 75
0
  0
INSERT
  5
A7
100
AcDbEntity
  8
dzialki
  6
CONTINUOUS
420
536870911
100
AcDbBlockReference
 66
0
  2
L_0_02_1
 10
8412553.44817735168
 20
5787093.12771095552
 41
0.50
 42
0.50
 43
0.50
 50
338.51
  0
INSERT
  5
A8
100
AcDbEntity
  8
dzialki
  6
CONTINUOUS
420
536870911
100
AcDbBlockReference
 66
0
  2
L_0_02_2
 10
8412573.75182264448
 20
5787085.13228904448
 41
0.50
 42
0.50
 43
0.50
 50
158.51
  0
MLINE
  5
A9
100
AcDbEntity
  8
dzialki
  6
L_0_02
420
536870911
370
25
100
AcDbMline
  2
L_0_02
340
7
 40
1.0
 70
1
 71
1
 72
2
 73
1
 10
8412553.44817735168
 20
5787093.12771095552
 30
0.0
210
0.0
220
0.0
230
1.0
 11
8412553.44817735168
 21
5787093.12771095552
 12
0.930455015671
 22
-0.366406145981
 13
0.366406145981
 23
0.930455015671
 74
3
 41
0.0
 41
0.25
 41
21.571200327082
 75
0
 11
8412573.75182264448
 21
5787085.13228904448
 12
0.930455015671
 22
-0.366406145981
 13
0.366406145981
 23
0.930455015671
 74
0
 75
0
  0
INSERT
  5
AA
100
AcDbEntity
  8
dzialki
  6
CONTINUOUS
420
536870911
100
AcDbBlockReference
 66
0
  2
L_0_02_1
 10
8412548.26798846592
 20
5787079.47723340544
 41
0.50
 42
0.50
 43
0.50
 50
338.33
  0
INSERT
  5
AB
100
AcDbEntity
  8
dzialki
  6
CONTINUOUS
420
536870911
100
AcDbBlockReference
 66
0
  2
L_0_02_2
 10
8412569.32201153152
 20
5787071.112766592
 41
0.50
 42
0.50
 43
0.50
 50
158.33
  0
MLINE
  5
AC
100
AcDbEntity
  8
dzialki
  6
L_0_02
420
536870911
370
25
100
AcDbMline
  2
L_0_02
340
7
 40
1.0
 70
1
 71
1
 72
2
 73
1
 10
8412548.26798846592
 20
5787079.47723340544
 30
0.0
210
0.0
220
0.0
230
1.0
 11
8412548.26798846592
 21
5787079.47723340544
 12
0.929343909754
 22
-0.369215245356
 13
0.369215245356
 23
0.929343909754
 74
3
 41
0.0
 41
0.25
 41
22.404716779826
 75
0
 11
8412569.32201153152
 21
5787071.112766592
 12
0.929343909754
 22
-0.369215245356
 13
0.369215245356
 23
0.929343909754
 74
0
 75
0
  0
INSERT
  5
AD
100
AcDbEntity
  8
dzialki
  6
CONTINUOUS
420
536870911
100
AcDbBlockReference
 66
0
  2
L_0_02_1
 10
8412533.36474478848
 20
5787040.26961497984
 41
0.50
 42
0.50
 43
0.50
 50
335.54
  0
INSERT
  5
AE
100
AcDbEntity
  8
dzialki
  6
CONTINUOUS
420
536870911
100
AcDbBlockReference
 66
0
  2
L_0_02_2
 10
8412551.21525521024
 20
5787032.15038501632
 41
0.50
 42
0.50
 43
0.50
 50
155.54
  0
MLINE
  5
AF
100
AcDbEntity
  8
dzialki
  6
L_0_02
420
536870911
370
25
100
AcDbMline
  2
L_0_02
340
7
 40
1.0
 70
1
 71
1
 72
2
 73
1
 10
8412533.36474478848
 20
5787040.26961497984
 30
0.0
210
0.0
220
0.0
230
1.0
 11
8412533.36474478848
 21
5787040.26961497984
 12
0.910263453366
 22
-0.414029522457
 13
0.414029522457
 23
0.910263453366
 74
3
 41
0.0
 41
0.25
 41
19.360268165911
 75
0
 11
8412551.21525521024
 21
5787032.15038501632
 12
0.910263453366
 22
-0.414029522457
 13
0.414029522457
 23
0.910263453366
 74
0
 75
0
  0
INSERT
  5
B0
100
AcDbEntity
  8
dzialki
  6
CONTINUOUS
420
536870911
100
AcDbBlockReference
 66
0
  2
L_0_02_1
 10
8412551.53976851456
 20
5787032.08886850304
 41
0.50
 42
0.50
 43
0.50
 50
2.99
  0
INSERT
  5
B1
100
AcDbEntity
  8
dzialki
  6
CONTINUOUS
420
536870911
100
AcDbBlockReference
 66
0
  2
L_0_02_2
 10
8412553.88023148288
 20
5787032.21113149568
 41
0.50
 42
0.50
 43
0.50
 50
182.99
  0
MLINE
  5
B2
100
AcDbEntity
  8
dzialki
  6
L_0_02
420
536870911
370
25
100
AcDbMline
  2
L_0_02
340
7
 40
1.0
 70
1
 71
1
 72
2
 73
1
 10
8412551.53976851456
 20
5787032.08886850304
 30
0.0
210
0.0
220
0.0
230
1.0
 11
8412551.53976851456
 21
5787032.08886850304
 12
0.998638339786
 22
0.052167674941
 13
-0.052167674941
 23
0.998638339786
 74
3
 41
0.0
 41
0.25
 41
2.093654228471
 75
0
 11
8412553.88023148288
 21
5787032.21113149568
 12
0.998638339786
 22
0.052167674941
 13
-0.052167674941
 23
0.998638339786
 74
0
 75
0
  0
INSERT
  5
B3
100
AcDbEntity
  8
dzialki
  6
CONTINUOUS
420
536870911
100
AcDbBlockReference
 66
0
  2
L_0_02_1
 10
8412616.70496390272
 20
5787117.5963656384
 41
0.50
 42
0.50
 43
0.50
 50
78.13
  0
INSERT
  5
B4
100
AcDbEntity
  8
dzialki
  6
CONTINUOUS
420
536870911
100
AcDbBlockReference
 66
0
  2
L_0_02_2
 10
8412627.59503609856
 20
5787169.4136343616
 41
0.50
 42
0.50
 43
0.50
 50
258.13
  0
MLINE
  5
B5
100
AcDbEntity
  8
dzialki
  6
L_0_02
420
536870911
370
25
100
AcDbMline
  2
L_0_02
340
7
 40
1.0
 70
1
 71
1
 72
2
 73
1
 10
8412616.70496390272
 20
5787117.5963656384
 30
0.0
210
0.0
220
0.0
230
1.0
 11
8412616.70496390272
 21
5787117.5963656384
 12
0.205670001434
 22
0.978621403051
 13
-0.978621403051
 23
0.205670001434
 74
3
 41
0.0
 41
0.25
 41
52.699249384003
 75
0
 11
8412627.59503609856
 21
5787169.4136343616
 12
0.205670001434
 22
0.978621403051
 13
-0.978621403051
 23
0.205670001434
 74
0
 75
0
  0
INSERT
  5
B6
100
AcDbEntity
  8
dzialki
  6
CONTINUOUS
420
536870911
100
AcDbBlockReference
 66
0
  2
L_0_02_1
 10
8412627.4609313472
 20
5787169.59777047808
 41
0.50
 42
0.50
 43
0.50
 50
174.00
  0
INSERT
  5
B7
100
AcDbEntity
  8
dzialki
  6
CONTINUOUS
420
536870911
100
AcDbBlockReference
 66
0
  2
L_0_02_2
 10
8412607.26999997056
 20
5787171.72000000128
 41
0.50
 42
0.50
 43
0.50
 50
354.00
  0
MLINE
  5
B8
100
AcDbEntity
  8
dzialki
  6
L_0_02
420
536870911
370
25
100
AcDbMline
  2
L_0_02
340
7
 40
1.0
 70
1
 71
1
 72
2
 73
1
 10
8412627.4609313472
 20
5787169.59777047808
 30
0.0
210
0.0
220
0.0
230
1.0
 11
8412627.4609313472
 21
5787169.59777047808
 12
-0.994521500462
 22
0.10453222048
 13
-0.10453222048
 23
-0.994521500462
 74
3
 41
0.0
 41
0.25
 41
20.052156734217
 75
0
 11
8412607.26999997056
 21
5787171.72000000128
 12
-0.994521500462
 22
0.10453222048
 13
-0.10453222048
 23
-0.994521500462
 74
0
 75
0
  0
INSERT
  5
B9
100
AcDbEntity
  8
dzialki
  6
CONTINUOUS
420
536870911
100
AcDbBlockReference
 66
0
  2
L_0_02_1
 10
8412594.3048971712
 20
5787122.78866087808
 41
0.50
 42
0.50
 43
0.50
 50
345.93
  0
INSERT
  5
BA
100
AcDbEntity
  8
dzialki
  6
CONTINUOUS
420
536870911
100
AcDbBlockReference
 66
0
  2
L_0_02_2
 10
8412597.56510283008
 20
5787121.97133912192
 41
0.50
 42
0.50
 43
0.50
 50
165.93
  0
MLINE
  5
BB
100
AcDbEntity
  8
dzialki
  6
L_0_02
420
536870911
370
25
100
AcDbMline
  2
L_0_02
340
7
 40
1.0
 70
1
 71
1
 72
2
 73
1
 10
8412594.3048971712
 20
5787122.78866087808
 30
0.0
210
0.0
220
0.0
230
1.0
 11
8412594.3048971712
 21
5787122.78866087808
 12
0.969983356151
 22
-0.243171315721
 13
0.243171315721
 23
0.969983356151
 74
3
 41
0.0
 41
0.25
 41
3.1110944346
 75
0
 11
8412597.56510283008
 21
5787121.97133912192
 12
0.969983356151
 22
-0.243171315721
 13
0.243171315721
 23
0.969983356151
 74
0
 75
0
  0
INSERT
  5
BC
100
AcDbEntity
  8
dzialki
  6
CONTINUOUS
420
536870911
100
AcDbBlockReference
 66
0
  2
L_0_02_1
 10
8412597.89539577856
 20
5787121.89070322048
 41
0.50
 42
0.50
 43
0.50
 50
346.63
  0
INSERT
  5
BD
100
AcDbEntity
  8
dzialki
  6
CONTINUOUS
420
536870911
100
AcDbBlockReference
 66
0
  2
L_0_02_2
 10
8412616.50460422144
 20
5787117.46929677824
 41
0.50
 42
0.50
 43
0.50
 50
166.63
  0
MLINE
  5
BE
100
AcDbEntity
  8
dzialki
  6
L_0_02
420
536870911
370
25
100
AcDbMline
  2
L_0_02
340
7
 40
1.0
 70
1
 71
1
 72
2
 73
1
 10
8412597.89539577856
 20
5787121.89070322048
 30
0.0
210
0.0
220
0.0
230
1.0
 11
8412597.89539577856
 21
5787121.89070322048
 12
0.972916336991
 22
-0.231157524679
 13
0.231157524679
 23
0.972916336991
 74
3
 41
0.0
 41
0.25
 41
18.877244282573
 75
0
 11
8412616.50460422144
 21
5787117.46929677824
 12
0.972916336991
 22
-0.231157524679
 13
0.231157524679
 23
0.972916336991
 74
0
 75
0
  0
INSERT
  5
BF
100
AcDbEntity
  8
dzialki
  6
CONTINUOUS
420
536870911
100
AcDbBlockReference
 66
0
  2
L_0_02_1
 10
8412637.28072525952
 20
5787168.68568635648
 41
0.50
 42
0.50
 43
0.50
 50
174.71
  0
INSERT
  5
C0
100
AcDbEntity
  8
dzialki
  6
CONTINUOUS
420
536870911
100
AcDbBlockReference
 66
0
  2
L_0_02_2
 10
8412627.79927474176
 20
5787169.56431364352
 41
0.50
 42
0.50
 43
0.50
 50
354.71
  0
MLINE
  5
C1
100
AcDbEntity
  8
dzialki
  6
L_0_02
420
536870911
370
25
100
AcDbMline
  2
L_0_02
340
7
 40
1.0
 70
1
 71
1
 72
2
 73
1
 10
8412637.28072525952
 20
5787168.68568635648
 30
0.0
210
0.0
220
0.0
230
1.0
 11
8412637.28072525952
 21
5787168.68568635648
 12
-0.995733775767
 22
0.092272681747
 13
-0.092272681747
 23
-0.995733775767
 74
3
 41
0.0
 41
0.25
 41
9.272073820675
 75
0
 11
8412627.79927474176
 21
5787169.56431364352
 12
-0.995733775767
 22
0.092272681747
 13
-0.092272681747
 23
-0.995733775767
 74
0
 75
0
  0
INSERT
  5
C2
100
AcDbEntity
  8
dzialki
  6
CONTINUOUS
420
536870911
100
AcDbBlockReference
 66
0
  2
L_0_02_1
 10
8412576.5789178176
 20
5787071.91962510976
 41
0.50
 42
0.50
 43
0.50
 50
339.20
  0
INSERT
  5
C3
100
AcDbEntity
  8
dzialki
  6
CONTINUOUS
420
536870911
100
AcDbBlockReference
 66
0
  2
L_0_02_2
 10
8412580.8410821824
 20
5787070.30037489152
 41
0.50
 42
0.50
 43
0.50
 50
159.20
  0
MLINE
  5
C4
100
AcDbEntity
  8
dzialki
  6
L_0_02
420
536870911
370
25
100
AcDbMline
  2
L_0_02
340
7
 40
1.0
 70
1
 71
1
 72
2
 73
1
 10
8412576.5789178176
 20
5787071.91962510976
 30
0.0
210
0.0
220
0.0
230
1.0
 11
8412576.5789178176
 21
5787071.91962510976
 12
0.934810687466
 22
-0.355146418536
 13
0.355146418536
 23
0.934810687466
 74
3
 41
0.0
 41
0.25
 41
4.309387714308
 75
0
 11
8412580.8410821824
 21
5787070.30037489152
 12
0.934810687466
 22
-0.355146418536
 13
0.355146418536
 23
0.934810687466
 74
0
 75
0
  0
INSERT
  5
C5
100
AcDbEntity
  8
dzialki
  6
CONTINUOUS
420
536870911
100
AcDbBlockReference
 66
0
  2
L_0_02_1
 10
8412581.15955236736
 20
5787070.1813225664
 41
0.50
 42
0.50
 43
0.50
 50
339.81
  0
INSERT
  5
C6
100
AcDbEntity
  8
dzialki
  6
CONTINUOUS
420
536870911
100
AcDbBlockReference
 66
0
  2
L_0_02_2
 10
8412602.43044763136
 20
5787062.3586774336
 41
0.50
 42
0.50
 43
0.50
 50
159.81
  0
MLINE
  5
C7
100
AcDbEntity
  8
dzialki
  6
L_0_02
420
536870911
370
25
100
AcDbMline
  2
L_0_02
340
7
 40
1.0
 70
1
 71
1
 72
2
 73
1
 10
8412581.15955236736
 20
5787070.1813225664
 30
0.0
210
0.0
220
0.0
230
1.0
 11
8412581.15955236736
 21
5787070.1813225664
 12
0.938543350819
 22
-0.345161380564
 13
0.345161380564
 23
0.938543350819
 74
3
 41
0.0
 41
0.25
 41
22.413732308804
 75
0
 11
8412602.43044763136
 21
5787062.3586774336
 12
0.938543350819
 22
-0.345161380564
 13
0.345161380564
 23
0.938543350819
 74
0
 75
0
  0
INSERT
  5
C8
100
AcDbEntity
  8
dzialki
  6
CONTINUOUS
420
536870911
100
AcDbBlockReference
 66
0
  2
L_0_02_1
 10
8412562.34217844992
 20
5787033.78902794496
 41
0.50
 42
0.50
 43
0.50
 50
342.55
  0
INSERT
  5
C9
100
AcDbEntity
  8
dzialki
  6
CONTINUOUS
420
536870911
100
AcDbBlockReference
 66
0
  2
L_0_02_2
 10
8412589.50782155008
 20
5787025.25097205504
 41
0.50
 42
0.50
 43
0.50
 50
162.55
  0
MLINE
  5
CA
100
AcDbEntity
  8
dzialki
  6
L_0_02
420
536870911
370
25
100
AcDbMline
  2
L_0_02
340
7
 40
1.0
 70
1
 71
1
 72
2
 73
1
 10
8412562.34217844992
 20
5787033.78902794496
 30
0.0
210
0.0
220
0.0
230
1.0
 11
8412562.34217844992
 21
5787033.78902794496
 12
0.953990880782
 22
-0.299835620608
 13
0.299835620608
 23
0.953990880782
 74
3
 41
0.0
 41
0.25
 41
28.225789074036
 75
0
 11
8412589.50782155008
 21
5787025.25097205504
 12
0.953990880782
 22
-0.299835620608
 13
0.299835620608
 23
0.953990880782
 74
0
 75
0
  0
POLYLINE
  5
CB
100
AcDbEntity
  8
kraweznik__obnizony___3cm
  6
L_0_04
420
255
370
35
100
AcDb3dPolyline
 66
1
 70
136
  0
VERTEX
  5
CC
100
AcDbEntity
  8
kraweznik__obnizony___3cm
100
AcDbVertex
100
AcDb3dPolylineVertex
 10
8412591.6528165504
 20
5787120.90305693056
 70
32
  0
VERTEX
  5
CD
100
AcDbEntity
  8
kraweznik__obnizony___3cm
100
AcDbVertex
100
AcDb3dPolylineVertex
 10
8412591.6528165504
 20
5787120.90305693056
 70
32
  0
SEQEND
  5
CE
100
AcDbEntity
  8
kraweznik__obnizony___3cm
  0
ARC
  5
CF
100
AcDbEntity
  8
kraweznik__obnizony___3cm
  6
L_0_04
420
255
370
35
100
AcDbCircle
 10
8412599.6161177805
 20
5787172.5871287373
 30
0
 40
2.4915698601
100
AcDbArc
 50
343.4006419415
 51
84.3998778462
  0
ARC
  5
D0
100
AcDbEntity
  8
kraweznik__obnizony___3cm
  6
L_0_04
420
255
370
35
100
AcDbCircle
 10
8412608.8697317952
 20
5787172.1581622784
 30
0
 40
2.0018870840
100
AcDbArc
 50
84.4262373670
 51
161.2858855943
  0
ARC
  5
D1
100
AcDbEntity
  8
kraweznik__obnizony___3cm
  6
L_0_04
420
255
370
35
100
AcDbCircle
 10
8411965.4458124723
 20
5787303.1292661722
 30
0
 40
652.2421720867
100
AcDbArc
 50
339.4732342188
 51
343.8379329933
  0
ARC
  5
D2
100
AcDbEntity
  8
kraweznik__obnizony___3cm
  6
L_0_04
420
255
370
35
100
AcDbCircle
 10
8412591.4313633638
 20
5787109.5118318477
 30
0
 40
2.9990647622
100
AcDbArc
 50
73.4123749040
 51
162.8925662284
  0
ARC
  5
D3
100
AcDbEntity
  8
kraweznik__obnizony___3cm
  6
L_0_04
420
255
370
35
100
AcDbCircle
 10
8412596.6960508723
 20
5787120.0965616781
 30
0
 40
5.0118501781
100
AcDbArc
 50
163.9254180536
 51
247.1602018129
  0
ARC
  5
D4
100
AcDbEntity
  8
kraweznik__obnizony___3cm
  6
L_0_04
420
255
370
35
100
AcDbCircle
 10
8411965.7866529830
 20
5787303.1783069427
 30
0
 40
647.4399837422
100
AcDbArc
 50
339.0590068850
 51
340.2938981799
  0
ARC
  5
D5
100
AcDbEntity
  8
kraweznik__obnizony___3cm
  6
CONTINUOUS
420
255
370
18
100
AcDbCircle
 10
8411965.4585630515
 20
5787303.1259063872
 30
0
 40
647.7289427864
100
AcDbArc
 50
340.3080478502
 51
343.6168559581
  0
POLYLINE
  5
D6
100
AcDbEntity
  8
kraweznik__obnizony___3cm
  6
L_0_04
420
255
370
35
100
AcDb3dPolyline
 66
1
 70
136
  0
VERTEX
  5
D7
100
AcDbEntity
  8
kraweznik__obnizony___3cm
100
AcDbVertex
100
AcDb3dPolylineVertex
 10
8412579.78220163456
 20
5787073.01582363648
 30
0.000
 70
32
  0
VERTEX
  5
D8
100
AcDbEntity
  8
kraweznik__obnizony___3cm
100
AcDbVertex
100
AcDb3dPolylineVertex
 10
8412576.27658145408
 20
5787074.42370380544
 30
0.000
 70
32
  0
SEQEND
  5
D9
100
AcDbEntity
  8
kraweznik__obnizony___3cm
  0
POLYLINE
  5
DA
100
AcDbEntity
  8
kraweznik__obnizony___3cm
  6
L_0_04
420
255
370
35
100
AcDb3dPolyline
 66
1
 70
136
  0
VERTEX
  5
DB
100
AcDbEntity
  8
kraweznik__obnizony___3cm
100
AcDbVertex
100
AcDb3dPolylineVertex
 10
8412592.4199627584
 20
5787112.34768016128
 30
0.000
 70
32
  0
VERTEX
  5
DC
100
AcDbEntity
  8
kraweznik__obnizony___3cm
100
AcDbVertex
100
AcDb3dPolylineVertex
 10
8412579.78220163456
 20
5787073.01582363648
 30
0.000
 70
32
  0
SEQEND
  5
DD
100
AcDbEntity
  8
kraweznik__obnizony___3cm
  0
POLYLINE
  5
DE
100
AcDbEntity
  8
kraweznik__obnizony___3cm
  6
L_0_04
420
255
370
18
100
AcDb3dPolyline
 66
1
 70
136
  0
VERTEX
  5
DF
100
AcDbEntity
  8
kraweznik__obnizony___3cm
100
AcDbVertex
100
AcDb3dPolylineVertex
 10
8412600.20123895552
 20
5787175.00990611584
 70
32
  0
VERTEX
  5
E0
100
AcDbEntity
  8
kraweznik__obnizony___3cm
100
AcDbVertex
100
AcDb3dPolylineVertex
 10
8412609.06382635392
 20
5787174.14706943104
 30
0.000
 70
32
  0
SEQEND
  5
E1
100
AcDbEntity
  8
kraweznik__obnizony___3cm
  0
POLYLINE
  5
E2
100
AcDbEntity
  8
kraweznik__obnizony___3cm
  6
L_0_04
420
255
370
35
100
AcDb3dPolyline
 66
1
 70
136
  0
VERTEX
  5
E3
100
AcDbEntity
  8
kraweznik__obnizony___3cm
100
AcDbVertex
100
AcDb3dPolylineVertex
 10
8412555.72673402368
 20
5787033.23501975424
 30
0.000
 70
32
  0
VERTEX
  5
E4
100
AcDbEntity
  8
kraweznik__obnizony___3cm
100
AcDbVertex
100
AcDb3dPolylineVertex
 10
8412570.4643747776
 20
5787071.7784918912
 30
0.000
 70
32
  0
SEQEND
  5
E5
100
AcDbEntity
  8
kraweznik__obnizony___3cm
  0
POLYLINE
  5
E6
100
AcDbEntity
  8
kraweznik__obnizony___3cm
  6
L_0_04
420
255
370
35
100
AcDb3dPolyline
 66
1
 70
136
  0
VERTEX
  5
E7
100
AcDbEntity
  8
kraweznik__obnizony___3cm
100
AcDbVertex
100
AcDb3dPolylineVertex
 10
8412598.4502752384
 20
5787159.76077632512
 70
32
  0
VERTEX
  5
E8
100
AcDbEntity
  8
kraweznik__obnizony___3cm
100
AcDbVertex
100
AcDb3dPolylineVertex
 10
8412602.00826061824
 20
5787171.87402916864
 30
0.000
 70
32
  0
SEQEND
  5
E9
100
AcDbEntity
  8
kraweznik__obnizony___3cm
  0
POLYLINE
  5
EA
100
AcDbEntity
  8
kraweznik__obnizony___3cm
  6
L_0_04
420
255
370
35
100
AcDb3dPolyline
 66
1
 70
136
  0
VERTEX
  5
EB
100
AcDbEntity
  8
kraweznik__obnizony___3cm
100
AcDbVertex
100
AcDb3dPolylineVertex
 10
8412591.24858232192
 20
5787119.31892815872
 70
32
  0
VERTEX
  5
EC
100
AcDbEntity
  8
kraweznik__obnizony___3cm
100
AcDbVertex
100
AcDb3dPolylineVertex
 10
8412606.97111403392
 20
5787172.80133027584
 30
0.000
 70
32
  0
SEQEND
  5
ED
100
AcDbEntity
  8
kraweznik__obnizony___3cm
  0
ARC
  5
EE
100
AcDbEntity
  8
kraweznik_10cm
  6
CONTINUOUS
420
255
370
18
100
AcDbCircle
 10
8412551.9912998221
 20
5787034.6652967501
 30
0
 40
4.0012986355
100
AcDbArc
 50
243.6132457773
 51
339.0484346507
  0
ARC
  5
EF
100
AcDbEntity
  8
kraweznik_10cm
  6
CONTINUOUS
420
255
370
35
100
AcDbCircle
 10
8411964.3022071603
 20
5787303.7453826163
 30
0
 40
653.5303466118
100
AcDbArc
 50
339.0591981435
 51
339.4578041715
  0
ARC
  5
F0
100
AcDbEntity
  8
kraweznik_10cm
  6
CONTINUOUS
420
255
370
35
100
AcDbCircle
 10
8412563.1926733645
 20
5787034.4747884467
 30
0
 40
2.0509440120
100
AcDbArc
 50
161.7702401744
 51
184.0040898415
  0
ARC
  5
F1
100
AcDbEntity
  8
kraweznik_10cm
  6
CONTINUOUS
420
255
370
18
100
AcDbCircle
 10
8412563.1285598579
 20
5787034.3909747853
 30
0
 40
1.9956985738
100
AcDbArc
 50
181.7349348826
 51
252.3748047673
  0
POLYLINE
  5
F2
100
AcDbEntity
  8
kraweznik_10cm
  6
CONTINUOUS
420
255
370
35
100
AcDb3dPolyline
 66
1
 70
136
  0
VERTEX
  5
F3
100
AcDbEntity
  8
kraweznik_10cm
100
AcDbVertex
100
AcDb3dPolylineVertex
 10
8412594.32992127488
 20
5787111.75573305344
 30
0.000
 70
32
  0
VERTEX
  5
F4
100
AcDbEntity
  8
kraweznik_10cm
100
AcDbVertex
100
AcDb3dPolylineVertex
 10
8412592.2866376192
 20
5787112.38305722496
 30
0.000
 70
32
  0
SEQEND
  5
F5
100
AcDbEntity
  8
kraweznik_10cm
  0
POLYLINE
  5
F6
100
AcDbEntity
  8
kraweznik_10cm
  6
CONTINUOUS
420
255
370
35
100
AcDb3dPolyline
 66
1
 70
136
  0
VERTEX
  5
F7
100
AcDbEntity
  8
kraweznik_10cm
100
AcDbVertex
100
AcDb3dPolylineVertex
 10
8412595.43457588736
 20
5787115.19369301376
 30
0.000
 70
32
  0
VERTEX
  5
F8
100
AcDbEntity
  8
kraweznik_10cm
100
AcDbVertex
100
AcDb3dPolylineVertex
 10
8412595.17535826816
 20
5787115.27201131264
 30
0.000
 70
32
  0
SEQEND
  5
F9
100
AcDbEntity
  8
kraweznik_10cm
  0
POLYLINE
  5
FA
100
AcDbEntity
  8
kraweznik_10cm
  6
L_0_03
420
255
370
13
100
AcDb3dPolyline
 66
1
 70
136
  0
VERTEX
  5
FB
100
AcDbEntity
  8
kraweznik_10cm
100
AcDbVertex
100
AcDb3dPolylineVertex
 10
8412558.20453219968
 20
5787027.11535671168
 70
32
  0
VERTEX
  5
FC
100
AcDbEntity
  8
kraweznik_10cm
100
AcDbVertex
100
AcDb3dPolylineVertex
 10
8412561.22003271424
 20
5787035.00181981312
 70
32
  0
SEQEND
  5
FD
100
AcDbEntity
  8
kraweznik_10cm
  0
POLYLINE
  5
FE
100
AcDbEntity
  8
kraweznik_10cm
  6
CONTINUOUS
420
255
370
35
100
AcDb3dPolyline
 66
1
 70
136
  0
VERTEX
  5
FF
100
AcDbEntity
  8
kraweznik_10cm
100
AcDbVertex
100
AcDb3dPolylineVertex
 10
8412561.22003271424
 20
5787035.00181981312
 70
32
  0
VERTEX
  5
100
100
AcDbEntity
  8
kraweznik_10cm
100
AcDbVertex
100
AcDb3dPolylineVertex
 10
8412574.66759224576
 20
5787070.17133199616
 30
0.000
 70
32
  0
SEQEND
  5
101
100
AcDbEntity
  8
kraweznik_10cm
  0
ARC
  5
102
100
AcDbEntity
  8
os
  6
ByLayer
370
50
100
AcDbCircle
 10
8411964.3941476582
 20
5787303.4589828070
 30
0
 40
651.0946811501
100
AcDbArc
 50
339.0807744002
 51
343.6161747313
  0
CIRCLE
  5
103
100
AcDbEntity
  8
os
  6
ByLayer
370
50
100
AcDbCircle
 10
8412567.89195919872
 20
5787113.1772529728
 40
0.156832412817
  0
POLYLINE
  5
104
100
AcDbEntity
  8
os
  6
CONTINUOUS
370
50
100
AcDb3dPolyline
 66
1
 70
136
  0
VERTEX
  5
105
100
AcDbEntity
  8
os
100
AcDbVertex
100
AcDb3dPolylineVertex
 10
8412556.17986586624
 20
5787028.1198714304
 30
0.000
 70
32
  0
VERTEX
  5
106
100
AcDbEntity
  8
os
100
AcDbVertex
100
AcDb3dPolylineVertex
 10
8412582.02296761216
 20
5787095.70754632064
 30
0.000
 70
32
  0
SEQEND
  5
107
100
AcDbEntity
  8
os
  0
POLYLINE
  5
108
100
AcDbEntity
  8
os
  6
CONTINUOUS
370
50
100
AcDb3dPolyline
 66
1
 70
136
  0
VERTEX
  5
109
100
AcDbEntity
  8
os
100
AcDbVertex
100
AcDb3dPolylineVertex
 10
8412580.95338089856
 20
5787092.26144476928
 30
0.000
 70
32
  0
VERTEX
  5
10A
100
AcDbEntity
  8
os
100
AcDbVertex
100
AcDb3dPolylineVertex
 10
8412605.13801153536
 20
5787174.52886610048
 30
0.000
 70
32
  0
SEQEND
  5
10B
100
AcDbEntity
  8
os
  0
POLYLINE
  5
10C
100
AcDbEntity
  8
przestawienie_kraweznika
  6
CONTINUOUS
420
255
370
18
100
AcDb3dPolyline
 66
1
 70
136
  0
VERTEX
  5
10D
100
AcDbEntity
  8
przestawienie_kraweznika
100
AcDbVertex
100
AcDb3dPolylineVertex
 10
8412586.8874165888
 20
5787120.42808696448
 30
0.000
 70
32
  0
VERTEX
  5
10E
100
AcDbEntity
  8
przestawienie_kraweznika
100
AcDbVertex
100
AcDb3dPolylineVertex
 10
8412598.4502752384
 20
5787159.76077632512
 70
32
  0
SEQEND
  5
10F
100
AcDbEntity
  8
przestawienie_kraweznika
  0
POLYLINE
  5
110
100
AcDbEntity
  8
TT_OpisLukiKlotki
  6
CONTINUOUS
420
536870911
370
18
100
AcDb3dPolyline
 66
1
 70
136
  0
VERTEX
  5
111
100
AcDbEntity
  8
TT_OpisLukiKlotki
100
AcDbVertex
100
AcDb3dPolylineVertex
 10
8412571.93903968896
 20
5787115.02180225024
 70
32
  0
VERTEX
  5
112
100
AcDbEntity
  8
TT_OpisLukiKlotki
100
AcDbVertex
100
AcDb3dPolylineVertex
 10
8412567.40515442304
 20
5787101.24886195328
 70
32
  0
SEQEND
  5
113
100
AcDbEntity
  8
TT_OpisLukiKlotki
  0
POLYLINE
  5
114
100
AcDbEntity
  8
zjazd_z__kostki
  6
CONTINUOUS
420
8421504
370
13
100
AcDb3dPolyline
 66
1
 70
136
  0
VERTEX
  5
115
100
AcDbEntity
  8
zjazd_z__kostki
100
AcDbVertex
100
AcDb3dPolylineVertex
 10
8412598.4572495552
 20
5787159.7892638976
 30
0.000
 70
32
  0
VERTEX
  5
116
100
AcDbEntity
  8
zjazd_z__kostki
100
AcDbVertex
100
AcDb3dPolylineVertex
 10
8412597.78426071552
 20
5787159.3178659136
 30
0.000
 70
32
  0
SEQEND
  5
117
100
AcDbEntity
  8
zjazd_z__kostki
  0
POLYLINE
  5
118
100
AcDbEntity
  8
zjazd_z__kostki
  6
CONTINUOUS
420
8421504
370
13
100
AcDb3dPolyline
 66
1
 70
136
  0
VERTEX
  5
119
100
AcDbEntity
  8
zjazd_z__kostki
100
AcDbVertex
100
AcDb3dPolylineVertex
 10
8412597.78426071552
 20
5787159.3178659136
 30
0.000
 70
32
  0
VERTEX
  5
11A
100
AcDbEntity
  8
zjazd_z__kostki
100
AcDbVertex
100
AcDb3dPolylineVertex
 10
8412597.7624489024
 20
5787159.30801649024
 70
32
  0
SEQEND
  5
11B
100
AcDbEntity
  8
zjazd_z__kostki
  0
POLYLINE
  5
11C
100
AcDbEntity
  8
zjazd_z__kostki
  6
CONTINUOUS
420
8421504
370
13
100
AcDb3dPolyline
 66
1
 70
136
  0
VERTEX
  5
11D
100
AcDbEntity
  8
zjazd_z__kostki
100
AcDbVertex
100
AcDb3dPolylineVertex
 10
8412596.12124524544
 20
5787153.5526532224
 70
32
  0
VERTEX
  5
11E
100
AcDbEntity
  8
zjazd_z__kostki
100
AcDbVertex
100
AcDb3dPolylineVertex
 10
8412596.41443052288
 20
5787152.87958657792
 30
0.000
 70
32
  0
SEQEND
  5
11F
100
AcDbEntity
  8
zjazd_z__kostki
  0
POLYLINE
  5
120
100
AcDbEntity
  8
_MF_granica_pasa
  6
CONTINUOUS
420
65535
370
18
100
AcDb3dPolyline
 66
1
 70
136
  0
VERTEX
  5
121
100
AcDbEntity
  8
_MF_granica_pasa
100
AcDbVertex
100
AcDb3dPolylineVertex
 10
8412562.55142603008
 20
5787034.65123418368
 30
0.000
 70
32
  0
VERTEX
  5
122
100
AcDbEntity
  8
_MF_granica_pasa
100
AcDbVertex
100
AcDb3dPolylineVertex
 10
8412554.43097061888
 20
5787033.046901888
 30
0.000
 70
32
  0
VERTEX
  5
123
100
AcDbEntity
  8
_MF_granica_pasa
100
AcDbVertex
100
AcDb3dPolylineVertex
 10
8412558.83060727296
 20
5787042.80393800576
 30
0.000
 70
32
  0
SEQEND
  5
124
100
AcDbEntity
  8
_MF_granica_pasa
  0
POLYLINE
  5
125
100
AcDbEntity
  8
_MF_granica_pasa
  6
CONTINUOUS
420
65535
370
18
100
AcDb3dPolyline
 66
1
 70
136
  0
VERTEX
  5
126
100
AcDbEntity
  8
_MF_granica_pasa
100
AcDbVertex
100
AcDb3dPolylineVertex
 10
8412558.83060727296
 20
5787042.80393800576
 30
0.000
 70
32
  0
VERTEX
  5
127
100
AcDbEntity
  8
_MF_granica_pasa
100
AcDbVertex
100
AcDb3dPolylineVertex
 10
8412559.99672517888
 20
5787045.77184754816
 30
0.000
 70
32
  0
VERTEX
  5
128
100
AcDbEntity
  8
_MF_granica_pasa
100
AcDbVertex
100
AcDb3dPolylineVertex
 10
8412561.70377294976
 20
5787050.23005564416
 30
0.000
 70
32
  0
VERTEX
  5
129
100
AcDbEntity
  8
_MF_granica_pasa
100
AcDbVertex
100
AcDb3dPolylineVertex
 10
8412565.99480337792
 20
5787061.6626729344
 30
0.000
 70
32
  0
VERTEX
  5
12A
100
AcDbEntity
  8
_MF_granica_pasa
100
AcDbVertex
100
AcDb3dPolylineVertex
 10
8412568.76062538752
 20
5787069.20907819648
 30
0.000
 70
32
  0
VERTEX
  5
12B
100
AcDbEntity
  8
_MF_granica_pasa
100
AcDbVertex
100
AcDb3dPolylineVertex
 10
8412573.11295333888
 20
5787080.55989038592
 30
0.000
 70
32
  0
VERTEX
  5
12C
100
AcDbEntity
  8
_MF_granica_pasa
100
AcDbVertex
100
AcDb3dPolylineVertex
 10
8412574.84113477376
 20
5787085.22220199168
 30
0.000
 70
32
  0
VERTEX
  5
12D
100
AcDbEntity
  8
_MF_granica_pasa
100
AcDbVertex
100
AcDb3dPolylineVertex
 10
8412574.05344238592
 20
5787085.55231358208
 30
0.000
 70
32
  0
VERTEX
  5
12E
100
AcDbEntity
  8
_MF_granica_pasa
100
AcDbVertex
100
AcDb3dPolylineVertex
 10
8412583.74276620544
 20
5787116.170301184
 30
0.000
 70
32
  0
VERTEX
  5
12F
100
AcDbEntity
  8
_MF_granica_pasa
100
AcDbVertex
100
AcDb3dPolylineVertex
 10
8412593.71196107904
 20
5787144.68262708352
 30
0.000
 70
32
  0
VERTEX
  5
130
100
AcDbEntity
  8
_MF_granica_pasa
100
AcDbVertex
100
AcDb3dPolylineVertex
 10
8412597.2263201536
 20
5787157.3896967616
 30
0.000
 70
32
  0
VERTEX
  5
131
100
AcDbEntity
  8
_MF_granica_pasa
100
AcDbVertex
100
AcDb3dPolylineVertex
 10
8412601.58999998336
 20
5787172.46999999232
 30
0.000
 70
32
  0
VERTEX
  5
132
100
AcDbEntity
  8
_MF_granica_pasa
100
AcDbVertex
100
AcDb3dPolylineVertex
 10
8412607.19590431616
 20
5787171.82211910912
 30
0.000
 70
32
  0
VERTEX
  5
133
100
AcDbEntity
  8
_MF_granica_pasa
100
AcDbVertex
100
AcDb3dPolylineVertex
 10
8412602.5700384256
 20
5787154.30374223744
 30
0.000
 70
32
  0
VERTEX
  5
134
100
AcDbEntity
  8
_MF_granica_pasa
100
AcDbVertex
100
AcDb3dPolylineVertex
 10
8412597.90038918528
 20
5787136.38578109952
 30
0.000
 70
32
  0
VERTEX
  5
135
100
AcDbEntity
  8
_MF_granica_pasa
100
AcDbVertex
100
AcDb3dPolylineVertex
 10
8412594.2419003776
 20
5787123.05423047424
 30
0.000
 70
32
  0
VERTEX
  5
136
100
AcDbEntity
  8
_MF_granica_pasa
100
AcDbVertex
100
AcDb3dPolylineVertex
 10
8412578.40897025792
 20
5787077.42149773184
 30
0.000
 70
32
  0
VERTEX
  5
137
100
AcDbEntity
  8
_MF_granica_pasa
100
AcDbVertex
100
AcDb3dPolylineVertex
 10
8412567.81160070272
 20
5787048.78373032576
 30
0.000
 70
32
  0
VERTEX
  5
138
100
AcDbEntity
  8
_MF_granica_pasa
100
AcDbVertex
100
AcDb3dPolylineVertex
 10
8412562.55142603008
 20
5787034.65123418368
 30
0.000
 70
32
  0
SEQEND
  5
139
100
AcDbEntity
  8
_MF_granica_pasa
  0
POLYLINE
  5
13A
100
AcDbEntity
  8
_MF_kraweznik
  6
CONTINUOUS
420
16711935
370
35
100
AcDb3dPolyline
 66
1
 70
136
  0
VERTEX
  5
13B
100
AcDbEntity
  8
_MF_kraweznik
100
AcDbVertex
100
AcDb3dPolylineVertex
 10
8412581.14571055616
 20
5787072.42495706752
 30
0.000
 70
32
  0
VERTEX
  5
13C
100
AcDbEntity
  8
_MF_kraweznik
100
AcDbVertex
100
AcDb3dPolylineVertex
 10
8412580.72214043648
 20
5787070.9834361408
 70
32
  0
SEQEND
  5
13D
100
AcDbEntity
  8
_MF_kraweznik
  0
POLYLINE
  5
13E
100
AcDbEntity
  8
_MF_kraweznik
  6
CONTINUOUS
420
16711935
370
35
100
AcDb3dPolyline
 66
1
 70
136
  0
VERTEX
  5
13F
100
AcDbEntity
  8
_MF_kraweznik
100
AcDbVertex
100
AcDb3dPolylineVertex
 10
8412581.14571055616
 20
5787072.42495706752
 30
0.000
 70
32
  0
VERTEX
  5
140
100
AcDbEntity
  8
_MF_kraweznik
100
AcDbVertex
100
AcDb3dPolylineVertex
 10
8412581.84762907008
 20
5787072.2187084416
 30
0.000
 70
32
  0
SEQEND
  5
141
100
AcDbEntity
  8
_MF_kraweznik
  0
POLYLINE
  5
142
100
AcDbEntity
  8
_MF_obrzeze
  6
L_0_03
420
10027008
370
35
100
AcDb3dPolyline
 66
1
 70
136
  0
VERTEX
  5
143
100
AcDbEntity
  8
_MF_obrzeze
100
AcDbVertex
100
AcDb3dPolylineVertex
 10
8412554.43097061888
 20
5787033.046901888
 30
0.000
 70
32
  0
VERTEX
  5
144
100
AcDbEntity
  8
_MF_obrzeze
100
AcDbVertex
100
AcDb3dPolylineVertex
 10
8412557.84836838016
 20
5787040.59913560576
 30
0.000
 70
32
  0
SEQEND
  5
145
100
AcDbEntity
  8
_MF_obrzeze
  0
POLYLINE
  5
146
100
AcDbEntity
  8
_MF_obrzeze
  6
L_0_03
420
10027008
370
35
100
AcDb3dPolyline
 66
1
 70
136
  0
VERTEX
  5
147
100
AcDbEntity
  8
_MF_obrzeze
100
AcDbVertex
100
AcDb3dPolylineVertex
 10
8412557.84836838016
 20
5787040.59913560576
 30
0.000
 70
32
  0
VERTEX
  5
148
100
AcDbEntity
  8
_MF_obrzeze
100
AcDbVertex
100
AcDb3dPolylineVertex
 10
8412561.06639412352
 20
5787048.62167242112
 70
32
  0
SEQEND
  5
149
100
AcDbEntity
  8
_MF_obrzeze
  0
POLYLINE
  5
14A
100
AcDbEntity
  8
_MF_obrzeze
  6
L_0_03
420
10027008
370
35
100
AcDb3dPolyline
 66
1
 70
136
  0
VERTEX
  5
14B
100
AcDbEntity
  8
_MF_obrzeze
100
AcDbVertex
100
AcDb3dPolylineVertex
 10
8412561.06639412352
 20
5787048.62167242112
 70
32
  0
VERTEX
  5
14C
100
AcDbEntity
  8
_MF_obrzeze
100
AcDbVertex
100
AcDb3dPolylineVertex
 10
8412564.3732904576
 20
5787057.4560510848
 70
32
  0
SEQEND
  5
14D
100
AcDbEntity
  8
_MF_obrzeze
  0
POLYLINE
  5
14E
100
AcDbEntity
  8
_MF_obrzeze
  6
L_0_03
420
10027008
370
35
100
AcDb3dPolyline
 66
1
 70
136
  0
VERTEX
  5
14F
100
AcDbEntity
  8
_MF_obrzeze
100
AcDbVertex
100
AcDb3dPolylineVertex
 10
8412564.3732904576
 20
5787057.4560510848
 70
32
  0
VERTEX
  5
150
100
AcDbEntity
  8
_MF_obrzeze
100
AcDbVertex
100
AcDb3dPolylineVertex
 10
8412569.28382900608
 20
5787070.48573811968
 30
0.000
 70
32
  0
SEQEND
  5
151
100
AcDbEntity
  8
_MF_obrzeze
  0
POLYLINE
  5
152
100
AcDbEntity
  8
_MF_obrzeze
  6
L_0_03
420
10027008
370
35
100
AcDb3dPolyline
 66
1
 70
136
  0
VERTEX
  5
153
100
AcDbEntity
  8
_MF_obrzeze
100
AcDbVertex
100
AcDb3dPolylineVertex
 10
8412569.28382900608
 20
5787070.48573811968
 30
0.000
 70
32
  0
VERTEX
  5
154
100
AcDbEntity
  8
_MF_obrzeze
100
AcDbVertex
100
AcDb3dPolylineVertex
 10
8412573.99168880384
 20
5787083.12743898368
 70
32
  0
SEQEND
  5
155
100
AcDbEntity
  8
_MF_obrzeze
  0
POLYLINE
  5
156
100
AcDbEntity
  8
_MF_obrzeze
  6
L_0_03
420
10027008
370
35
100
AcDb3dPolyline
 66
1
 70
136
  0
VERTEX
  5
157
100
AcDbEntity
  8
_MF_obrzeze
100
AcDbVertex
100
AcDb3dPolylineVertex
 10
8412573.99168880384
 20
5787083.12743898368
 70
32
  0
VERTEX
  5
158
100
AcDbEntity
  8
_MF_obrzeze
100
AcDbVertex
100
AcDb3dPolylineVertex
 10
8412574.54508508416
 20
5787084.49213325952
 70
32
  0
SEQEND
  5
159
100
AcDbEntity
  8
_MF_obrzeze
  0
POLYLINE
  5
15A
100
AcDbEntity
  8
_MF_obrzeze
  6
L_0_03
420
10027008
370
35
100
AcDb3dPolyline
 66
1
 70
136
  0
VERTEX
  5
15B
100
AcDbEntity
  8
_MF_obrzeze
100
AcDbVertex
100
AcDb3dPolylineVertex
 10
8412582.04885707904
 20
5787110.8915515648
 70
32
  0
VERTEX
  5
15C
100
AcDbEntity
  8
_MF_obrzeze
100
AcDbVertex
100
AcDb3dPolylineVertex
 10
8412584.23615516032
 20
5787117.60917777792
 70
32
  0
SEQEND
  5
15D
100
AcDbEntity
  8
_MF_obrzeze
  0
POLYLINE
  5
15E
100
AcDbEntity
  8
_MF_obrzeze
  6
L_0_03
420
10027008
370
35
100
AcDb3dPolyline
 66
1
 70
136
  0
VERTEX
  5
15F
100
AcDbEntity
  8
_MF_obrzeze
100
AcDbVertex
100
AcDb3dPolylineVertex
 10
8412584.23615516032
 20
5787117.60917777792
 70
32
  0
VERTEX
  5
160
100
AcDbEntity
  8
_MF_obrzeze
100
AcDbVertex
100
AcDb3dPolylineVertex
 10
8412586.24047754624
 20
5787123.41368327296
 70
32
  0
SEQEND
  5
161
100
AcDbEntity
  8
_MF_obrzeze
  0
POLYLINE
  5
162
100
AcDbEntity
  8
_MF_obrzeze
  6
L_0_03
420
10027008
370
35
100
AcDb3dPolyline
 66
1
 70
136
  0
VERTEX
  5
163
100
AcDbEntity
  8
_MF_obrzeze
100
AcDbVertex
100
AcDb3dPolylineVertex
 10
8412586.24047754624
 20
5787123.41368327296
 70
32
  0
VERTEX
  5
164
100
AcDbEntity
  8
_MF_obrzeze
100
AcDbVertex
100
AcDb3dPolylineVertex
 10
8412590.17983274112
 20
5787134.81841518336
 70
32
  0
SEQEND
  5
165
100
AcDbEntity
  8
_MF_obrzeze
  0
POLYLINE
  5
166
100
AcDbEntity
  8
_MF_obrzeze
  6
L_0_03
420
10027008
370
35
100
AcDb3dPolyline
 66
1
 70
136
  0
VERTEX
  5
167
100
AcDbEntity
  8
_MF_obrzeze
100
AcDbVertex
100
AcDb3dPolylineVertex
 10
8412596.12202049152
 20
5787153.54261121408
 70
32
  0
VERTEX
  5
168
100
AcDbEntity
  8
_MF_obrzeze
100
AcDbVertex
100
AcDb3dPolylineVertex
 10
8412596.57728697856
 20
5787155.19459245184
 70
32
  0
SEQEND
  5
169
100
AcDbEntity
  8
_MF_obrzeze
  0
POLYLINE
  5
16A
100
AcDbEntity
  8
_MF_obrzeze
  6
L_0_03
420
10027008
370
35
100
AcDb3dPolyline
 66
1
 70
136
  0
VERTEX
  5
16B
100
AcDbEntity
  8
_MF_obrzeze
100
AcDbVertex
100
AcDb3dPolylineVertex
 10
8412602.1067631424
 20
5787172.44903632128
 70
32
  0
VERTEX
  5
16C
100
AcDbEntity
  8
_MF_obrzeze
100
AcDbVertex
100
AcDb3dPolylineVertex
 10
8412607.19590431616
 20
5787171.82211910912
 30
0.000
 70
32
  0
SEQEND
  5
16D
100
AcDbEntity
  8
_MF_obrzeze
  0
POLYLINE
  5
16E
100
AcDbEntity
  8
_MF_obrzeze
  6
L_0_03
420
10027008
370
35
100
AcDb3dPolyline
 66
1
 70
136
  0
VERTEX
  5
16F
100
AcDbEntity
  8
_MF_obrzeze
100
AcDbVertex
100
AcDb3dPolylineVertex
 10
8412597.5204163264
 20
5787135.19171871616
 30
0.000
 70
32
  0
VERTEX
  5
170
100
AcDbEntity
  8
_MF_obrzeze
100
AcDbVertex
100
AcDb3dPolylineVertex
 10
8412596.03858967424
 20
5787129.92131561472
 70
32
  0
SEQEND
  5
171
100
AcDbEntity
  8
_MF_obrzeze
  0
POLYLINE
  5
172
100
AcDbEntity
  8
_MF_obrzeze
  6
L_0_03
420
10027008
370
35
100
AcDb3dPolyline
 66
1
 70
136
  0
VERTEX
  5
173
100
AcDbEntity
  8
_MF_obrzeze
100
AcDbVertex
100
AcDb3dPolylineVertex
 10
8412597.78426071552
 20
5787159.3178659136
 30
0.000
 70
32
  0
VERTEX
  5
174
100
AcDbEntity
  8
_MF_obrzeze
100
AcDbVertex
100
AcDb3dPolylineVertex
 10
8412598.4572495552
 20
5787159.7892638976
 30
0.000
 70
32
  0
SEQEND
  5
175
100
AcDbEntity
  8
_MF_obrzeze
  0
POLYLINE
  5
176
100
AcDbEntity
  8
_MF_obrzeze
  6
L_0_03
420
10027008
370
35
100
AcDb3dPolyline
 66
1
 70
136
  0
VERTEX
  5
177
100
AcDbEntity
  8
_MF_obrzeze
100
AcDbVertex
100
AcDb3dPolylineVertex
 10
8412596.12124524544
 20
5787153.5526532224
 70
32
  0
VERTEX
  5
178
100
AcDbEntity
  8
_MF_obrzeze
100
AcDbVertex
100
AcDb3dPolylineVertex
 10
8412596.41443052288
 20
5787152.87958657792
 30
0.000
 70
32
  0
SEQEND
  5
179
100
AcDbEntity
  8
_MF_obrzeze
  0
POLYLINE
  5
17A
100
AcDbEntity
  8
_MF_obrzeze
  6
L_0_03
420
10027008
370
35
100
AcDb3dPolyline
 66
1
 70
136
  0
VERTEX
  5
17B
100
AcDbEntity
  8
_MF_obrzeze
100
AcDbVertex
100
AcDb3dPolylineVertex
 10
8412587.32002299008
 20
5787126.53904916608
 70
32
  0
VERTEX
  5
17C
100
AcDbEntity
  8
_MF_obrzeze
100
AcDbVertex
100
AcDb3dPolylineVertex
 10
8412588.90436870912
 20
5787127.41162150528
 30
0.000
 70
32
  0
SEQEND
  5
17D
100
AcDbEntity
  8
_MF_obrzeze
  0
POLYLINE
  5
17E
100
AcDbEntity
  8
_MF_obrzeze
  6
L_0_03
420
10027008
370
35
100
AcDb3dPolyline
 66
1
 70
136
  0
VERTEX
  5
17F
100
AcDbEntity
  8
_MF_obrzeze
100
AcDbVertex
100
AcDb3dPolylineVertex
 10
8412585.38402284544
 20
5787120.86436573056
 30
0.000
 70
32
  0
VERTEX
  5
180
100
AcDbEntity
  8
_MF_obrzeze
100
AcDbVertex
100
AcDb3dPolylineVertex
 10
8412586.4145685632
 20
5787119.16533440384
 30
0.000
 70
32
  0
SEQEND
  5
181
100
AcDbEntity
  8
_MF_obrzeze
  0
POLYLINE
  5
182
100
AcDbEntity
  8
_MF_obrzeze
  6
L_0_03
420
10027008
370
35
100
AcDb3dPolyline
 66
1
 70
136
  0
VERTEX
  5
183
100
AcDbEntity
  8
_MF_obrzeze
100
AcDbVertex
100
AcDb3dPolylineVertex
 10
8412574.54508508416
 20
5787084.49213325952
 70
32
  0
VERTEX
  5
184
100
AcDbEntity
  8
_MF_obrzeze
100
AcDbVertex
100
AcDb3dPolylineVertex
 10
8412575.29897451648
 20
5787084.8418039808
 30
0.000
 70
32
  0
SEQEND
  5
185
100
AcDbEntity
  8
_MF_obrzeze
  0
POLYLINE
  5
186
100
AcDbEntity
  8
_MF_obrzeze
  6
L_0_03
420
10027008
370
35
100
AcDb3dPolyline
 66
1
 70
136
  0
VERTEX
  5
187
100
AcDbEntity
  8
_MF_obrzeze
100
AcDbVertex
100
AcDb3dPolylineVertex
 10
8412573.0581885312
 20
5787080.68879357056
 70
32
  0
VERTEX
  5
188
100
AcDbEntity
  8
_MF_obrzeze
100
AcDbVertex
100
AcDb3dPolylineVertex
 10
8412573.46933321472
 20
5787079.79582384768
 70
32
  0
SEQEND
  5
189
100
AcDbEntity
  8
_MF_obrzeze
  0
POLYLINE
  5
18A
100
AcDbEntity
  8
_MF_obrzeze
  6
L_0_03
420
10027008
370
35
100
AcDb3dPolyline
 66
1
 70
136
  0
VERTEX
  5
18B
100
AcDbEntity
  8
_MF_obrzeze
100
AcDbVertex
100
AcDb3dPolylineVertex
 10
8412562.57275013888
 20
5787052.64590483328
 70
32
  0
VERTEX
  5
18C
100
AcDbEntity
  8
_MF_obrzeze
100
AcDbVertex
100
AcDb3dPolylineVertex
 10
8412563.35047534464
 20
5787053.17345264384
 30
0.000
 70
32
  0
SEQEND
  5
18D
100
AcDbEntity
  8
_MF_obrzeze
  0
POLYLINE
  5
18E
100
AcDbEntity
  8
_MF_obrzeze
  6
L_0_03
420
10027008
370
35
100
AcDb3dPolyline
 66
1
 70
136
  0
VERTEX
  5
18F
100
AcDbEntity
  8
_MF_obrzeze
100
AcDbVertex
100
AcDb3dPolylineVertex
 10
8412560.83082027264
 20
5787048.03438690688
 70
32
  0
VERTEX
  5
190
100
AcDbEntity
  8
_MF_obrzeze
100
AcDbVertex
100
AcDb3dPolylineVertex
 10
8412561.02085756288
 20
5787047.08078425216
 30
0.000
 70
32
  0
SEQEND
  5
191
100
AcDbEntity
  8
_MF_obrzeze
  0
POLYLINE
  5
192
100
AcDbEntity
  8
_MF_obrzeze
  6
L_0_03
420
10027008
370
35
100
AcDb3dPolyline
 66
1
 70
136
  0
VERTEX
  5
193
100
AcDbEntity
  8
_MF_obrzeze
100
AcDbVertex
100
AcDb3dPolylineVertex
 10
8412597.5204163264
 20
5787135.19171871616
 30
0.000
 70
32
  0
VERTEX
  5
194
100
AcDbEntity
  8
_MF_obrzeze
100
AcDbVertex
100
AcDb3dPolylineVertex
 10
8412596.47566144
 20
5787137.18323024512
 70
32
  0
SEQEND
  5
195
100
AcDbEntity
  8
_MF_obrzeze
  0
POLYLINE
  5
196
100
AcDbEntity
  8
_MF_obrzeze
  6
L_0_03
420
10027008
370
35
100
AcDb3dPolyline
 66
1
 70
136
  0
VERTEX
  5
197
100
AcDbEntity
  8
_MF_obrzeze
100
AcDbVertex
100
AcDb3dPolylineVertex
 10
8412596.03858967424
 20
5787129.92131561472
 70
32
  0
VERTEX
  5
198
100
AcDbEntity
  8
_MF_obrzeze
100
AcDbVertex
100
AcDb3dPolylineVertex
 10
8412593.92797435776
 20
5787128.5387037568
 70
32
  0
SEQEND
  5
199
100
AcDbEntity
  8
_MF_obrzeze
  0
POLYLINE
  5
19A
100
AcDbEntity
  8
_MF_obrzeze
  6
L_0_03
420
10027008
370
35
100
AcDb3dPolyline
 66
1
 70
136
  0
VERTEX
  5
19B
100
AcDbEntity
  8
_MF_obrzeze
100
AcDbVertex
100
AcDb3dPolylineVertex
 10
8412597.7624489024
 20
5787159.30801649024
 70
32
  0
VERTEX
  5
19C
100
AcDbEntity
  8
_MF_obrzeze
100
AcDbVertex
100
AcDb3dPolylineVertex
 10
8412596.12124524544
 20
5787153.5526532224
 70
32
  0
SEQEND
  5
19D
100
AcDbEntity
  8
_MF_obrzeze
  0
POLYLINE
  5
19E
100
AcDbEntity
  8
_MF_obrzeze
  6
L_0_03
420
10027008
370
35
100
AcDb3dPolyline
 66
1
 70
136
  0
VERTEX
  5
19F
100
AcDbEntity
  8
_MF_obrzeze
100
AcDbVertex
100
AcDb3dPolylineVertex
 10
8412576.68771575296
 20
5787072.63279815296
 70
32
  0
VERTEX
  5
1A0
100
AcDbEntity
  8
_MF_obrzeze
100
AcDbVertex
100
AcDb3dPolylineVertex
 10
8412574.2250186176
 20
5787065.98797565056
 70
32
  0
SEQEND
  5
1A1
100
AcDbEntity
  8
_MF_obrzeze
  0
POLYLINE
  5
1A2
100
AcDbEntity
  8
_MF_obrzeze
  6
L_0_03
420
10027008
370
35
100
AcDb3dPolyline
 66
1
 70
136
  0
VERTEX
  5
1A3
100
AcDbEntity
  8
_MF_obrzeze
100
AcDbVertex
100
AcDb3dPolylineVertex
 10
8412574.2250186176
 20
5787065.98797565056
 70
32
  0
VERTEX
  5
1A4
100
AcDbEntity
  8
_MF_obrzeze
100
AcDbVertex
100
AcDb3dPolylineVertex
 10
8412570.164781632
 20
5787055.0651442176
 70
32
  0
SEQEND
  5
1A5
100
AcDbEntity
  8
_MF_obrzeze
  0
POLYLINE
  5
1A6
100
AcDbEntity
  8
_MF_obrzeze
  6
L_0_03
420
10027008
370
35
100
AcDb3dPolyline
 66
1
 70
136
  0
VERTEX
  5
1A7
100
AcDbEntity
  8
_MF_obrzeze
100
AcDbVertex
100
AcDb3dPolylineVertex
 10
8412570.164781632
 20
5787055.0651442176
 70
32
  0
VERTEX
  5
1A8
100
AcDbEntity
  8
_MF_obrzeze
100
AcDbVertex
100
AcDb3dPolylineVertex
 10
8412565.95228302336
 20
5787043.78334510976
 70
32
  0
SEQEND
  5
1A9
100
AcDbEntity
  8
_MF_obrzeze
  0
POLYLINE
  5
1AA
100
AcDbEntity
  8
_MF_obrzeze
  6
L_0_03
420
10027008
370
35
100
AcDb3dPolyline
 66
1
 70
136
  0
VERTEX
  5
1AB
100
AcDbEntity
  8
_MF_obrzeze
100
AcDbVertex
100
AcDb3dPolylineVertex
 10
8412565.95228302336
 20
5787043.78334510976
 70
32
  0
VERTEX
  5
1AC
100
AcDbEntity
  8
_MF_obrzeze
100
AcDbVertex
100
AcDb3dPolylineVertex
 10
8412562.47690023296
 20
5787034.65725443456
 70
32
  0
SEQEND
  5
1AD
100
AcDbEntity
  8
_MF_obrzeze
  0
POLYLINE
  5
1AE
100
AcDbEntity
  8
_MF_obrzeze
  6
L_0_03
420
10027008
370
35
100
AcDb3dPolyline
 66
1
 70
136
  0
VERTEX
  5
1AF
100
AcDbEntity
  8
_MF_obrzeze
100
AcDbVertex
100
AcDb3dPolylineVertex
 10
8412562.47690023296
 20
5787034.65725443456
 70
32
  0
VERTEX
  5
1B0
100
AcDbEntity
  8
_MF_obrzeze
100
AcDbVertex
100
AcDb3dPolylineVertex
 10
8412561.12585208448
 20
5787034.39972742656
 70
32
  0
SEQEND
  5
1B1
100
AcDbEntity
  8
_MF_obrzeze
  0
POINT
  5
1B2
100
AcDbEntity
  8
0
100
AcDbPoint
 62
0
 10
8412556.17986586624
 20
5787028.1198714304
 30
0.000
  0
POINT
  5
1B3
100
AcDbEntity
  8
0
100
AcDbPoint
 62
0
 10
8412605.13801153536
 20
5787174.52886610048
 30
0.000
  0
POINT
  5
1B4
100
AcDbEntity
  8
0
100
AcDbPoint
 62
0
 10
8412581.77848064
 20
5787095.06813754496
  0
POINT
  5
1B5
100
AcDbEntity
  8
0
100
AcDbPoint
 62
0
 10
8412589.05215967104
 20
5787119.80654997504
 30
151.042
  0
POINT
  5
1B6
100
AcDbEntity
  8
0
100
AcDbPoint
 62
0
 10
8412581.2956840512
 20
5787095.23349917184
 30
151.301
  0
POINT
  5
1B7
100
AcDbEntity
  8
0
100
AcDbPoint
 62
0
 10
8412572.57133768192
 20
5787070.98718975616
 30
151.506
  0
POINT
  5
1B8
100
AcDbEntity
  8
0
100
AcDbPoint
 62
0
 10
8412605.14
 20
5787174.53
 30
150.490
  0
POINT
  5
1B9
100
AcDbEntity
  8
0
100
AcDbPoint
 62
0
 10
8412602.31951341952
 20
5787164.93599898624
 30
150.633
  0
POINT
  5
1BA
100
AcDbEntity
  8
0
100
AcDbPoint
 62
0
 10
8412599.4990268416
 20
5787155.34199797248
 30
150.717
  0
POINT
  5
1BB
100
AcDbEntity
  8
0
100
AcDbPoint
 62
0
 10
8412596.67854025984
 20
5787145.74799695872
 30
150.802
  0
POINT
  5
1BC
100
AcDbEntity
  8
0
100
AcDbPoint
 62
0
 10
8412593.85805367936
 20
5787136.15399594624
 30
150.886
  0
POINT
  5
1BD
100
AcDbEntity
  8
0
100
AcDbPoint
 62
0
 10
8412591.03756709632
 20
5787126.55999493248
 30
150.975
  0
POINT
  5
1BE
100
AcDbEntity
  8
0
100
AcDbPoint
 62
0
 10
8412588.21061402112
 20
5787116.9679056384
 30
151.071
  0
POINT
  5
1BF
100
AcDbEntity
  8
0
100
AcDbPoint
 62
0
 10
8412585.2728700096
 20
5787107.40926097792
 30
151.172
  0
POINT
  5
1C0
100
AcDbEntity
  8
0
100
AcDbPoint
 62
0
 10
8412582.18842338432
 20
5787097.89694177408
 30
151.273
  0
POINT
  5
1C1
100
AcDbEntity
  8
0
100
AcDbPoint
 62
0
 10
8412578.95800417408
 20
5787088.43319941888
 30
151.374
  0
POINT
  5
1C2
100
AcDbEntity
  8
0
100
AcDbPoint
 62
0
 10
8412575.58237696
 20
5787079.02027380992
 30
151.475
  0
POINT
  5
1C3
100
AcDbEntity
  8
0
100
AcDbPoint
 62
0
 10
8412572.0637912704
 20
5787069.6598369344
 30
151.507
  0
POINT
  5
1C4
100
AcDbEntity
  8
0
100
AcDbPoint
 62
0
 10
8412568.49223760896
 20
5787060.31938702848
 30
151.474
  0
POINT
  5
1C5
100
AcDbEntity
  8
0
100
AcDbPoint
 62
0
 10
8412564.9206839488
 20
5787050.97893712256
 30
151.281
  0
POINT
  5
1C6
100
AcDbEntity
  8
0
100
AcDbPoint
 62
0
 10
8412561.34913028736
 20
5787041.63848721664
 30
150.922
  0
POINT
  5
1C7
100
AcDbEntity
  8
0
100
AcDbPoint
 62
0
 10
8412557.77757662464
 20
5787032.29803731072
 30
150.396
  0
POINT
  5
1C8
100
AcDbEntity
  8
0
100
AcDbPoint
 62
0
 10
8412586.7601241152
 20
5787112.1829337728
 30
151.122
  0
POINT
  5
1C9
100
AcDbEntity
  8
0
100
AcDbPoint
 62
0
 10
8412583.74893970816
 20
5787102.64716971904
 30
151.223
  0
POINT
  5
1CA
100
AcDbEntity
  8
0
100
AcDbPoint
 62
0
 10
8412580.59141337216
 20
5787093.15885822208
 30
151.324
  0
POINT
  5
1CB
100
AcDbEntity
  8
0
100
AcDbPoint
 62
0
 10
8412577.28829243648
 20
5787083.720244992
 30
151.424
  0
POINT
  5
1CC
100
AcDbEntity
  8
0
100
AcDbPoint
 62
0
 10
8412573.84035868544
 20
5787074.33356397568
 30
151.502
  0
POINT
  5
1CD
100
AcDbEntity
  8
0
100
AcDbPoint
 62
0
 10
8412604.47816364928
 20
5787164.30138950656
 30
150.588
  0
POINT
  5
1CE
100
AcDbEntity
  8
0
100
AcDbPoint
 62
0
 10
8412601.6576770688
 20
5787154.70738849152
 30
150.672
  0
POINT
  5
1CF
100
AcDbEntity
  8
0
100
AcDbPoint
 62
0
 10
8412598.83719048832
 20
5787145.11338747904
 30
150.757
  0
POINT
  5
1D0
100
AcDbEntity
  8
0
100
AcDbPoint
 62
0
 10
8412596.01670390784
 20
5787135.51938646528
 30
150.841
  0
POINT
  5
1D1
100
AcDbEntity
  8
0
100
AcDbPoint
 62
0
 10
8412593.19621732608
 20
5787125.92538545152
 30
150.930
  0
POINT
  5
1D2
100
AcDbEntity
  8
0
100
AcDbPoint
 62
0
 10
8412590.3663512064
 20
5787116.32347008128
 30
151.026
  0
POINT
  5
1D3
100
AcDbEntity
  8
0
100
AcDbPoint
 62
0
 10
8412587.41843808128
 20
5787106.7317378048
 30
151.127
  0
POINT
  5
1D4
100
AcDbEntity
  8
0
100
AcDbPoint
 62
0
 10
8412584.32331452416
 20
5787097.18649134208
 30
151.228
  0
POINT
  5
1D5
100
AcDbEntity
  8
0
100
AcDbPoint
 62
0
 10
8412581.08171309312
 20
5787087.68998988032
 30
151.329
  0
POINT
  5
1D6
100
AcDbEntity
  8
0
100
AcDbPoint
 62
0
 10
8412577.6944010176
 20
5787078.24448106496
 30
151.430
  0
POINT
  5
1D7
100
AcDbEntity
  8
0
100
AcDbPoint
 62
0
 10
8412574.16539249664
 20
5787068.85623736064
 30
151.462
  0
POINT
  5
1D8
100
AcDbEntity
  8
0
100
AcDbPoint
 62
0
 10
8412570.59383883648
 20
5787059.51578745472
 30
151.429
  0
POINT
  5
1D9
100
AcDbEntity
  8
0
100
AcDbPoint
 62
0
 10
8412567.02228517504
 20
5787050.1753375488
 30
151.236
  0
POINT
  5
1DA
100
AcDbEntity
  8
0
100
AcDbPoint
 62
0
 10
8412563.45073151616
 20
5787040.83488764288
 30
150.877
  0
POINT
  5
1DB
100
AcDbEntity
  8
0
100
AcDbPoint
 62
0
 10
8412559.87917785344
 20
5787031.49443773696
 30
150.351
  0
POINT
  5
1DC
100
AcDbEntity
  8
0
100
AcDbPoint
 62
0
 10
8412600.16086319104
 20
5787165.5706084672
 30
150.588
  0
POINT
  5
1DD
100
AcDbEntity
  8
0
100
AcDbPoint
 62
0
 10
8412597.34037661184
 20
5787155.97660745344
 30
150.672
  0
POINT
  5
1DE
100
AcDbEntity
  8
0
100
AcDbPoint
 62
0
 10
8412594.51989003008
 20
5787146.3826064384
 30
150.757
  0
POINT
  5
1DF
100
AcDbEntity
  8
0
100
AcDbPoint
 62
0
 10
8412591.6994034496
 20
5787136.7886054272
 30
150.841
  0
POINT
  5
1E0
100
AcDbEntity
  8
0
100
AcDbPoint
 62
0
 10
8412588.87891686912
 20
5787127.19460441216
 30
150.930
  0
POINT
  5
1E1
100
AcDbEntity
  8
0
100
AcDbPoint
 62
0
 10
8412586.05487683712
 20
5787117.6123411968
 30
151.026
  0
POINT
  5
1E2
100
AcDbEntity
  8
0
100
AcDbPoint
 62
0
 10
8412583.1273019392
 20
5787108.08678415104
 30
151.127
  0
POINT
  5
1E3
100
AcDbEntity
  8
0
100
AcDbPoint
 62
0
 10
8412580.05353224192
 20
5787098.60739220736
 30
151.228
  0
POINT
  5
1E4
100
AcDbEntity
  8
0
100
AcDbPoint
 62
0
 10
8412576.83429525248
 20
5787089.17640896
 30
151.329
  0
POINT
  5
1E5
100
AcDbEntity
  8
0
100
AcDbPoint
 62
0
 10
8412573.47035290112
 20
5787079.7960665536
 30
151.430
  0
POINT
  5
1E6
100
AcDbEntity
  8
0
100
AcDbPoint
 62
0
 10
8412569.96219004032
 20
5787070.46343650816
 30
151.462
  0
POINT
  5
1E7
100
AcDbEntity
  8
0
100
AcDbPoint
 62
0
 10
8412566.39063638016
 20
5787061.12298660224
 30
151.429
  0
POINT
  5
1E8
100
AcDbEntity
  8
0
100
AcDbPoint
 62
0
 10
8412562.81908272128
 20
5787051.78253669632
 30
151.236
  0
POINT
  5
1E9
100
AcDbEntity
  8
0
100
AcDbPoint
 62
0
 10
8412559.24752905984
 20
5787042.4420867904
 30
150.877
  0
POINT
  5
1EA
100
AcDbEntity
  8
0
100
AcDbPoint
 62
0
 10
8412606.5935285824
 20
5787171.4968902656
 30
150.525
  0
POINT
  5
1EB
100
AcDbEntity
  8
0
100
AcDbPoint
 62
0
 10
8412560.95064395392
 20
5787034.29657270912
 30
150.526
  0
POINT
  5
1EC
100
AcDbEntity
  8
0
100
AcDbPoint
 62
0
 10
8412602.27622812672
 20
5787172.7661092288
 30
150.525
  0
POINT
  5
1ED
100
AcDbEntity
  8
0
100
AcDbPoint
 62
0
 10
8412555.67597539712
 20
5787033.10163688448
 30
150.351
  0
POINT
  5
1EE
100
AcDbEntity
  8
0
100
AcDbPoint
 62
0
 10
8412601.99613545856
 20
5787155.8586686144
 30
150.662
  0
POINT
  5
1EF
100
AcDbEntity
  8
0
100
AcDbPoint
 62
0
 10
8412573.50465506944
 20
5787067.12825412736
 30
151.464
  0
POINT
  5
1F0
100
AcDbEntity
  8
0
100
AcDbPoint
 62
0
 10
8412597.67883500032
 20
5787157.12788757504
 30
150.662
  0
POINT
  5
1F1
100
AcDbEntity
  8
0
100
AcDbPoint
 62
0
 10
8412569.30145261312
 20
5787068.73545327488
 30
151.464
  0
TEXT
  5
1F2
100
AcDbEntity
  8
TT_OpisLukiKlotki
420
0
100
AcDbText
 10
8412573.42253195776
 20
5787114.00653458816
 40
1.37
  1
£uk  =0+073,64
 50
-108.20
 41
0.78
  7
arial.ttf
 72
0
 11
8412574.72132187264
 21
5787113.57951419008
100
AcDbText
 73
3
  0
TEXT
  5
1F3
100
AcDbEntity
  8
TT_OpisLukiKlotki
420
0
100
AcDbText
 10
8412569.86056464128
 20
5787115.17909112192
 40
1.37
  1
R= 650,00
 50
-108.20
 41
0.78
  7
arial.ttf
 72
0
 11
8412571.15935455616
 21
5787114.75207072384
100
AcDbText
 73
3
  0
TEXT
  5
1F4
100
AcDbEntity
  8
TT_OpisLukiKlotki
420
0
100
AcDbText
 10
8412567.48591976192
 20
5787115.96079547648
 40
1.37
  1
a= 4 32'35''
 50
-108.20
 41
0.78
  7
arial.ttf
 72
0
 11
8412568.7847096768
 21
5787115.53377507968
100
AcDbText
 73
3
  0
TEXT
  5
1F5
100
AcDbEntity
  8
TT_OpisLukiKlotki
420
0
100
AcDbText
 10
8412565.59975987456
 20
5787116.5816964864
 40
1.37
  1
£= 48,27
 50
-108.20
 41
0.78
  7
arial.ttf
 72
0
 11
8412566.89854978944
 21
5787116.1546760896
100
AcDbText
 73
3
  0
TEXT
  5
1F6
100
AcDbEntity
  8
TT_OpisLukiKlotki
420
0
100
AcDbText
 10
8412563.191605184
 20
5787117.23898057728
 40
1.37
  1
B= 0,42
 50
-108.20
 41
0.78
  7
arial.ttf
 72
0
 11
8412564.49039509888
 21
5787116.81196018048
100
AcDbText
 73
3
  0
TEXT
  5
1F7
100
AcDbEntity
  8
TT_OpisLukiKlotki
420
0
100
AcDbText
 10
8412560.96329592448
 20
5787117.80320530688
 40
1.37
  1
i= 2,00%^ 
 50
-108.20
 41
0.78
  7
arial.ttf
 72
0
 11
8412562.26208583808
 21
5787117.3761849088
100
AcDbText
 73
3
  0
TEXT
  5
1F8
100
AcDbEntity
  8
TT_OpisLukiKlotki
420
0
100
AcDbText
 10
8412584.42302832128
 20
5787119.50952707584
 40
0.79
  1
P£K  0+057,10
 50
162.70
 41
0.78
  7
arial.ttf
 72
0
 11
8412584.18884560896
 21
5787118.75765294464
100
AcDbText
 73
3
  0
TEXT
  5
1F9
100
AcDbEntity
  8
TT_OpisLukiKlotki
420
0
100
AcDbText
 10
8412567.5611157056
 20
5787074.05094023424
 40
0.79
  1
K£K 105,93
 50
158.90
 41
0.78
  7
arial.ttf
 72
0
 11
8412567.27761821952
 21
5787073.31623932672
100
AcDbText
 73
3
  0
TEXT
  5
1FA
100
AcDbEntity
  8
TT_OpisLukiKlotki
420
0
100
AcDbText
 10
8412595.80563366912
 20
5787155.09261964672
 40
0.79
  1
zjazd publiczny
 50
162.70
 41
0.78
  7
arial.ttf
 72
0
 11
8412595.5714509568
 21
5787154.3407455168
100
AcDbText
 73
3
  0
TEXT
  5
1FB
100
AcDbEntity
  8
TT_OpisLukiKlotki
420
0
100
AcDbText
 10
8412595.56805813504
 20
5787156.19427164544
 40
0.79
  1
lok 0+019
 50
162.70
 41
0.78
  7
arial.ttf
 72
0
 11
8412595.33387542272
 21
5787155.44239751552
100
AcDbText
 73
3
  0
TEXT
  5
1FC
100
AcDbEntity
  8
TT_OpisLukiKlotki
420
0
100
AcDbText
 10
8412582.75189112704
 20
5787124.24264251392
 40
0.79
  1
zjazd publiczny
 50
162.70
 41
0.78
  7
arial.ttf
 72
0
 11
8412582.51770841472
 21
5787123.490768384
100
AcDbText
 73
3
  0
TEXT
  5
1FD
100
AcDbEntity
  8
TT_OpisLukiKlotki
420
0
100
AcDbText
 10
8412582.8050090112
 20
5787125.5827289152
 40
0.79
  1
lok 0+054
 50
162.70
 41
0.78
  7
arial.ttf
 72
0
 11
8412582.57082629888
 21
5787124.83085478528
100
AcDbText
 73
3
  0
TEXT
  5
1FE
100
AcDbEntity
  8
TT_OpisLukiKlotki
420
0
100
AcDbText
 10
8412602.69049905664
 20
5787130.75785789184
 40
0.79
  1
zjazd indywidalny
 50
162.70
 41
0.78
  7
arial.ttf
 72
0
 11
8412602.45631634432
 21
5787130.00598376192
100
AcDbText
 73
3
  0
TEXT
  5
1FF
100
AcDbEntity
  8
TT_OpisLukiKlotki
420
0
100
AcDbText
 10
8412601.75913031168
 20
5787132.76342305024
 40
0.79
  1
lok 0+043
 50
162.70
 41
0.78
  7
arial.ttf
 72
0
 11
8412601.52494759808
 21
5787132.01154892032
100
AcDbText
 73
3
  0
TEXT
  5
200
100
AcDbEntity
  8
TT_OpisLukiKlotki
420
0
100
AcDbText
 10
8412600.23453128576
 20
5787111.43214912384
 40
0.79
  1
zjazd publiczny
 50
162.70
 41
0.78
  7
arial.ttf
 72
0
 11
8412600.000348576
 21
5787110.68027499392
100
AcDbText
 73
3
  0
TEXT
  5
201
100
AcDbEntity
  8
TT_OpisLukiKlotki
420
0
100
AcDbText
 10
8412601.08033146624
 20
5787113.12162269696
 40
0.79
  1
lok 0+061
 50
162.70
 41
0.78
  7
arial.ttf
 72
0
 11
8412600.8461487552
 21
5787112.36974856704
100
AcDbText
 73
3
  0
TEXT
  5
202
100
AcDbEntity
  8
TT_OpisLukiKlotki
420
0
100
AcDbText
 10
8412573.00060673664
 20
5787082.21131944832
 40
0.79
  1
zjazd indywidualny
 50
162.70
 41
0.78
  7
arial.ttf
 72
0
 11
8412572.76642402432
 21
5787081.4594453184
100
AcDbText
 73
3
  0
TEXT
  5
203
100
AcDbEntity
  8
TT_OpisLukiKlotki
420
0
100
AcDbText
 10
8412573.84640691584
 20
5787083.90079302016
 40
0.79
  1
lok 0+098
 50
162.70
 41
0.78
  7
arial.ttf
 72
0
 11
8412573.61222420352
 21
5787083.14891889024
100
AcDbText
 73
3
  0
TEXT
  5
204
100
AcDbEntity
  8
TT_OpisLukiKlotki
420
0
100
AcDbText
 10
8412561.76412502272
 20
5787052.05189520384
 40
0.79
  1
zjazd indywidualny
 50
162.70
 41
0.78
  7
arial.ttf
 72
0
 11
8412561.5299423104
 21
5787051.30002107392
100
AcDbText
 73
3
  0
TEXT
  5
205
100
AcDbEntity
  8
TT_OpisLukiKlotki
420
0
100
AcDbText
 10
8412562.6099252032
 20
5787053.74136877568
 40
0.79
  1
lok 0+132
 50
162.70
 41
0.78
  7
arial.ttf
 72
0
 11
8412562.37574249088
 21
5787052.98949464576
100
AcDbText
 73
3
  0
ENDSEC
  0
SECTION
  2
OBJECTS
  0
DICTIONARY
  5
206
330
0
100
AcDbDictionary
280
0
281
1
  3
ACAD_GROUP
350
207
  3
ACAD_LAYOUT
350
208
  3
ACAD_MLINESTYLE
350
209
  3
ACAD_PLOTSETTINGS
350
20A
  3
ACAD_PLOTSTYLENAME
350
20B
  0
DICTIONARY
  5
207
102
{ACAD_REACTORS
330
206
102
}
330
206
100
AcDbDictionary
280
0
281
1
  0
DICTIONARY
  5
208
102
{ACAD_REACTORS
330
206
102
}
330
206
100
AcDbDictionary
280
0
281
1
  3
Layout
350
2F
  3
Model
350
2D
  0
DICTIONARY
  5
209
102
{ACAD_REACTORS
330
206
102
}
330
206
100
AcDbDictionary
280
0
281
1
  3
Standard
350
20C
  3
L_0_02
350
7
  0
DICTIONARY
  5
20A
102
{ACAD_REACTORS
330
206
102
}
330
206
100
AcDbDictionary
280
0
281
1
  0
ACDBDICTIONARYWDFLT
  5
20B
102
{ACAD_REACTORS
330
206
102
}
330
206
100
AcDbDictionary
281
1
  3
Normal
350
D
100
AcDbDictionaryWithDefault
340
D
  0
LAYOUT
  5
2F
100
AcDbPlotSettings
  1

  2

  4

  6

 40
0.0
 41
0.0
 42
0.0
 43
0.0
 44
0.0
 45
0.0
 46
0.0
 47
0.0
 48
0.0
 49
0.0
140
0.0
141
0.0
142
1.0
143
1.0
 70
688
 72
1
 73
0
 74
5
  7

 75
0
147
1.0
148
0.0
149
0.0
100
AcDbLayout
  1
Layout
 70
1
 71
1
 10
0.0
 20
0.0
 11
420.0
 21
297.0
 12
0.0
 22
0.0
 32
0.0
 14
100000000000000000000.0
 24
100000000000000000000.0
 34
100000000000000000000.0
 15
-100000000000000000000.0
 25
-100000000000000000000.0
 35
-100000000000000000000.0
146
0.0
 13
0.0
 23
0.0
 33
0.0
 16
1.0
 26
0.0
 36
0.0
 17
0.0
 27
1.0
 37
0.0
 76
0
330
2E
  0
LAYOUT
  5
2D
100
AcDbPlotSettings
  1

  2

  4

  6

 40
0.0
 41
0.0
 42
0.0
 43
0.0
 44
0.0
 45
0.0
 46
0.0
 47
0.0
 48
0.0
 49
0.0
140
0.0
141
0.0
142
1.0
143
1.0
 70
1712
 72
1
 73
0
 74
0
  7

 75
0
147
1.0
148
0.0
149
0.0
100
AcDbLayout
  1
Model
 70
1
 71
0
 10
0.0
 20
0.0
 11
12.0
 21
9.0
 12
0.0
 22
0.0
 32
0.0
 14
0.0
 24
0.0
 34
0.0
 15
0.0
 25
0.0
 35
0.0
146
0.0
 13
0.0
 23
0.0
 33
0.0
 16
1.0
 26
0.0
 36
0.0
 17
0.0
 27
1.0
 37
0.0
 76
0
330
2C
  0
MLINESTYLE
  5
20C
102
{ACAD_REACTORS
330
209
102
}
330
209
100
AcDbMlineStyle
  2
Standard
 70
0
  3

 62
256
 51
90.0
 52
90.0
  2
Standard
 71
2
 49
0.5
 62
256
  6
ByLayer
 49
-0.5
 62
256
  6
ByLayer
  0
MLINESTYLE
  5
7
100
AcDbMlineStyle
  2
L_0_02
 70
0
  3

 51
90.0
 52
90.0
 71
1
 49
0.0
 62
256
  6
CONTINUOUS
  0
ACDBPLACEHOLDER
  5
D
  0
ENDSEC
  0
EOF
