  0
SECTION
  2
HEADER
  9
$ACADVER
  1
AC1018
  9
$HANDSEED
  5
FFFFFF
  9
$EXTMAX
 10
7575849.20000000019
 20
5719868.49000000022
 30
1000000.00
  9
$EXTMIN
 10
7575556.28000000026
 20
5719513.04000000004
 30
0.00
  9
$LIMMIN
 10
7575556.28000000026
 20
5719513.04000000004
  9
$LIMMAX
 10
7575849.20000000019
 20
5719868.49000000022
  9
$DIMASZ
 40
2.5
  9
$DIMGAP
 40
0.625
  9
$INSUNITS
 70
6
  9
$MEASUREMENT
 70
1
  9
$DIMEXO
 40
0.625
  9
$DIMTXT
 40
2.5
  9
$DIMSTYLE
  2
Standard
  9
$PLIMMIN
 10
0.0
 20
0.0
  9
$PLIMMAX
 10
210.0
 20
297.0
  9
$DIMEXE
 40
1.25
  9
$TEXTSIZE
 40
2.5
  9
$TEXTSTYLE
  7
Standard
  9
$LWDISPLAY
290
1
  9
$TDCREATE
 40
45506.580445220
  9
$TDUCREATE
 40
45506.497111887
  9
$TDUPDATE
 40
45506.580445220
  9
$TDUUPDATE
 40
45506.497111887
  9
$TDINDWG
 40
0.0
  9
$TDUSRTIMER
 40
0.0
  9
$USRTIMER
 70
1
  0
ENDSEC
  0
SECTION
  2
CLASSES
  0
CLASS
  1
WIPEOUT
  2
AcDbWipeout
  3
WipeOut
 90
127
 91
1
280
0
281
1
  0
CLASS
  1
WIPEOUTVARIABLES
  2
AcDbWipeoutVariables
  3
WipeOut
 90
0
 91
1
280
0
281
0
  0
ENDSEC
  0
SECTION
  2
TABLES
  0
TABLE
  2
VPORT
  5
1
100
AcDbSymbolTable
 70
1
  0
VPORT
  5
2
100
AcDbSymbolTableRecord
100
AcDbViewportTableRecord
  2
*ACTIVE
 70
0
 10
0.0
 20
0.0
 11
1.0
 21
1.0
 12
7575702.74
 22
5719690.77
 13
0.0
 23
0.0
 14
1.0
 24
1.0
 15
0.0
 25
0.0
 16
0.0
 26
0.0
 36
1.0
 17
0.0
 27
0.0
 37
0.0
 40
355.45
 41
0.82
 42
50.0
 43
0.0
 44
0.0
 50
0.0
 51
0.0
 71
0
 72
100
 73
1
 74
1
 75
0
 76
0
 77
0
 78
0
  0
ENDTAB
  0
TABLE
  2
LTYPE
  5
3
100
AcDbSymbolTable
 70
3
  0
LTYPE
  5
4
100
AcDbSymbolTableRecord
100
AcDbLinetypeTableRecord
  2
ByBlock
 70
0
  3

 72
65
 73
0
 40
0.0
  0
LTYPE
  5
5
100
AcDbSymbolTableRecord
100
AcDbLinetypeTableRecord
  2
ByLayer
 70
0
  3

 72
65
 73
0
 40
0.0
  0
LTYPE
  5
6
100
AcDbSymbolTableRecord
100
AcDbLinetypeTableRecord
  2
CONTINUOUS
 70
0
  3
Solid line
 72
65
 73
0
 40
0.0
  0
LTYPE
  5
8
100
AcDbSymbolTableRecord
100
AcDbLinetypeTableRecord
  2
L_0_02
 70
0
  3
Dzialka_ewidencyjna (MLineStyle)
 72
65
 73
0
 40
0.0
  0
LTYPE
  5
9
100
AcDbSymbolTableRecord
100
AcDbLinetypeTableRecord
  2
L_0_03
 70
0
  3
Uzytek_gruntowy
 72
65
 73
2
 40
1.0
 49
0.5
 74
0
 49
-0.5
 74
0
  0
LTYPE
  5
A
100
AcDbSymbolTableRecord
100
AcDbLinetypeTableRecord
  2
L_0_04
 70
0
  3
Budynek_projektowany
 72
65
 73
2
 40
1.5
 49
1.0
 74
0
 49
-0.5
 74
0
  0
LTYPE
  5
B
100
AcDbSymbolTableRecord
100
AcDbLinetypeTableRecord
  2
L_0_06
 70
0
  3
Granica_konturu_klasyfikacyjnego_Krawedz_chodnika
 72
65
 73
2
 40
2.0
 49
1.5
 74
0
 49
-0.5
 74
0
  0
LTYPE
  5
C
100
AcDbSymbolTableRecord
100
AcDbLinetypeTableRecord
  2
L_0_15_SHX
 70
0
  3
Ogrodzenie_trwale
 72
65
 73
12
 40
7.5
 49
0.0
 74
0
 49
-0.375
 74
0
 49
-0.75
 74
0
 49
-0.75
 74
0
 49
-0.75
 74
0
 49
-0.75
 74
0
 49
-0.75
 74
4
 75
1
340
D
 46
0.05
 50
0.0
 44
0.0
 45
0.0
 49
-0.75
 74
0
 49
-0.75
 74
0
 49
-0.75
 74
0
 49
-0.75
 74
0
 49
-0.375
 74
0
  0
LTYPE
  5
F
100
AcDbSymbolTableRecord
100
AcDbLinetypeTableRecord
  2
L_0_15
 70
0
  3
Ogrodzenie_trwale (MLineStyle)
 72
65
 73
0
 40
0.0
  0
LTYPE
  5
11
100
AcDbSymbolTableRecord
100
AcDbLinetypeTableRecord
  2
L_0_C5
 70
0
  3
Brama__1_500 (MLineStyle)
 72
65
 73
0
 40
0.0
  0
LTYPE
  5
13
100
AcDbSymbolTableRecord
100
AcDbLinetypeTableRecord
  2
L_0_E3_00
 70
0
  3
Budynek_w_budowie_dla_MZ2015_1_500___1_1000
 72
65
 73
3
 40
1.5
 49
0.0
 74
0
 49
1.0
 74
0
 49
-0.5
 74
0
  0
LTYPE
  5
14
100
AcDbSymbolTableRecord
100
AcDbLinetypeTableRecord
  2
L_0_E3
 70
0
  3
Budynek_w_budowie_dla_MZ2015_1_500___1_1000 (MLineStyle)
 72
65
 73
0
 40
0.0
  0
ENDTAB
  0
TABLE
  2
LAYER
  5
15
100
AcDbSymbolTable
 70
3
  0
LAYER
  5
16
100
AcDbSymbolTableRecord
100
AcDbLayerTableRecord
  2
0
 70
0
 62
7
  6
CONTINUOUS
370
18
390
17
  0
LAYER
  5
18
100
AcDbSymbolTableRecord
100
AcDbLayerTableRecord
  2
EDZPD_L_0
 70
0
 62
7
  6
L_0_02
370
18
390
17
  0
LAYER
  5
19
100
AcDbSymbolTableRecord
100
AcDbLayerTableRecord
  2
podzial
 70
0
 62
7
  6
CONTINUOUS
370
18
390
17
  0
ENDTAB
  0
TABLE
  2
STYLE
  5
1A
100
AcDbSymbolTable
 70
3
  0
STYLE
  5
1B
100
AcDbSymbolTableRecord
100
AcDbTextStyleTableRecord
  2
STANDARD
 70
0
 40
0.0
 41
1.0
 50
0.0
 71
0
  3
simplex.shx
  4

  0
STYLE
  5
1C
100
AcDbSymbolTableRecord
100
AcDbTextStyleTableRecord
  2
STANDARD_ITALIC
 70
0
 40
0.0
 41
1.0
 50
15.0
 71
0
  3
simplex.shx
  4

  0
STYLE
  5
D
100
AcDbSymbolTableRecord
100
AcDbTextStyleTableRecord
  2

 70
1
 40
0.0
 41
0.050
 50
0.0
 71
0
  3
ulez-209-4-granice.shx
  4

  0
ENDTAB
  0
TABLE
  2
VIEW
  5
1D
100
AcDbSymbolTable
 70
0
  0
ENDTAB
  0
TABLE
  2
UCS
  5
1E
100
AcDbSymbolTable
 70
0
  0
ENDTAB
  0
TABLE
  2
APPID
  5
1F
100
AcDbSymbolTable
 70
1
  0
APPID
  5
20
100
AcDbSymbolTableRecord
100
AcDbRegAppTableRecord
  2
ACAD
 70
0
  0
ENDTAB
  0
TABLE
  2
DIMSTYLE
  5
21
100
AcDbSymbolTable
 70
1
100
AcDbDimStyleTable
  0
DIMSTYLE
105
22
100
AcDbSymbolTableRecord
100
AcDbDimStyleTableRecord
  2
Standard
 70
0
340
1B
  0
ENDTAB
  0
TABLE
  2
BLOCK_RECORD
  5
23
100
AcDbSymbolTable
 70
12
  0
BLOCK_RECORD
  5
24
100
AcDbSymbolTableRecord
100
AcDbBlockTableRecord
  2
*Model_Space
340
25
  0
BLOCK_RECORD
  5
26
100
AcDbSymbolTableRecord
100
AcDbBlockTableRecord
  2
*Paper_Space
340
27
  0
BLOCK_RECORD
  5
28
100
AcDbSymbolTableRecord
100
AcDbBlockTableRecord
  2
OBOP02_01
340
29
  0
BLOCK_RECORD
  5
2A
100
AcDbSymbolTableRecord
100
AcDbBlockTableRecord
  2
RTPW01
340
2B
  0
BLOCK_RECORD
  5
2C
100
AcDbSymbolTableRecord
100
AcDbBlockTableRecord
  2
RTPW02
340
2D
  0
BLOCK_RECORD
  5
2E
100
AcDbSymbolTableRecord
100
AcDbBlockTableRecord
  2
SUPS01_03
340
2F
  0
BLOCK_RECORD
  5
30
100
AcDbSymbolTableRecord
100
AcDbBlockTableRecord
  2
SUSM04_01
340
31
  0
BLOCK_RECORD
  5
32
100
AcDbSymbolTableRecord
100
AcDbBlockTableRecord
  2
PLN
340
33
  0
BLOCK_RECORD
  5
34
100
AcDbSymbolTableRecord
100
AcDbBlockTableRecord
  2
L_0_02_1
340
35
  0
BLOCK_RECORD
  5
36
100
AcDbSymbolTableRecord
100
AcDbBlockTableRecord
  2
L_0_02_2
340
37
  0
BLOCK_RECORD
  5
38
100
AcDbSymbolTableRecord
100
AcDbBlockTableRecord
  2
KTOK02_500
340
39
  0
BLOCK_RECORD
  5
3A
100
AcDbSymbolTableRecord
100
AcDbBlockTableRecord
  2
KTOK04_500
340
3B
  0
ENDTAB
  0
ENDSEC
  0
SECTION
  2
BLOCKS
  0
BLOCK
  5
3C
100
AcDbEntity
  8
0
100
AcDbBlockBegin
  2
*Model_Space
 70
0
 10
0.0
 20
0.0
 30
0.0
  3
*Model_Space
  1

  0
ENDBLK
  5
3D
100
AcDbEntity
  8
0
100
AcDbBlockEnd
  0
BLOCK
  5
3E
100
AcDbEntity
 67
1
  8
0
100
AcDbBlockBegin
  2
*Paper_Space
 70
0
 10
0.0
 20
0.0
 30
0.0
  3
*Paper_Space
  1

  0
ENDBLK
  5
3F
100
AcDbEntity
 67
1
  8
0
100
AcDbBlockEnd
  0
BLOCK
  5
29
100
AcDbEntity
  8
0
100
AcDbBlockBegin
 62
0
370
13
  2
OBOP02_01
 70
0
 10
0
 20
0
 30
0
  3
OBOP02_01
  0
ARC
  5
40
100
AcDbEntity
  8
0
  6
CONTINUOUS
 62
0
370
18
100
AcDbCircle
 10
0.0000000000
 20
0.8000000000
 30
0
 40
0.7000000000
100
AcDbArc
 50
29.8459319497
 51
150.1540680503
  0
ARC
  5
41
100
AcDbEntity
  8
0
  6
CONTINUOUS
 62
0
370
18
100
AcDbCircle
 10
0.7700000000
 20
0.2500000000
 30
0
 40
0.7000000000
100
AcDbArc
 50
317.3373058591
 51
78.3663660011
  0
ARC
  5
42
100
AcDbEntity
  8
0
  6
CONTINUOUS
 62
0
370
18
100
AcDbCircle
 10
0.4600000000
 20
-0.6400000000
 30
0
 40
0.7100000000
100
AcDbArc
 50
247.4427533653
 51
5.6306827576
  0
ARC
  5
43
100
AcDbEntity
  8
0
  6
CONTINUOUS
 62
0
370
18
100
AcDbCircle
 10
-0.4600000000
 20
-0.6400000000
 30
0
 40
0.7100000000
100
AcDbArc
 50
174.3693172424
 51
292.5572466347
  0
ARC
  5
44
100
AcDbEntity
  8
0
  6
CONTINUOUS
 62
0
370
18
100
AcDbCircle
 10
-0.7700000000
 20
0.2500000000
 30
0
 40
0.7000000000
100
AcDbArc
 50
101.6336339989
 51
222.6626941409
  0
HATCH
  5
45
100
AcDbEntity
  8
0
  6
CONTINUOUS
 62
0
370
18
100
AcDbHatch
 10
0.0
 20
0.0
 30
0.0
210
0.0
220
0.0
230
1.0
  2
SOLID
 70
1
 71
1
 91
1
 92
3
 72
1
 73
1
 93
2
 10
0.0
 20
-0.1
 42
1.0
 10
0.0
 20
0.1
 42
1.0
 97
0
 75
0
 76
1
 98
0
  0
CIRCLE
  5
46
100
AcDbEntity
  8
0
  6
CONTINUOUS
 62
0
370
18
100
AcDbCircle
 10
0.0
 20
-0.0
 40
0.1
  0
ENDBLK
  5
47
100
AcDbEntity
  8
0
100
AcDbBlockEnd
  0
BLOCK
  5
2B
100
AcDbEntity
  8
0
100
AcDbBlockBegin
 62
0
370
13
  2
RTPW01
 70
0
 10
0
 20
0
 30
0
  3
RTPW01
  0
HATCH
  5
48
100
AcDbEntity
  8
0
  6
CONTINUOUS
 62
0
370
13
100
AcDbHatch
 10
0.0
 20
0.0
 30
0.0
210
0.0
220
0.0
230
1.0
  2
SOLID
 70
1
 71
1
 91
1
 92
3
 72
1
 73
1
 93
2
 10
0.0
 20
-0.090553851381
 42
1.0
 10
0.0
 20
0.090553851381
 42
1.0
 97
0
 75
0
 76
1
 98
0
  0
CIRCLE
  5
49
100
AcDbEntity
  8
0
  6
CONTINUOUS
 62
0
370
13
100
AcDbCircle
 10
0.0
 20
-0.0
 40
0.090553851381
  0
ENDBLK
  5
4A
100
AcDbEntity
  8
0
100
AcDbBlockEnd
  0
BLOCK
  5
2D
100
AcDbEntity
  8
0
100
AcDbBlockBegin
 62
0
370
13
  2
RTPW02
 70
0
 10
0
 20
0
 30
0
  3
RTPW02
  0
HATCH
  5
4B
100
AcDbEntity
  8
0
  6
CONTINUOUS
 62
0
370
13
100
AcDbHatch
 10
0.0
 20
0.0
 30
0.0
210
0.0
220
0.0
230
1.0
  2
SOLID
 70
1
 71
1
 91
1
 92
3
 72
1
 73
1
 93
2
 10
0.0
 20
-0.090553851381
 42
1.0
 10
0.0
 20
0.090553851381
 42
1.0
 97
0
 75
0
 76
1
 98
0
  0
CIRCLE
  5
4C
100
AcDbEntity
  8
0
  6
CONTINUOUS
 62
0
370
13
100
AcDbCircle
 10
0.0
 20
-0.0
 40
0.090553851381
  0
ENDBLK
  5
4D
100
AcDbEntity
  8
0
100
AcDbBlockEnd
  0
BLOCK
  5
2F
100
AcDbEntity
  8
0
100
AcDbBlockBegin
 62
0
370
13
  2
SUPS01_03
 70
0
 10
0
 20
0
 30
0
  3
SUPS01_03
  0
HATCH
  5
4E
100
AcDbEntity
  8
0
  6
CONTINUOUS
 62
0
370
13
100
AcDbHatch
 10
0.0
 20
0.0
 30
0.0
210
0.0
220
0.0
230
1.0
  2
SOLID
 70
1
 71
1
 91
1
 92
3
 72
1
 73
1
 93
2
 10
0.0
 20
-0.090553851381
 42
1.0
 10
0.0
 20
0.090553851381
 42
1.0
 97
0
 75
0
 76
1
 98
0
  0
CIRCLE
  5
4F
100
AcDbEntity
  8
0
  6
CONTINUOUS
 62
0
370
13
100
AcDbCircle
 10
0.0
 20
-0.0
 40
0.090553851381
  0
ENDBLK
  5
50
100
AcDbEntity
  8
0
100
AcDbBlockEnd
  0
BLOCK
  5
31
100
AcDbEntity
  8
0
100
AcDbBlockBegin
 62
0
370
13
  2
SUSM04_01
 70
0
 10
0
 20
0
 30
0
  3
SUSM04_01
  0
CIRCLE
  5
51
100
AcDbEntity
  8
0
  6
CONTINUOUS
 62
0
370
18
100
AcDbCircle
 10
0.0
 20
-0.0
 40
0.5
  0
ENDBLK
  5
52
100
AcDbEntity
  8
0
100
AcDbBlockEnd
  0
BLOCK
  5
33
100
AcDbEntity
  8
0
100
AcDbBlockBegin
 62
0
370
13
  2
PLN
 70
0
 10
0
 20
0
 30
0
  3
PLN
  0
POLYLINE
  5
53
100
AcDbEntity
  8
0
  6
CONTINUOUS
 62
0
370
25
100
AcDb2dPolyline
 66
1
 70
128
  0
VERTEX
  5
54
100
AcDbEntity
  8
0
100
AcDbVertex
100
AcDb2dVertex
 10
0.0
 20
27.0
  0
VERTEX
  5
55
100
AcDbEntity
  8
0
100
AcDbVertex
100
AcDb2dVertex
 10
0.0
 20
47.0
  0
VERTEX
  5
56
100
AcDbEntity
  8
0
100
AcDbVertex
100
AcDb2dVertex
 10
-1.0
 20
34.0
  0
SEQEND
  5
57
100
AcDbEntity
  8
0
  0
POLYLINE
  5
58
100
AcDbEntity
  8
0
  6
CONTINUOUS
 62
0
370
25
100
AcDb2dPolyline
 66
1
 70
128
  0
VERTEX
  5
59
100
AcDbEntity
  8
0
100
AcDbVertex
100
AcDb2dVertex
 10
-1.0
 20
34.0
  0
VERTEX
  5
5A
100
AcDbEntity
  8
0
100
AcDbVertex
100
AcDb2dVertex
 10
-2.0
 20
21.0
  0
SEQEND
  5
5B
100
AcDbEntity
  8
0
  0
POLYLINE
  5
5C
100
AcDbEntity
  8
0
  6
CONTINUOUS
 62
0
370
25
100
AcDb2dPolyline
 66
1
 70
128
  0
VERTEX
  5
5D
100
AcDbEntity
  8
0
100
AcDbVertex
100
AcDb2dVertex
 10
-2.0
 20
21.0
  0
VERTEX
  5
5E
100
AcDbEntity
  8
0
100
AcDbVertex
100
AcDb2dVertex
 10
-3.0
 20
8.0
  0
VERTEX
  5
5F
100
AcDbEntity
  8
0
100
AcDbVertex
100
AcDb2dVertex
 10
3.0
 20
8.0
  0
SEQEND
  5
60
100
AcDbEntity
  8
0
  0
POLYLINE
  5
61
100
AcDbEntity
  8
0
  6
CONTINUOUS
 62
0
370
25
100
AcDb2dPolyline
 66
1
 70
128
  0
VERTEX
  5
62
100
AcDbEntity
  8
0
100
AcDbVertex
100
AcDb2dVertex
 10
0.0
 20
27.0
  0
VERTEX
  5
63
100
AcDbEntity
  8
0
100
AcDbVertex
100
AcDb2dVertex
 10
0.0
 20
8.0
  0
SEQEND
  5
64
100
AcDbEntity
  8
0
  0
POLYLINE
  5
65
100
AcDbEntity
  8
0
  6
CONTINUOUS
 62
0
370
25
100
AcDb2dPolyline
 66
1
 70
128
  0
VERTEX
  5
66
100
AcDbEntity
  8
0
100
AcDbVertex
100
AcDb2dVertex
 10
0.0
 20
8.0
  0
VERTEX
  5
67
100
AcDbEntity
  8
0
100
AcDbVertex
100
AcDb2dVertex
 10
0.0
 20
-0.0
  0
SEQEND
  5
68
100
AcDbEntity
  8
0
  0
POLYLINE
  5
69
100
AcDbEntity
  8
0
  6
CONTINUOUS
 62
0
370
25
100
AcDb2dPolyline
 66
1
 70
128
  0
VERTEX
  5
6A
100
AcDbEntity
  8
0
100
AcDbVertex
100
AcDb2dVertex
 10
-2.0
 20
-0.0
  0
VERTEX
  5
6B
100
AcDbEntity
  8
0
100
AcDbVertex
100
AcDb2dVertex
 10
-2.0
 20
5.0
  0
VERTEX
  5
6C
100
AcDbEntity
  8
0
100
AcDbVertex
100
AcDb2dVertex
 10
2.0
 20
-0.0
  0
VERTEX
  5
6D
100
AcDbEntity
  8
0
100
AcDbVertex
100
AcDb2dVertex
 10
2.0
 20
5.0
  0
SEQEND
  5
6E
100
AcDbEntity
  8
0
  0
ENDBLK
  5
6F
100
AcDbEntity
  8
0
100
AcDbBlockEnd
  0
BLOCK
  5
35
100
AcDbEntity
  8
0
100
AcDbBlockBegin
 62
0
370
13
  2
L_0_02_1
 70
0
 10
0
 20
0
 30
0
  3
L_0_02_1
  0
POINT
  5
70
100
AcDbEntity
  8
0
100
AcDbPoint
 62
0
 10
0.0
 20
0.0
 30
0.00
  0
ENDBLK
  5
71
100
AcDbEntity
  8
0
100
AcDbBlockEnd
  0
BLOCK
  5
37
100
AcDbEntity
  8
0
100
AcDbBlockBegin
 62
0
370
13
  2
L_0_02_2
 70
0
 10
0
 20
0
 30
0
  3
L_0_02_2
  0
POINT
  5
72
100
AcDbEntity
  8
0
100
AcDbPoint
 62
0
 10
-0.0
 20
-0.0
 30
0.00
  0
ENDBLK
  5
73
100
AcDbEntity
  8
0
100
AcDbBlockEnd
  0
BLOCK
  5
39
100
AcDbEntity
  8
0
100
AcDbBlockBegin
 62
0
370
13
  2
KTOK02_500
 70
0
 10
0
 20
0
 30
0
  3
KTOK02_500
  0
ARC
  5
74
100
AcDbEntity
  8
0
  6
CONTINUOUS
 62
0
370
13
100
AcDbCircle
 10
-3.0000000000
 20
0.0000000000
 30
0
 40
3.0000000000
100
AcDbArc
 50
0.0000000000
 51
60.0183606312
  0
ARC
  5
75
100
AcDbEntity
  8
0
  6
CONTINUOUS
 62
0
370
13
100
AcDbCircle
 10
3.0000000000
 20
0.0000000000
 30
0
 40
3.0000000000
100
AcDbArc
 50
119.9816393688
 51
180.0000000000
  0
ENDBLK
  5
76
100
AcDbEntity
  8
0
100
AcDbBlockEnd
  0
BLOCK
  5
3B
100
AcDbEntity
  8
0
100
AcDbBlockBegin
 62
0
370
13
  2
KTOK04_500
 70
0
 10
0
 20
0
 30
0
  3
KTOK04_500
  0
ARC
  5
77
100
AcDbEntity
  8
0
  6
CONTINUOUS
 62
0
370
13
100
AcDbCircle
 10
3.0000000000
 20
0.0000000000
 30
0
 40
3.0000000000
100
AcDbArc
 50
119.9816393688
 51
180.0000000000
  0
ENDBLK
  5
78
100
AcDbEntity
  8
0
100
AcDbBlockEnd
  0
ENDSEC
  0
SECTION
  2
ENTITIES
  0
POLYLINE
  5
79
100
AcDbEntity
  8
EDZPD_L_0
  6
CONTINUOUS
 62
7
370
18
100
AcDb2dPolyline
 66
1
 70
128
  0
VERTEX
  5
7A
100
AcDbEntity
  8
EDZPD_L_0
100
AcDbVertex
100
AcDb2dVertex
 10
7575587.4299999997
 20
5719867.25999999978
  0
VERTEX
  5
7B
100
AcDbEntity
  8
EDZPD_L_0
100
AcDbVertex
100
AcDb2dVertex
 10
7575617.30999999959
 20
5719717.90000000037
  0
SEQEND
  5
7C
100
AcDbEntity
  8
EDZPD_L_0
  0
POLYLINE
  5
7D
100
AcDbEntity
  8
EDZPD_L_0
  6
CONTINUOUS
 62
7
370
18
100
AcDb2dPolyline
 66
1
 70
128
  0
VERTEX
  5
7E
100
AcDbEntity
  8
EDZPD_L_0
100
AcDbVertex
100
AcDb2dVertex
 10
7575617.29000000004
 20
5719717.83999999985
  0
VERTEX
  5
7F
100
AcDbEntity
  8
EDZPD_L_0
100
AcDbVertex
100
AcDb2dVertex
 10
7575636.88999999873
 20
5719721.79000000004
  0
SEQEND
  5
80
100
AcDbEntity
  8
EDZPD_L_0
  0
POLYLINE
  5
81
100
AcDbEntity
  8
EDZPD_L_0
  6
CONTINUOUS
 62
7
370
18
100
AcDb2dPolyline
 66
1
 70
128
  0
VERTEX
  5
82
100
AcDbEntity
  8
EDZPD_L_0
100
AcDbVertex
100
AcDb2dVertex
 10
7575636.91999999993
 20
5719721.83000000007
  0
VERTEX
  5
83
100
AcDbEntity
  8
EDZPD_L_0
100
AcDbVertex
100
AcDb2dVertex
 10
7575608.20999999996
 20
5719866.4299999997
  0
SEQEND
  5
84
100
AcDbEntity
  8
EDZPD_L_0
  0
POLYLINE
  5
85
100
AcDbEntity
  8
EDZPD_L_0
  6
CONTINUOUS
 62
7
370
18
100
AcDb2dPolyline
 66
1
 70
128
  0
VERTEX
  5
86
100
AcDbEntity
  8
EDZPD_L_0
100
AcDbVertex
100
AcDb2dVertex
 10
7575636.88999999873
 20
5719721.79000000004
  0
VERTEX
  5
87
100
AcDbEntity
  8
EDZPD_L_0
100
AcDbVertex
100
AcDb2dVertex
 10
7575645.37000000011
 20
5719679.66999999993
  0
SEQEND
  5
88
100
AcDbEntity
  8
EDZPD_L_0
  0
INSERT
  5
89
100
AcDbEntity
  8
EDZPD_L_0
  6
CONTINUOUS
100
AcDbBlockReference
 66
0
  2
L_0_02_1
 10
7575632.01999999955
 20
5719513.04000000004
 41
0.50
 42
0.50
 43
0.50
 50
102.13
  0
INSERT
  5
8A
100
AcDbEntity
  8
EDZPD_L_0
  6
CONTINUOUS
100
AcDbBlockReference
 66
0
  2
L_0_02_2
 10
7575598.20000000019
 20
5719670.36000000034
 41
0.50
 42
0.50
 43
0.50
 50
282.13
  0
INSERT
  5
8B
100
AcDbEntity
  8
EDZPD_L_0
  6
CONTINUOUS
100
AcDbBlockReference
 66
0
  2
L_0_02_1
 10
7575598.20000000019
 20
5719670.36000000034
 41
0.50
 42
0.50
 43
0.50
 50
11.17
  0
INSERT
  5
8C
100
AcDbEntity
  8
EDZPD_L_0
  6
CONTINUOUS
100
AcDbBlockReference
 66
0
  2
L_0_02_2
 10
7575645.37000000011
 20
5719679.66999999993
 41
0.50
 42
0.50
 43
0.50
 50
191.17
  0
INSERT
  5
8D
100
AcDbEntity
  8
EDZPD_L_0
  6
CONTINUOUS
100
AcDbBlockReference
 66
0
  2
L_0_02_1
 10
7575645.37000000011
 20
5719679.66999999993
 41
0.50
 42
0.50
 43
0.50
 50
11.18
  0
INSERT
  5
8E
100
AcDbEntity
  8
EDZPD_L_0
  6
CONTINUOUS
100
AcDbBlockReference
 66
0
  2
L_0_02_2
 10
7575849.20000000019
 20
5719719.95000000019
 41
0.50
 42
0.50
 43
0.50
 50
191.18
  0
MLINE
  5
8F
100
AcDbEntity
  8
EDZPD_L_0
  6
L_0_02
370
18
100
AcDbMline
  2
L_0_02
340
7
 40
1.0
 70
1
 71
1
 72
4
 73
1
 10
7575632.01999999955
 20
5719513.04000000004
210
0.0
220
0.0
230
1.0
 11
7575632.01999999955
 21
5719513.04000000004
 12
-0.210174137768
 22
0.977663966715
 13
-0.977663966715
 23
-0.210174137768
 74
3
 41
0.0
 41
0.25
 41
160.664184583122
 75
0
 11
7575598.20000000019
 21
5719670.36000000034
 12
0.981073508394
 22
0.193635665948
 13
-0.835316374789
 23
0.549769546273
 74
3
 41
0.0
 41
0.25
 41
47.829985440777
 75
0
 11
7575645.37000000011
 21
5719679.66999999993
 12
0.98102792398
 22
0.193866480784
 13
-0.193751074706
 23
0.981050722975
 74
3
 41
0.0
 41
0.25
 41
207.521863590938
 75
0
 11
7575849.20000000019
 21
5719719.95000000019
 12
0.98102792398
 22
0.193866480784
 13
-0.193866480784
 23
0.98102792398
 74
0
 75
0
  0
INSERT
  5
90
100
AcDbEntity
  8
EDZPD_L_0
  6
CONTINUOUS
100
AcDbBlockReference
 66
0
  2
L_0_02_1
 10
7575598.20000000019
 20
5719670.36000000034
 41
0.50
 42
0.50
 43
0.50
 50
101.95
  0
INSERT
  5
91
100
AcDbEntity
  8
EDZPD_L_0
  6
CONTINUOUS
100
AcDbBlockReference
 66
0
  2
L_0_02_2
 10
7575556.28000000026
 20
5719868.49000000022
 41
0.50
 42
0.50
 43
0.50
 50
281.95
  0
INSERT
  5
92
100
AcDbEntity
  8
EDZPD_L_0
  6
CONTINUOUS
100
AcDbBlockReference
 66
0
  2
L_0_02_1
 10
7575556.28000000026
 20
5719868.49000000022
 41
0.50
 42
0.50
 43
0.50
 50
357.74
  0
INSERT
  5
93
100
AcDbEntity
  8
EDZPD_L_0
  6
CONTINUOUS
100
AcDbBlockReference
 66
0
  2
L_0_02_2
 10
7575587.4299999997
 20
5719867.25999999978
 41
0.50
 42
0.50
 43
0.50
 50
177.74
  0
INSERT
  5
94
100
AcDbEntity
  8
EDZPD_L_0
  6
CONTINUOUS
100
AcDbBlockReference
 66
0
  2
L_0_02_1
 10
7575587.4299999997
 20
5719867.25999999978
 41
0.50
 42
0.50
 43
0.50
 50
357.71
  0
INSERT
  5
95
100
AcDbEntity
  8
EDZPD_L_0
  6
CONTINUOUS
100
AcDbBlockReference
 66
0
  2
L_0_02_2
 10
7575608.20999999996
 20
5719866.4299999997
 41
0.50
 42
0.50
 43
0.50
 50
177.71
  0
MLINE
  5
96
100
AcDbEntity
  8
EDZPD_L_0
  6
L_0_02
370
18
100
AcDbMline
  2
L_0_02
340
7
 40
1.0
 70
1
 71
1
 72
4
 73
1
 10
7575598.20000000019
 20
5719670.36000000034
210
0.0
220
0.0
230
1.0
 11
7575598.20000000019
 21
5719670.36000000034
 12
-0.206995856581
 22
0.978341819283
 13
-0.978341819283
 23
-0.206995856581
 74
3
 41
0.0
 41
0.25
 41
202.266130962325
 75
0
 11
7575556.28000000026
 21
5719868.49000000022
 12
0.99922132428
 22
-0.039455609288
 13
-0.764275343499
 23
0.644890067624
 74
3
 41
0.0
 41
0.25
 41
30.924274650203
 75
0
 11
7575587.4299999997
 21
5719867.25999999978
 12
0.999203261447
 22
-0.039910428636
 13
0.03968301999
 23
0.999212318741
 74
3
 41
0.0
 41
0.25
 41
20.546569428898
 75
0
 11
7575608.20999999996
 21
5719866.4299999997
 12
0.999203261447
 22
-0.039910428636
 13
0.039910428636
 23
0.999203261447
 74
0
 75
0
  0
POLYLINE
  5
97
100
AcDbEntity
  8
podzial
  6
CONTINUOUS
370
18
100
AcDb2dPolyline
 66
1
 70
128
  0
VERTEX
  5
98
100
AcDbEntity
  8
podzial
100
AcDbVertex
100
AcDb2dVertex
 10
7575600.29999999981
 20
5719660.55999999959
  0
VERTEX
  5
99
100
AcDbEntity
  8
podzial
100
AcDbVertex
100
AcDb2dVertex
 10
7575647.30999999959
 20
5719669.83999999985
  0
VERTEX
  5
9A
100
AcDbEntity
  8
podzial
100
AcDbVertex
100
AcDb2dVertex
 10
7575645.37000000011
 20
5719679.66999999993
  0
SEQEND
  5
9B
100
AcDbEntity
  8
podzial
  0
POINT
  5
9C
100
AcDbEntity
  8
podzial
100
AcDbPoint
 62
256
 10
7575600.29999999981
 20
5719660.55999999959
  0
POINT
  5
9D
100
AcDbEntity
  8
podzial
100
AcDbPoint
 62
256
 10
7575647.30999999959
 20
5719669.83999999985
  0
POINT
  5
9E
100
AcDbEntity
  8
podzial
100
AcDbPoint
 62
256
 10
7575600.29999999981
 20
5719660.55999999959
  0
POINT
  5
9F
100
AcDbEntity
  8
podzial
100
AcDbPoint
 62
256
 10
7575647.30999999959
 20
5719669.83999999985
  0
MTEXT
  5
A0
100
AcDbEntity
  8
EDZPD_L_0
370
20
100
AcDbMText
 10
7575623.95999999624
 20
5719677.03999999724
 40
1.0000
 41
0.0
 71
7
 72
1
  1
\W0.6563x;10-210/2
  7
STANDARD
 11
1.00000000
 21
0.00000000
 44
0.90
 90
3
 63
0
 45
1.0
  0
MTEXT
  5
A1
100
AcDbEntity
  8
EDZPD_L_0
370
20
100
AcDbMText
 10
7575648.26999999583
 20
5719681.96999999695
 40
1.0000
 41
0.0
 71
7
 72
1
  1
\W0.6563x;10-211
  7
STANDARD
 11
1.00000000
 21
0.00000000
 44
0.90
 90
3
 63
0
 45
1.0
  0
MTEXT
  5
A2
100
AcDbEntity
  8
EDZPD_L_0
370
20
100
AcDbMText
 10
7575625.57999999635
 20
5719624.32999999728
 40
1.0000
 41
0.0
 71
7
 72
1
  1
\W0.6563x;\K10-209/4
  7
STANDARD
 11
1.00000000
 21
0.00000000
 44
0.90
 90
3
 63
0
 45
1.0
  0
MTEXT
  5
A3
100
AcDbEntity
  8
EDZPD_L_0
370
20
100
AcDbMText
 10
7575601.94999999646
 20
5719611.90999999736
 40
1.0000
 41
0.0
 71
7
 72
1
  1
\W0.6563x;10-196
  7
STANDARD
 11
1.00000000
 21
0.00000000
 44
0.90
 90
3
 63
0
 45
1.0
  0
TEXT
  5
A4
100
AcDbEntity
  8
podzial
370
15
100
AcDbText
 39
0.15
 10
7575606.09557215311
 20
5719628.1666748533
 40
0.75
  1
-150.89-
 50
-77.90
 41
0.66
  7
STANDARD
 72
1
 11
7575606.16555418819
 21
5719626.64759535715
100
AcDbText
 73
1
  0
MTEXT
  5
A5
100
AcDbEntity
  8
podzial
370
20
100
AcDbMText
 10
7575628.19999999832
 20
5719669.0999999987
 40
1.0000
 41
0.0
 71
7
 72
1
  1
\W0.6563x;10-209/5
  7
STANDARD
 11
1.00000000
 21
0.00000000
 44
0.90
 90
3
 63
0
 45
1.0
  0
MTEXT
  5
A6
100
AcDbEntity
  8
podzial
370
20
100
AcDbMText
 10
7575623.75999999791
 20
5719654.56999999844
 40
1.0000
 41
0.0
 71
7
 72
1
  1
\W0.6563x;10-209/6
  7
STANDARD
 11
1.00000000
 21
0.00000000
 44
0.90
 90
3
 63
0
 45
1.0
  0
TEXT
  5
A7
100
AcDbEntity
  8
podzial
370
15
100
AcDbText
 39
0.15
 10
7575606.09557215311
 20
5719628.1666748533
 40
0.75
  1
-150.89-
 50
-77.90
 41
0.66
  7
STANDARD
 72
1
 11
7575606.16555418819
 21
5719626.64759535715
100
AcDbText
 73
1
  0
ENDSEC
  0
SECTION
  2
OBJECTS
  0
DICTIONARY
  5
A8
330
0
100
AcDbDictionary
280
0
281
1
  3
ACAD_GROUP
350
A9
  3
ACAD_LAYOUT
350
AA
  3
ACAD_MLINESTYLE
350
AB
  3
ACAD_PLOTSETTINGS
350
AC
  3
ACAD_PLOTSTYLENAME
350
AD
  0
DICTIONARY
  5
A9
102
{ACAD_REACTORS
330
A8
102
}
330
A8
100
AcDbDictionary
280
0
281
1
  0
DICTIONARY
  5
AA
102
{ACAD_REACTORS
330
A8
102
}
330
A8
100
AcDbDictionary
280
0
281
1
  3
Layout
350
27
  3
Model
350
25
  0
DICTIONARY
  5
AB
102
{ACAD_REACTORS
330
A8
102
}
330
A8
100
AcDbDictionary
280
0
281
1
  3
Standard
350
AE
  3
L_0_02
350
7
  3
L_0_15
350
E
  3
L_0_C5
350
10
  3
L_0_E3
350
12
  0
DICTIONARY
  5
AC
102
{ACAD_REACTORS
330
A8
102
}
330
A8
100
AcDbDictionary
280
0
281
1
  0
ACDBDICTIONARYWDFLT
  5
AD
102
{ACAD_REACTORS
330
A8
102
}
330
A8
100
AcDbDictionary
281
1
  3
Normal
350
17
100
AcDbDictionaryWithDefault
340
17
  0
LAYOUT
  5
27
100
AcDbPlotSettings
  1

  2

  4

  6

 40
0.0
 41
0.0
 42
0.0
 43
0.0
 44
0.0
 45
0.0
 46
0.0
 47
0.0
 48
0.0
 49
0.0
140
0.0
141
0.0
142
1.0
143
1.0
 70
688
 72
1
 73
0
 74
5
  7

 75
0
147
1.0
148
0.0
149
0.0
100
AcDbLayout
  1
Layout
 70
1
 71
1
 10
0.0
 20
0.0
 11
420.0
 21
297.0
 12
0.0
 22
0.0
 32
0.0
 14
100000000000000000000.0
 24
100000000000000000000.0
 34
100000000000000000000.0
 15
-100000000000000000000.0
 25
-100000000000000000000.0
 35
-100000000000000000000.0
146
0.0
 13
0.0
 23
0.0
 33
0.0
 16
1.0
 26
0.0
 36
0.0
 17
0.0
 27
1.0
 37
0.0
 76
0
330
26
  0
LAYOUT
  5
25
100
AcDbPlotSettings
  1

  2

  4

  6

 40
0.0
 41
0.0
 42
0.0
 43
0.0
 44
0.0
 45
0.0
 46
0.0
 47
0.0
 48
0.0
 49
0.0
140
0.0
141
0.0
142
1.0
143
1.0
 70
1712
 72
1
 73
0
 74
0
  7

 75
0
147
1.0
148
0.0
149
0.0
100
AcDbLayout
  1
Model
 70
1
 71
0
 10
0.0
 20
0.0
 11
12.0
 21
9.0
 12
0.0
 22
0.0
 32
0.0
 14
0.0
 24
0.0
 34
0.0
 15
0.0
 25
0.0
 35
0.0
146
0.0
 13
0.0
 23
0.0
 33
0.0
 16
1.0
 26
0.0
 36
0.0
 17
0.0
 27
1.0
 37
0.0
 76
0
330
24
  0
MLINESTYLE
  5
AE
102
{ACAD_REACTORS
330
AB
102
}
330
AB
100
AcDbMlineStyle
  2
Standard
 70
0
  3

 62
256
 51
90.0
 52
90.0
  2
Standard
 71
2
 49
0.5
 62
256
  6
ByLayer
 49
-0.5
 62
256
  6
ByLayer
  0
MLINESTYLE
  5
7
100
AcDbMlineStyle
  2
L_0_02
 70
0
  3

 51
90.0
 52
90.0
 71
1
 49
0.0
 62
256
  6
CONTINUOUS
  0
MLINESTYLE
  5
E
100
AcDbMlineStyle
  2
L_0_15
 70
0
  3

 51
90.0
 52
90.0
 71
2
 49
0.0
 62
256
  6
CONTINUOUS
 49
0.0
 62
256
  6
L_0_15_SHX
  0
MLINESTYLE
  5
10
100
AcDbMlineStyle
  2
L_0_C5
 70
0
  3

 51
90.0
 52
90.0
 71
1
 49
0.0
 62
256
  6
CONTINUOUS
  0
MLINESTYLE
  5
12
100
AcDbMlineStyle
  2
L_0_E3
 70
0
  3

 51
90.0
 52
90.0
 71
2
 49
0.0
 62
256
  6
CONTINUOUS
 49
-0.5
 62
256
  6
L_0_E3_00
  0
ACDBPLACEHOLDER
  5
17
  0
ENDSEC
  0
EOF
