  0
SECTION
  2
HEADER
  9
$ACADVER
  1
AC1018
  9
$HANDSEED
  5
FFFFFF
  9
$EXTMAX
 10
7565926.22
 20
5720159.34999999936
 30
1000000.00
  9
$EXTMIN
 10
7565847.95
 20
5720083.75
 30
0.00
  9
$LIMMIN
 10
7565847.95
 20
5720083.75
  9
$LIMMAX
 10
7565926.22
 20
5720159.34999999936
  9
$DIMASZ
 40
2.5
  9
$DIMGAP
 40
0.625
  9
$INSUNITS
 70
6
  9
$DIMEXO
 40
0.625
  9
$DIMTXT
 40
2.5
  9
$DIMSTYLE
  2
Standard
  9
$PLIMMIN
 10
0.0
 20
0.0
  9
$PLIMMAX
 10
210.0
 20
297.0
  9
$DIMEXE
 40
1.25
  9
$TEXTSIZE
 40
2.5
  9
$TEXTSTYLE
  7
Standard
  9
$LWDISPLAY
290
1
  9
$TDCREATE
 40
44886.584846563
  9
$TDUCREATE
 40
44886.543179896
  9
$TDUPDATE
 40
44886.584846563
  9
$TDUUPDATE
 40
44886.543179896
  9
$TDINDWG
 40
0.0
  9
$TDUSRTIMER
 40
0.0
  9
$USRTIMER
 70
1
  0
ENDSEC
  0
SECTION
  2
TABLES
  0
TABLE
  2
VPORT
  5
1
100
AcDbSymbolTable
 70
1
  0
VPORT
  5
2
100
AcDbSymbolTableRecord
100
AcDbViewportTableRecord
  2
*ACTIVE
 70
0
 10
0.0
 20
0.0
 11
1.0
 21
1.0
 12
7565887.09
 22
5720121.55
 13
0.0
 23
0.0
 14
1.0
 24
1.0
 15
0.0
 25
0.0
 16
0.0
 26
0.0
 36
1.0
 17
0.0
 27
0.0
 37
0.0
 40
75.60
 41
1.04
 42
50.0
 43
0.0
 44
0.0
 50
0.0
 51
0.0
 71
0
 72
100
 73
1
 74
1
 75
0
 76
0
 77
0
 78
0
  0
ENDTAB
  0
TABLE
  2
LTYPE
  5
3
100
AcDbSymbolTable
 70
3
  0
LTYPE
  5
4
100
AcDbSymbolTableRecord
100
AcDbLinetypeTableRecord
  2
ByBlock
 70
0
  3

 72
65
 73
0
 40
0.0
  0
LTYPE
  5
5
100
AcDbSymbolTableRecord
100
AcDbLinetypeTableRecord
  2
ByLayer
 70
0
  3

 72
65
 73
0
 40
0.0
  0
LTYPE
  5
6
100
AcDbSymbolTableRecord
100
AcDbLinetypeTableRecord
  2
CONTINUOUS
 70
0
  3
Solid line
 72
65
 73
0
 40
0.0
  0
LTYPE
  5
8
100
AcDbSymbolTableRecord
100
AcDbLinetypeTableRecord
  2
L_0_02
 70
0
  3
Dzialka_ewidencyjna (MLineStyle)
 72
65
 73
0
 40
0.0
  0
LTYPE
  5
9
100
AcDbSymbolTableRecord
100
AcDbLinetypeTableRecord
  2
L_0_03
 70
0
  3
Uzytek_gruntowy
 72
65
 73
2
 40
1.0
 49
0.5
 74
0
 49
-0.5
 74
0
  0
LTYPE
  5
A
100
AcDbSymbolTableRecord
100
AcDbLinetypeTableRecord
  2
L_0_04
 70
0
  3
Budynek_projektowany
 72
65
 73
2
 40
1.5
 49
1.0
 74
0
 49
-0.5
 74
0
  0
LTYPE
  5
B
100
AcDbSymbolTableRecord
100
AcDbLinetypeTableRecord
  2
L_0_05
 70
0
  3
Szczyt_skarpy_nie_umocnionej_Podnoze_skarpy
 72
65
 73
2
 40
1.75
 49
1.25
 74
0
 49
-0.5
 74
0
  0
LTYPE
  5
C
100
AcDbSymbolTableRecord
100
AcDbLinetypeTableRecord
  2
L_0_06
 70
0
  3
Granica_konturu_klasyfikacyjnego_Krawedz_chodnika
 72
65
 73
2
 40
2.0
 49
1.5
 74
0
 49
-0.5
 74
0
  0
LTYPE
  5
D
100
AcDbSymbolTableRecord
100
AcDbLinetypeTableRecord
  2
L_0_0C
 70
0
  3
Budynek_w_ruinie_Warstwica_pomocnicza
 72
65
 73
2
 40
3.0
 49
2.0
 74
0
 49
-1.0
 74
0
  0
LTYPE
  5
E
100
AcDbSymbolTableRecord
100
AcDbLinetypeTableRecord
  2
L_0_14
 70
0
  3
Zywoplot
 72
65
 73
7
 40
2.5
 49
0.0
 74
0
 49
-0.25
 74
4
 75
1
340
F
 46
0.05
 50
0.0
 44
0.0
 45
0.0
 49
-0.5
 74
4
 75
2
340
F
 46
0.05
 50
0.0
 44
0.0
 45
0.0
 49
-0.5
 74
4
 75
3
340
F
 46
0.05
 50
0.0
 44
0.0
 45
0.0
 49
-0.5
 74
4
 75
4
340
F
 46
0.05
 50
0.0
 44
0.0
 45
0.0
 49
-0.5
 74
4
 75
5
340
F
 46
0.05
 50
0.0
 44
0.0
 45
0.0
 49
-0.25
 74
0
  0
LTYPE
  5
10
100
AcDbSymbolTableRecord
100
AcDbLinetypeTableRecord
  2
L_0_15_SHX
 70
0
  3
Ogrodzenie_trwale
 72
65
 73
12
 40
7.5
 49
0.0
 74
0
 49
-0.375
 74
0
 49
-0.75
 74
0
 49
-0.75
 74
0
 49
-0.75
 74
0
 49
-0.75
 74
0
 49
-0.75
 74
4
 75
6
340
F
 46
0.05
 50
0.0
 44
0.0
 45
0.0
 49
-0.75
 74
0
 49
-0.75
 74
0
 49
-0.75
 74
0
 49
-0.75
 74
0
 49
-0.375
 74
0
  0
LTYPE
  5
12
100
AcDbSymbolTableRecord
100
AcDbLinetypeTableRecord
  2
L_0_15
 70
0
  3
Ogrodzenie_trwale (MLineStyle)
 72
65
 73
0
 40
0.0
  0
LTYPE
  5
13
100
AcDbSymbolTableRecord
100
AcDbLinetypeTableRecord
  2
L_0_29_SHX
 70
0
  3
Sciana_oporowa
 72
65
 73
12
 40
5.0
 49
0.0
 74
0
 49
-0.25
 74
0
 49
-0.5
 74
0
 49
-0.5
 74
0
 49
-0.5
 74
0
 49
-0.5
 74
0
 49
-0.5
 74
0
 49
-0.5
 74
0
 49
-0.5
 74
0
 49
-0.5
 74
4
 75
7
340
F
 46
0.05
 50
0.0
 44
0.0
 45
0.0
 49
-0.5
 74
4
 75
8
340
F
 46
0.05
 50
0.0
 44
0.0
 45
0.0
 49
-0.25
 74
0
  0
LTYPE
  5
15
100
AcDbSymbolTableRecord
100
AcDbLinetypeTableRecord
  2
L_0_29
 70
0
  3
Sciana_oporowa (MLineStyle)
 72
65
 73
0
 40
0.0
  0
ENDTAB
  0
TABLE
  2
LAYER
  5
16
100
AcDbSymbolTable
 70
2
  0
LAYER
  5
17
100
AcDbSymbolTableRecord
100
AcDbLayerTableRecord
  2
0
 70
0
420
0
  6
CONTINUOUS
370
18
390
18
  0
LAYER
  5
19
100
AcDbSymbolTableRecord
100
AcDbLayerTableRecord
  2
wjazd_opracowanie_ZM
 70
0
420
13762770
  6
CONTINUOUS
370
25
390
18
  0
ENDTAB
  0
TABLE
  2
STYLE
  5
1A
100
AcDbSymbolTable
 70
3
  0
STYLE
  5
1B
100
AcDbSymbolTableRecord
100
AcDbTextStyleTableRecord
  2
STANDARD
 70
0
 40
0.0
 41
1.0
 50
0.0
 71
0
  3
simplex.shx
  4

  0
STYLE
  5
1C
100
AcDbSymbolTableRecord
100
AcDbTextStyleTableRecord
  2
STANDARD_ITALIC
 70
0
 40
0.0
 41
1.0
 50
15.0
 71
0
  3
simplex.shx
  4

  0
STYLE
  5
F
100
AcDbSymbolTableRecord
100
AcDbTextStyleTableRecord
  2

 70
1
 40
0.0
 41
0.050
 50
0.0
 71
0
  3
wjazd-dz-1562.shx
  4

  0
ENDTAB
  0
TABLE
  2
VIEW
  5
1D
100
AcDbSymbolTable
 70
0
  0
ENDTAB
  0
TABLE
  2
UCS
  5
1E
100
AcDbSymbolTable
 70
0
  0
ENDTAB
  0
TABLE
  2
APPID
  5
1F
100
AcDbSymbolTable
 70
1
  0
APPID
  5
20
100
AcDbSymbolTableRecord
100
AcDbRegAppTableRecord
  2
ACAD
 70
0
  0
ENDTAB
  0
TABLE
  2
DIMSTYLE
  5
21
100
AcDbSymbolTable
 70
1
100
AcDbDimStyleTable
  0
DIMSTYLE
105
22
100
AcDbSymbolTableRecord
100
AcDbDimStyleTableRecord
  2
Standard
 70
0
340
1B
  0
ENDTAB
  0
TABLE
  2
BLOCK_RECORD
  5
23
100
AcDbSymbolTable
 70
18
  0
BLOCK_RECORD
  5
24
100
AcDbSymbolTableRecord
100
AcDbBlockTableRecord
  2
*Model_Space
340
25
  0
BLOCK_RECORD
  5
26
100
AcDbSymbolTableRecord
100
AcDbBlockTableRecord
  2
*Paper_Space
340
27
  0
BLOCK_RECORD
  5
28
100
AcDbSymbolTableRecord
100
AcDbBlockTableRecord
  2
EGBP04_02
340
29
  0
BLOCK_RECORD
  5
2A
100
AcDbSymbolTableRecord
100
AcDbBlockTableRecord
  2
EGBP04_03
340
2B
  0
BLOCK_RECORD
  5
2C
100
AcDbSymbolTableRecord
100
AcDbBlockTableRecord
  2
SUUS14
340
2D
  0
BLOCK_RECORD
  5
2E
100
AcDbSymbolTableRecord
100
AcDbBlockTableRecord
  2
EGBP12_01
340
2F
  0
BLOCK_RECORD
  5
30
100
AcDbSymbolTableRecord
100
AcDbBlockTableRecord
  2
OBOP01_01
340
31
  0
BLOCK_RECORD
  5
32
100
AcDbSymbolTableRecord
100
AcDbBlockTableRecord
  2
OBOP02_01
340
33
  0
BLOCK_RECORD
  5
34
100
AcDbSymbolTableRecord
100
AcDbBlockTableRecord
  2
RTPW01
340
35
  0
BLOCK_RECORD
  5
36
100
AcDbSymbolTableRecord
100
AcDbBlockTableRecord
  2
RTPW02
340
37
  0
BLOCK_RECORD
  5
38
100
AcDbSymbolTableRecord
100
AcDbBlockTableRecord
  2
SUPE04
340
39
  0
BLOCK_RECORD
  5
3A
100
AcDbSymbolTableRecord
100
AcDbBlockTableRecord
  2
SUPS01_03
340
3B
  0
BLOCK_RECORD
  5
3C
100
AcDbSymbolTableRecord
100
AcDbBlockTableRecord
  2
SUPS01_07
340
3D
  0
BLOCK_RECORD
  5
3E
100
AcDbSymbolTableRecord
100
AcDbBlockTableRecord
  2
pikieta
340
3F
  0
BLOCK_RECORD
  5
40
100
AcDbSymbolTableRecord
100
AcDbBlockTableRecord
  2
L_0_02_1
340
41
  0
BLOCK_RECORD
  5
42
100
AcDbSymbolTableRecord
100
AcDbBlockTableRecord
  2
L_0_02_2
340
43
  0
BLOCK_RECORD
  5
44
100
AcDbSymbolTableRecord
100
AcDbBlockTableRecord
  2
L_0_29_1
340
45
  0
BLOCK_RECORD
  5
46
100
AcDbSymbolTableRecord
100
AcDbBlockTableRecord
  2
L_0_29_2
340
47
  0
ENDTAB
  0
ENDSEC
  0
SECTION
  2
BLOCKS
  0
BLOCK
  5
48
100
AcDbEntity
  8
0
100
AcDbBlockBegin
  2
*Model_Space
 70
0
 10
0.0
 20
0.0
 30
0.0
  3
*Model_Space
  1

  0
ENDBLK
  5
49
100
AcDbEntity
  8
0
100
AcDbBlockEnd
  0
BLOCK
  5
4A
100
AcDbEntity
 67
1
  8
0
100
AcDbBlockBegin
  2
*Paper_Space
 70
0
 10
0.0
 20
0.0
 30
0.0
  3
*Paper_Space
  1

  0
ENDBLK
  5
4B
100
AcDbEntity
 67
1
  8
0
100
AcDbBlockEnd
  0
BLOCK
  5
29
100
AcDbEntity
  8
0
100
AcDbBlockBegin
 62
0
370
13
  2
EGBP04_02
 70
0
 10
0
 20
0
 30
0
  3
EGBP04_02
  0
HATCH
  5
4C
100
AcDbEntity
  8
0
  6
CONTINUOUS
420
16777215
370
18
100
AcDbHatch
 10
0.0
 20
0.0
 30
0.0
210
0.0
220
0.0
230
1.0
  2
SOLID
 70
1
 71
1
 91
1
 92
3
 72
1
 73
1
 93
2
 10
0.0
 20
-0.5
 42
1.0
 10
0.0
 20
0.5
 42
1.0
 97
0
 75
0
 76
1
 98
0
  0
CIRCLE
  5
4D
100
AcDbEntity
  8
0
  6
CONTINUOUS
 62
0
370
18
100
AcDbCircle
 10
0.0
 20
-0.0
 40
0.5
  0
ENDBLK
  5
4E
100
AcDbEntity
  8
0
100
AcDbBlockEnd
  0
BLOCK
  5
2B
100
AcDbEntity
  8
0
100
AcDbBlockBegin
 62
0
370
13
  2
EGBP04_03
 70
0
 10
0
 20
0
 30
0
  3
EGBP04_03
  0
HATCH
  5
4F
100
AcDbEntity
  8
0
  6
CONTINUOUS
420
16777215
370
13
100
AcDbHatch
 10
0.0
 20
0.0
 30
0.0
210
0.0
220
0.0
230
1.0
  2
SOLID
 70
1
 71
1
 91
1
 92
3
 72
1
 73
1
 93
2
 10
0.0
 20
-0.5
 42
1.0
 10
0.0
 20
0.5
 42
1.0
 97
0
 75
0
 76
1
 98
0
  0
HATCH
  5
50
100
AcDbEntity
  8
0
  6
CONTINUOUS
 62
0
370
13
100
AcDbHatch
 10
0.0
 20
0.0
 30
0.0
210
0.0
220
0.0
230
1.0
  2
SOLID
 70
1
 71
1
 91
1
 92
3
 72
1
 73
1
 93
2
 10
0.0
 20
-0.1
 42
1.0
 10
0.0
 20
0.1
 42
1.0
 97
0
 75
0
 76
1
 98
0
  0
CIRCLE
  5
51
100
AcDbEntity
  8
0
  6
CONTINUOUS
 62
0
370
13
100
AcDbCircle
 10
0.0
 20
-0.0
 40
0.1
  0
ENDBLK
  5
52
100
AcDbEntity
  8
0
100
AcDbBlockEnd
  0
BLOCK
  5
2D
100
AcDbEntity
  8
0
100
AcDbBlockBegin
 62
0
370
13
  2
SUUS14
 70
0
 10
0
 20
0
 30
0
  3
SUUS14
  0
HATCH
  5
53
100
AcDbEntity
  8
0
  6
CONTINUOUS
420
16777215
370
18
100
AcDbHatch
 10
0.0
 20
0.0
 30
0.0
210
0.0
220
0.0
230
1.0
  2
SOLID
 70
1
 71
1
 91
1
 92
3
 72
1
 73
1
 93
2
 10
0.0
 20
-1.5
 42
1.0
 10
0.0
 20
1.5
 42
1.0
 97
0
 75
0
 76
1
 98
0
  0
CIRCLE
  5
54
100
AcDbEntity
  8
0
  6
CONTINUOUS
 62
0
370
18
100
AcDbCircle
 10
0.0
 20
-0.0
 40
1.5
  0
HATCH
  5
55
100
AcDbEntity
  8
0
  6
CONTINUOUS
420
16777215
370
18
100
AcDbHatch
 10
0.0
 20
0.0
 30
0.0
210
0.0
220
0.0
230
1.0
  2
SOLID
 70
1
 71
1
 91
1
 92
3
 72
1
 73
1
 93
2
 10
0.0
 20
-0.5
 42
1.0
 10
0.0
 20
0.5
 42
1.0
 97
0
 75
0
 76
1
 98
0
  0
CIRCLE
  5
56
100
AcDbEntity
  8
0
  6
CONTINUOUS
 62
0
370
18
100
AcDbCircle
 10
0.0
 20
-0.0
 40
0.5
  0
POLYLINE
  5
57
100
AcDbEntity
  8
0
  6
CONTINUOUS
 62
0
370
18
100
AcDb2dPolyline
 66
1
 70
129
  0
VERTEX
  5
58
100
AcDbEntity
  8
0
100
AcDbVertex
100
AcDb2dVertex
 10
0.0
 20
1.5
  0
VERTEX
  5
59
100
AcDbEntity
  8
0
100
AcDbVertex
100
AcDb2dVertex
 10
0.0
 20
2.5
  0
SEQEND
  5
5A
100
AcDbEntity
  8
0
  0
ARC
  5
5B
100
AcDbEntity
  8
0
  6
CONTINUOUS
 62
0
370
18
100
AcDbCircle
 10
0.5000000000
 20
2.5000000000
 30
0
 40
0.5000000000
100
AcDbArc
 50
0.0000000000
 51
180.0000000000
  0
ARC
  5
5C
100
AcDbEntity
  8
0
  6
CONTINUOUS
 62
0
370
18
100
AcDbCircle
 10
-0.5000000000
 20
2.5000000000
 30
0
 40
0.5000000000
100
AcDbArc
 50
0.0000000000
 51
180.0000000000
  0
ENDBLK
  5
5D
100
AcDbEntity
  8
0
100
AcDbBlockEnd
  0
BLOCK
  5
2F
100
AcDbEntity
  8
0
100
AcDbBlockBegin
 62
0
370
13
  2
EGBP12_01
 70
0
 10
0
 20
0
 30
0
  3
EGBP12_01
  0
HATCH
  5
5E
100
AcDbEntity
  8
0
  6
CONTINUOUS
420
16777215
370
18
100
AcDbHatch
 10
0.0
 20
0.0
 30
0.0
210
0.0
220
0.0
230
1.0
  2
SOLID
 70
1
 71
1
 91
1
 92
3
 72
1
 73
1
 93
2
 10
0.0
 20
-0.5
 42
1.0
 10
0.0
 20
0.5
 42
1.0
 97
0
 75
0
 76
1
 98
0
  0
CIRCLE
  5
5F
100
AcDbEntity
  8
0
  6
CONTINUOUS
 62
0
370
18
100
AcDbCircle
 10
0.0
 20
-0.0
 40
0.5
  0
ENDBLK
  5
60
100
AcDbEntity
  8
0
100
AcDbBlockEnd
  0
BLOCK
  5
31
100
AcDbEntity
  8
0
100
AcDbBlockBegin
 62
0
370
13
  2
OBOP01_01
 70
0
 10
0
 20
0
 30
0
  3
OBOP01_01
  0
POLYLINE
  5
61
100
AcDbEntity
  8
0
  6
CONTINUOUS
 62
0
370
18
100
AcDb2dPolyline
 66
1
 70
128
  0
VERTEX
  5
62
100
AcDbEntity
  8
0
100
AcDbVertex
100
AcDb2dVertex
 10
0.0
 20
-1.74
  0
VERTEX
  5
63
100
AcDbEntity
  8
0
100
AcDbVertex
100
AcDb2dVertex
 10
-0.35
 20
-0.48
  0
VERTEX
  5
64
100
AcDbEntity
  8
0
100
AcDbVertex
100
AcDb2dVertex
 10
-1.65
 20
-0.54
  0
VERTEX
  5
65
100
AcDbEntity
  8
0
100
AcDbVertex
100
AcDb2dVertex
 10
-0.57
 20
0.18
  0
VERTEX
  5
66
100
AcDbEntity
  8
0
100
AcDbVertex
100
AcDb2dVertex
 10
-1.02
 20
1.4
  0
VERTEX
  5
67
100
AcDbEntity
  8
0
100
AcDbVertex
100
AcDb2dVertex
 10
0.0
 20
0.6
  0
VERTEX
  5
68
100
AcDbEntity
  8
0
100
AcDbVertex
100
AcDb2dVertex
 10
1.02
 20
1.4
  0
VERTEX
  5
69
100
AcDbEntity
  8
0
100
AcDbVertex
100
AcDb2dVertex
 10
0.57
 20
0.18
  0
VERTEX
  5
6A
100
AcDbEntity
  8
0
100
AcDbVertex
100
AcDb2dVertex
 10
1.65
 20
-0.54
  0
VERTEX
  5
6B
100
AcDbEntity
  8
0
100
AcDbVertex
100
AcDb2dVertex
 10
0.35
 20
-0.48
  0
VERTEX
  5
6C
100
AcDbEntity
  8
0
100
AcDbVertex
100
AcDb2dVertex
 10
0.0
 20
-1.74
  0
SEQEND
  5
6D
100
AcDbEntity
  8
0
  0
HATCH
  5
6E
100
AcDbEntity
  8
0
  6
CONTINUOUS
 62
0
370
18
100
AcDbHatch
 10
0.0
 20
0.0
 30
0.0
210
0.0
220
0.0
230
1.0
  2
SOLID
 70
1
 71
1
 91
1
 92
3
 72
1
 73
1
 93
2
 10
0.0
 20
-0.1
 42
1.0
 10
0.0
 20
0.1
 42
1.0
 97
0
 75
0
 76
1
 98
0
  0
CIRCLE
  5
6F
100
AcDbEntity
  8
0
  6
CONTINUOUS
 62
0
370
18
100
AcDbCircle
 10
0.0
 20
-0.0
 40
0.1
  0
ENDBLK
  5
70
100
AcDbEntity
  8
0
100
AcDbBlockEnd
  0
BLOCK
  5
33
100
AcDbEntity
  8
0
100
AcDbBlockBegin
 62
0
370
13
  2
OBOP02_01
 70
0
 10
0
 20
0
 30
0
  3
OBOP02_01
  0
ARC
  5
71
100
AcDbEntity
  8
0
  6
CONTINUOUS
 62
0
370
18
100
AcDbCircle
 10
0.0000000000
 20
0.8000000000
 30
0
 40
0.7000000000
100
AcDbArc
 50
29.8459319497
 51
150.1540680503
  0
ARC
  5
72
100
AcDbEntity
  8
0
  6
CONTINUOUS
 62
0
370
18
100
AcDbCircle
 10
0.7700000000
 20
0.2500000000
 30
0
 40
0.7000000000
100
AcDbArc
 50
317.3373058591
 51
78.3663660011
  0
ARC
  5
73
100
AcDbEntity
  8
0
  6
CONTINUOUS
 62
0
370
18
100
AcDbCircle
 10
0.4600000000
 20
-0.6400000000
 30
0
 40
0.7100000000
100
AcDbArc
 50
247.4427533653
 51
5.6306827576
  0
ARC
  5
74
100
AcDbEntity
  8
0
  6
CONTINUOUS
 62
0
370
18
100
AcDbCircle
 10
-0.4600000000
 20
-0.6400000000
 30
0
 40
0.7100000000
100
AcDbArc
 50
174.3693172424
 51
292.5572466347
  0
ARC
  5
75
100
AcDbEntity
  8
0
  6
CONTINUOUS
 62
0
370
18
100
AcDbCircle
 10
-0.7700000000
 20
0.2500000000
 30
0
 40
0.7000000000
100
AcDbArc
 50
101.6336339989
 51
222.6626941409
  0
HATCH
  5
76
100
AcDbEntity
  8
0
  6
CONTINUOUS
 62
0
370
18
100
AcDbHatch
 10
0.0
 20
0.0
 30
0.0
210
0.0
220
0.0
230
1.0
  2
SOLID
 70
1
 71
1
 91
1
 92
3
 72
1
 73
1
 93
2
 10
0.0
 20
-0.1
 42
1.0
 10
0.0
 20
0.1
 42
1.0
 97
0
 75
0
 76
1
 98
0
  0
CIRCLE
  5
77
100
AcDbEntity
  8
0
  6
CONTINUOUS
 62
0
370
18
100
AcDbCircle
 10
0.0
 20
-0.0
 40
0.1
  0
ENDBLK
  5
78
100
AcDbEntity
  8
0
100
AcDbBlockEnd
  0
BLOCK
  5
35
100
AcDbEntity
  8
0
100
AcDbBlockBegin
 62
0
370
13
  2
RTPW01
 70
0
 10
0
 20
0
 30
0
  3
RTPW01
  0
HATCH
  5
79
100
AcDbEntity
  8
0
  6
CONTINUOUS
 62
0
370
13
100
AcDbHatch
 10
0.0
 20
0.0
 30
0.0
210
0.0
220
0.0
230
1.0
  2
SOLID
 70
1
 71
1
 91
1
 92
3
 72
1
 73
1
 93
2
 10
0.0
 20
-0.090553851381
 42
1.0
 10
0.0
 20
0.090553851381
 42
1.0
 97
0
 75
0
 76
1
 98
0
  0
CIRCLE
  5
7A
100
AcDbEntity
  8
0
  6
CONTINUOUS
 62
0
370
13
100
AcDbCircle
 10
0.0
 20
-0.0
 40
0.090553851381
  0
ENDBLK
  5
7B
100
AcDbEntity
  8
0
100
AcDbBlockEnd
  0
BLOCK
  5
37
100
AcDbEntity
  8
0
100
AcDbBlockBegin
 62
0
370
13
  2
RTPW02
 70
0
 10
0
 20
0
 30
0
  3
RTPW02
  0
HATCH
  5
7C
100
AcDbEntity
  8
0
  6
CONTINUOUS
 62
0
370
13
100
AcDbHatch
 10
0.0
 20
0.0
 30
0.0
210
0.0
220
0.0
230
1.0
  2
SOLID
 70
1
 71
1
 91
1
 92
3
 72
1
 73
1
 93
2
 10
0.0
 20
-0.090553851381
 42
1.0
 10
0.0
 20
0.090553851381
 42
1.0
 97
0
 75
0
 76
1
 98
0
  0
CIRCLE
  5
7D
100
AcDbEntity
  8
0
  6
CONTINUOUS
 62
0
370
13
100
AcDbCircle
 10
0.0
 20
-0.0
 40
0.090553851381
  0
ENDBLK
  5
7E
100
AcDbEntity
  8
0
100
AcDbBlockEnd
  0
BLOCK
  5
39
100
AcDbEntity
  8
0
100
AcDbBlockBegin
 62
0
370
13
  2
SUPE04
 70
0
 10
0
 20
0
 30
0
  3
SUPE04
  0
POLYLINE
  5
7F
100
AcDbEntity
  8
0
  6
CONTINUOUS
 62
0
370
18
100
AcDb2dPolyline
 66
1
 70
128
  0
VERTEX
  5
80
100
AcDbEntity
  8
0
100
AcDbVertex
100
AcDb2dVertex
 10
0.5
 20
-0.0
  0
VERTEX
  5
81
100
AcDbEntity
  8
0
100
AcDbVertex
100
AcDb2dVertex
 10
10.0
 20
-0.0
  0
SEQEND
  5
82
100
AcDbEntity
  8
0
  0
POLYLINE
  5
83
100
AcDbEntity
  8
0
  6
CONTINUOUS
 62
0
370
18
100
AcDb2dPolyline
 66
1
 70
128
  0
VERTEX
  5
84
100
AcDbEntity
  8
0
100
AcDbVertex
100
AcDb2dVertex
 10
9.0
 20
-0.0
  0
VERTEX
  5
85
100
AcDbEntity
  8
0
100
AcDbVertex
100
AcDb2dVertex
 10
7.4
 20
0.9
  0
SEQEND
  5
86
100
AcDbEntity
  8
0
  0
POLYLINE
  5
87
100
AcDbEntity
  8
0
  6
CONTINUOUS
 62
0
370
18
100
AcDb2dPolyline
 66
1
 70
128
  0
VERTEX
  5
88
100
AcDbEntity
  8
0
100
AcDbVertex
100
AcDb2dVertex
 10
9.0
 20
-0.0
  0
VERTEX
  5
89
100
AcDbEntity
  8
0
100
AcDbVertex
100
AcDb2dVertex
 10
7.4
 20
-0.9
  0
SEQEND
  5
8A
100
AcDbEntity
  8
0
  0
ENDBLK
  5
8B
100
AcDbEntity
  8
0
100
AcDbBlockEnd
  0
BLOCK
  5
3B
100
AcDbEntity
  8
0
100
AcDbBlockBegin
 62
0
370
13
  2
SUPS01_03
 70
0
 10
0
 20
0
 30
0
  3
SUPS01_03
  0
HATCH
  5
8C
100
AcDbEntity
  8
0
  6
CONTINUOUS
 62
0
370
13
100
AcDbHatch
 10
0.0
 20
0.0
 30
0.0
210
0.0
220
0.0
230
1.0
  2
SOLID
 70
1
 71
1
 91
1
 92
3
 72
1
 73
1
 93
2
 10
0.0
 20
-0.090553851381
 42
1.0
 10
0.0
 20
0.090553851381
 42
1.0
 97
0
 75
0
 76
1
 98
0
  0
CIRCLE
  5
8D
100
AcDbEntity
  8
0
  6
CONTINUOUS
 62
0
370
13
100
AcDbCircle
 10
0.0
 20
-0.0
 40
0.090553851381
  0
ENDBLK
  5
8E
100
AcDbEntity
  8
0
100
AcDbBlockEnd
  0
BLOCK
  5
3D
100
AcDbEntity
  8
0
100
AcDbBlockBegin
 62
0
370
13
  2
SUPS01_07
 70
0
 10
0
 20
0
 30
0
  3
SUPS01_07
  0
HATCH
  5
8F
100
AcDbEntity
  8
0
  6
CONTINUOUS
 62
0
370
13
100
AcDbHatch
 10
0.0
 20
0.0
 30
0.0
210
0.0
220
0.0
230
1.0
  2
SOLID
 70
1
 71
1
 91
1
 92
3
 72
1
 73
1
 93
2
 10
0.0
 20
-0.090553851381
 42
1.0
 10
0.0
 20
0.090553851381
 42
1.0
 97
0
 75
0
 76
1
 98
0
  0
CIRCLE
  5
90
100
AcDbEntity
  8
0
  6
CONTINUOUS
 62
0
370
13
100
AcDbCircle
 10
0.0
 20
-0.0
 40
0.090553851381
  0
ENDBLK
  5
91
100
AcDbEntity
  8
0
100
AcDbBlockEnd
  0
BLOCK
  5
3F
100
AcDbEntity
  8
0
100
AcDbBlockBegin
 62
0
370
13
  2
pikieta
 70
0
 10
0
 20
0
 30
0
  3
pikieta
  0
POINT
  5
92
100
AcDbEntity
  8
0
100
AcDbPoint
 62
0
 10
0.0
 20
0.0
 30
0.00
  0
ENDBLK
  5
93
100
AcDbEntity
  8
0
100
AcDbBlockEnd
  0
BLOCK
  5
41
100
AcDbEntity
  8
0
100
AcDbBlockBegin
 62
0
370
13
  2
L_0_02_1
 70
0
 10
0
 20
0
 30
0
  3
L_0_02_1
  0
POINT
  5
94
100
AcDbEntity
  8
0
100
AcDbPoint
 62
0
 10
0.0
 20
0.0
 30
0.00
  0
ENDBLK
  5
95
100
AcDbEntity
  8
0
100
AcDbBlockEnd
  0
BLOCK
  5
43
100
AcDbEntity
  8
0
100
AcDbBlockBegin
 62
0
370
13
  2
L_0_02_2
 70
0
 10
0
 20
0
 30
0
  3
L_0_02_2
  0
POINT
  5
96
100
AcDbEntity
  8
0
100
AcDbPoint
 62
0
 10
-0.0
 20
-0.0
 30
0.00
  0
ENDBLK
  5
97
100
AcDbEntity
  8
0
100
AcDbBlockEnd
  0
BLOCK
  5
45
100
AcDbEntity
  8
0
100
AcDbBlockBegin
 62
0
370
13
  2
L_0_29_1
 70
0
 10
0
 20
0
 30
0
  3
L_0_29_1
  0
POLYLINE
  5
98
100
AcDbEntity
  8
0
  6
CONTINUOUS
 62
0
370
13
100
AcDb2dPolyline
 66
1
 70
128
  0
VERTEX
  5
99
100
AcDbEntity
  8
0
100
AcDbVertex
100
AcDb2dVertex
 10
0.0
 20
-0.5
  0
VERTEX
  5
9A
100
AcDbEntity
  8
0
100
AcDbVertex
100
AcDb2dVertex
 10
0.0
 20
0.5
  0
SEQEND
  5
9B
100
AcDbEntity
  8
0
  0
ENDBLK
  5
9C
100
AcDbEntity
  8
0
100
AcDbBlockEnd
  0
BLOCK
  5
47
100
AcDbEntity
  8
0
100
AcDbBlockBegin
 62
0
370
13
  2
L_0_29_2
 70
0
 10
0
 20
0
 30
0
  3
L_0_29_2
  0
POLYLINE
  5
9D
100
AcDbEntity
  8
0
  6
CONTINUOUS
 62
0
370
13
100
AcDb2dPolyline
 66
1
 70
128
  0
VERTEX
  5
9E
100
AcDbEntity
  8
0
100
AcDbVertex
100
AcDb2dVertex
 10
-0.0
 20
0.5
  0
VERTEX
  5
9F
100
AcDbEntity
  8
0
100
AcDbVertex
100
AcDb2dVertex
 10
-0.0
 20
-0.5
  0
SEQEND
  5
A0
100
AcDbEntity
  8
0
  0
ENDBLK
  5
A1
100
AcDbEntity
  8
0
100
AcDbBlockEnd
  0
ENDSEC
  0
SECTION
  2
ENTITIES
  0
POLYLINE
  5
A2
100
AcDbEntity
  8
wjazd_opracowanie_ZM
  6
CONTINUOUS
370
50
100
AcDb2dPolyline
 66
1
 70
128
  0
VERTEX
  5
A3
100
AcDbEntity
  8
wjazd_opracowanie_ZM
100
AcDbVertex
100
AcDb2dVertex
 10
7565854.83
 20
5720103.21999999936
  0
VERTEX
  5
A4
100
AcDbEntity
  8
wjazd_opracowanie_ZM
100
AcDbVertex
100
AcDb2dVertex
 10
7565867.38999999872
 20
5720113.46999999936
  0
SEQEND
  5
A5
100
AcDbEntity
  8
wjazd_opracowanie_ZM
  0
POLYLINE
  5
A6
100
AcDbEntity
  8
wjazd_opracowanie_ZM
  6
CONTINUOUS
370
50
100
AcDb2dPolyline
 66
1
 70
128
  0
VERTEX
  5
A7
100
AcDbEntity
  8
wjazd_opracowanie_ZM
100
AcDbVertex
100
AcDb2dVertex
 10
7565847.95
 20
5720103.67999999936
  0
VERTEX
  5
A8
100
AcDbEntity
  8
wjazd_opracowanie_ZM
100
AcDbVertex
100
AcDb2dVertex
 10
7565848.86
 20
5720102.83
  0
VERTEX
  5
A9
100
AcDbEntity
  8
wjazd_opracowanie_ZM
100
AcDbVertex
100
AcDb2dVertex
 10
7565850.01999999872
 20
5720102.28
  0
VERTEX
  5
AA
100
AcDbEntity
  8
wjazd_opracowanie_ZM
100
AcDbVertex
100
AcDb2dVertex
 10
7565851.12
 20
5720102.04000000064
  0
VERTEX
  5
AB
100
AcDbEntity
  8
wjazd_opracowanie_ZM
100
AcDbVertex
100
AcDb2dVertex
 10
7565852.37
 20
5720102.05999999936
  0
VERTEX
  5
AC
100
AcDbEntity
  8
wjazd_opracowanie_ZM
100
AcDbVertex
100
AcDb2dVertex
 10
7565853.21
 20
5720102.23
  0
VERTEX
  5
AD
100
AcDbEntity
  8
wjazd_opracowanie_ZM
100
AcDbVertex
100
AcDb2dVertex
 10
7565853.95
 20
5720102.59
  0
VERTEX
  5
AE
100
AcDbEntity
  8
wjazd_opracowanie_ZM
100
AcDbVertex
100
AcDb2dVertex
 10
7565854.83
 20
5720103.21999999936
  0
SEQEND
  5
AF
100
AcDbEntity
  8
wjazd_opracowanie_ZM
  0
POLYLINE
  5
B0
100
AcDbEntity
  8
wjazd_opracowanie_ZM
  6
CONTINUOUS
370
50
100
AcDb2dPolyline
 66
1
 70
128
  0
VERTEX
  5
B1
100
AcDbEntity
  8
wjazd_opracowanie_ZM
100
AcDbVertex
100
AcDb2dVertex
 10
7565856.81
 20
5720092.98000000064
  0
VERTEX
  5
B2
100
AcDbEntity
  8
wjazd_opracowanie_ZM
100
AcDbVertex
100
AcDb2dVertex
 10
7565856.2
 20
5720093.88
  0
VERTEX
  5
B3
100
AcDbEntity
  8
wjazd_opracowanie_ZM
100
AcDbVertex
100
AcDb2dVertex
 10
7565855.84
 20
5720094.71
  0
VERTEX
  5
B4
100
AcDbEntity
  8
wjazd_opracowanie_ZM
100
AcDbVertex
100
AcDb2dVertex
 10
7565855.68
 20
5720095.72
  0
VERTEX
  5
B5
100
AcDbEntity
  8
wjazd_opracowanie_ZM
100
AcDbVertex
100
AcDb2dVertex
 10
7565855.65
 20
5720096.87
  0
VERTEX
  5
B6
100
AcDbEntity
  8
wjazd_opracowanie_ZM
100
AcDbVertex
100
AcDb2dVertex
 10
7565855.98
 20
5720098.07999999936
  0
VERTEX
  5
B7
100
AcDbEntity
  8
wjazd_opracowanie_ZM
100
AcDbVertex
100
AcDb2dVertex
 10
7565856.47
 20
5720099.05
  0
VERTEX
  5
B8
100
AcDbEntity
  8
wjazd_opracowanie_ZM
100
AcDbVertex
100
AcDb2dVertex
 10
7565857.36000000128
 20
5720100.11999999936
  0
SEQEND
  5
B9
100
AcDbEntity
  8
wjazd_opracowanie_ZM
  0
POLYLINE
  5
BA
100
AcDbEntity
  8
wjazd_opracowanie_ZM
  6
CONTINUOUS
370
50
100
AcDb2dPolyline
 66
1
 70
128
  0
VERTEX
  5
BB
100
AcDbEntity
  8
wjazd_opracowanie_ZM
100
AcDbVertex
100
AcDb2dVertex
 10
7565857.36000000128
 20
5720100.11999999936
  0
VERTEX
  5
BC
100
AcDbEntity
  8
wjazd_opracowanie_ZM
100
AcDbVertex
100
AcDb2dVertex
 10
7565867.23
 20
5720108.16999999936
  0
SEQEND
  5
BD
100
AcDbEntity
  8
wjazd_opracowanie_ZM
  0
POLYLINE
  5
BE
100
AcDbEntity
  8
wjazd_opracowanie_ZM
  6
CONTINUOUS
370
50
100
AcDb2dPolyline
 66
1
 70
128
  0
VERTEX
  5
BF
100
AcDbEntity
  8
wjazd_opracowanie_ZM
100
AcDbVertex
100
AcDb2dVertex
 10
7565867.23
 20
5720108.16999999936
  0
VERTEX
  5
C0
100
AcDbEntity
  8
wjazd_opracowanie_ZM
100
AcDbVertex
100
AcDb2dVertex
 10
7565868.12
 20
5720108.25
  0
VERTEX
  5
C1
100
AcDbEntity
  8
wjazd_opracowanie_ZM
100
AcDbVertex
100
AcDb2dVertex
 10
7565869.01999999872
 20
5720108.28
  0
VERTEX
  5
C2
100
AcDbEntity
  8
wjazd_opracowanie_ZM
100
AcDbVertex
100
AcDb2dVertex
 10
7565869.66
 20
5720108.16999999936
  0
VERTEX
  5
C3
100
AcDbEntity
  8
wjazd_opracowanie_ZM
100
AcDbVertex
100
AcDb2dVertex
 10
7565870.08
 20
5720107.78
  0
VERTEX
  5
C4
100
AcDbEntity
  8
wjazd_opracowanie_ZM
100
AcDbVertex
100
AcDb2dVertex
 10
7565870.14
 20
5720107.28000000064
  0
VERTEX
  5
C5
100
AcDbEntity
  8
wjazd_opracowanie_ZM
100
AcDbVertex
100
AcDb2dVertex
 10
7565869.93
 20
5720106.79
  0
VERTEX
  5
C6
100
AcDbEntity
  8
wjazd_opracowanie_ZM
100
AcDbVertex
100
AcDb2dVertex
 10
7565866.9
 20
5720104.31
  0
VERTEX
  5
C7
100
AcDbEntity
  8
wjazd_opracowanie_ZM
100
AcDbVertex
100
AcDb2dVertex
 10
7565883.73
 20
5720083.75
  0
VERTEX
  5
C8
100
AcDbEntity
  8
wjazd_opracowanie_ZM
100
AcDbVertex
100
AcDb2dVertex
 10
7565900.1
 20
5720097.15
  0
VERTEX
  5
C9
100
AcDbEntity
  8
wjazd_opracowanie_ZM
100
AcDbVertex
100
AcDb2dVertex
 10
7565886.49
 20
5720113.78
  0
VERTEX
  5
CA
100
AcDbEntity
  8
wjazd_opracowanie_ZM
100
AcDbVertex
100
AcDb2dVertex
 10
7565926.22
 20
5720146.8
  0
VERTEX
  5
CB
100
AcDbEntity
  8
wjazd_opracowanie_ZM
100
AcDbVertex
100
AcDb2dVertex
 10
7565915.92
 20
5720159.34999999936
  0
VERTEX
  5
CC
100
AcDbEntity
  8
wjazd_opracowanie_ZM
100
AcDbVertex
100
AcDb2dVertex
 10
7565875.65
 20
5720126.53
  0
VERTEX
  5
CD
100
AcDbEntity
  8
wjazd_opracowanie_ZM
100
AcDbVertex
100
AcDb2dVertex
 10
7565877.0
 20
5720124.98000000064
  0
SEQEND
  5
CE
100
AcDbEntity
  8
wjazd_opracowanie_ZM
  0
POLYLINE
  5
CF
100
AcDbEntity
  8
wjazd_opracowanie_ZM
  6
CONTINUOUS
370
50
100
AcDb2dPolyline
 66
1
 70
128
  0
VERTEX
  5
D0
100
AcDbEntity
  8
wjazd_opracowanie_ZM
100
AcDbVertex
100
AcDb2dVertex
 10
7565867.38999999872
 20
5720113.46999999936
  0
VERTEX
  5
D1
100
AcDbEntity
  8
wjazd_opracowanie_ZM
100
AcDbVertex
100
AcDb2dVertex
 10
7565876.14
 20
5720120.62000000064
  0
VERTEX
  5
D2
100
AcDbEntity
  8
wjazd_opracowanie_ZM
100
AcDbVertex
100
AcDb2dVertex
 10
7565876.88999999872
 20
5720121.3
  0
VERTEX
  5
D3
100
AcDbEntity
  8
wjazd_opracowanie_ZM
100
AcDbVertex
100
AcDb2dVertex
 10
7565877.36
 20
5720122.0
  0
VERTEX
  5
D4
100
AcDbEntity
  8
wjazd_opracowanie_ZM
100
AcDbVertex
100
AcDb2dVertex
 10
7565877.63
 20
5720122.87
  0
VERTEX
  5
D5
100
AcDbEntity
  8
wjazd_opracowanie_ZM
100
AcDbVertex
100
AcDb2dVertex
 10
7565877.55
 20
5720123.86
  0
VERTEX
  5
D6
100
AcDbEntity
  8
wjazd_opracowanie_ZM
100
AcDbVertex
100
AcDb2dVertex
 10
7565877.0
 20
5720124.98000000064
  0
SEQEND
  5
D7
100
AcDbEntity
  8
wjazd_opracowanie_ZM
  0
INSERT
  5
D8
100
AcDbEntity
  8
0
  6
CONTINUOUS
100
AcDbBlockReference
 66
1
  2
pikieta
 10
7565847.95
 20
5720103.67999999936
 41
0.50
 42
0.50
 43
0.50
 50
0.00
  0
ATTRIB
  5
D9
100
AcDbEntity
  8
0
100
AcDbText
 10
7565847.95
 20
5720103.67999999936
 40
0.2
  1
w1
 50
0.00
 41
0.62
 51
0.00
  7
STANDARD
100
AcDbAttribute
  2
Nr
 70
0
  0
SEQEND
  5
DA
100
AcDbEntity
  8
0
  0
INSERT
  5
DB
100
AcDbEntity
  8
0
  6
CONTINUOUS
100
AcDbBlockReference
 66
1
  2
pikieta
 10
7565848.86
 20
5720102.83
 41
0.50
 42
0.50
 43
0.50
 50
0.00
  0
ATTRIB
  5
DC
100
AcDbEntity
  8
0
100
AcDbText
 10
7565848.86
 20
5720102.83
 40
0.2
  1
w2
 50
0.00
 41
0.62
 51
0.00
  7
STANDARD
100
AcDbAttribute
  2
Nr
 70
0
  0
SEQEND
  5
DD
100
AcDbEntity
  8
0
  0
INSERT
  5
DE
100
AcDbEntity
  8
0
  6
CONTINUOUS
100
AcDbBlockReference
 66
1
  2
pikieta
 10
7565850.01999999872
 20
5720102.28
 41
0.50
 42
0.50
 43
0.50
 50
0.00
  0
ATTRIB
  5
DF
100
AcDbEntity
  8
0
100
AcDbText
 10
7565850.01999999872
 20
5720102.28
 40
0.2
  1
w3
 50
0.00
 41
0.62
 51
0.00
  7
STANDARD
100
AcDbAttribute
  2
Nr
 70
0
  0
SEQEND
  5
E0
100
AcDbEntity
  8
0
  0
INSERT
  5
E1
100
AcDbEntity
  8
0
  6
CONTINUOUS
100
AcDbBlockReference
 66
1
  2
pikieta
 10
7565851.12
 20
5720102.04000000064
 41
0.50
 42
0.50
 43
0.50
 50
0.00
  0
ATTRIB
  5
E2
100
AcDbEntity
  8
0
100
AcDbText
 10
7565851.12
 20
5720102.04000000064
 40
0.2
  1
w4
 50
0.00
 41
0.62
 51
0.00
  7
STANDARD
100
AcDbAttribute
  2
Nr
 70
0
  0
SEQEND
  5
E3
100
AcDbEntity
  8
0
  0
INSERT
  5
E4
100
AcDbEntity
  8
0
  6
CONTINUOUS
100
AcDbBlockReference
 66
1
  2
pikieta
 10
7565852.37
 20
5720102.05999999936
 41
0.50
 42
0.50
 43
0.50
 50
0.00
  0
ATTRIB
  5
E5
100
AcDbEntity
  8
0
100
AcDbText
 10
7565852.37
 20
5720102.05999999936
 40
0.2
  1
w5
 50
0.00
 41
0.62
 51
0.00
  7
STANDARD
100
AcDbAttribute
  2
Nr
 70
0
  0
SEQEND
  5
E6
100
AcDbEntity
  8
0
  0
INSERT
  5
E7
100
AcDbEntity
  8
0
  6
CONTINUOUS
100
AcDbBlockReference
 66
1
  2
pikieta
 10
7565853.21
 20
5720102.23
 41
0.50
 42
0.50
 43
0.50
 50
0.00
  0
ATTRIB
  5
E8
100
AcDbEntity
  8
0
100
AcDbText
 10
7565853.21
 20
5720102.23
 40
0.2
  1
w6
 50
0.00
 41
0.62
 51
0.00
  7
STANDARD
100
AcDbAttribute
  2
Nr
 70
0
  0
SEQEND
  5
E9
100
AcDbEntity
  8
0
  0
INSERT
  5
EA
100
AcDbEntity
  8
0
  6
CONTINUOUS
100
AcDbBlockReference
 66
1
  2
pikieta
 10
7565853.95
 20
5720102.59
 41
0.50
 42
0.50
 43
0.50
 50
0.00
  0
ATTRIB
  5
EB
100
AcDbEntity
  8
0
100
AcDbText
 10
7565853.95
 20
5720102.59
 40
0.2
  1
w7
 50
0.00
 41
0.62
 51
0.00
  7
STANDARD
100
AcDbAttribute
  2
Nr
 70
0
  0
SEQEND
  5
EC
100
AcDbEntity
  8
0
  0
INSERT
  5
ED
100
AcDbEntity
  8
0
  6
CONTINUOUS
100
AcDbBlockReference
 66
1
  2
pikieta
 10
7565854.83
 20
5720103.21999999936
 41
0.50
 42
0.50
 43
0.50
 50
0.00
  0
ATTRIB
  5
EE
100
AcDbEntity
  8
0
100
AcDbText
 10
7565854.83
 20
5720103.21999999936
 40
0.2
  1
w8
 50
0.00
 41
0.62
 51
0.00
  7
STANDARD
100
AcDbAttribute
  2
Nr
 70
0
  0
SEQEND
  5
EF
100
AcDbEntity
  8
0
  0
INSERT
  5
F0
100
AcDbEntity
  8
0
  6
CONTINUOUS
100
AcDbBlockReference
 66
1
  2
pikieta
 10
7565867.38999999872
 20
5720113.46999999936
 41
0.50
 42
0.50
 43
0.50
 50
0.00
  0
ATTRIB
  5
F1
100
AcDbEntity
  8
0
100
AcDbText
 10
7565867.38999999872
 20
5720113.46999999936
 40
0.2
  1
w9
 50
0.00
 41
0.62
 51
0.00
  7
STANDARD
100
AcDbAttribute
  2
Nr
 70
0
  0
SEQEND
  5
F2
100
AcDbEntity
  8
0
  0
INSERT
  5
F3
100
AcDbEntity
  8
0
  6
CONTINUOUS
100
AcDbBlockReference
 66
1
  2
pikieta
 10
7565876.14
 20
5720120.62000000064
 41
0.50
 42
0.50
 43
0.50
 50
0.00
  0
ATTRIB
  5
F4
100
AcDbEntity
  8
0
100
AcDbText
 10
7565876.14
 20
5720120.62000000064
 40
0.2
  1
w10
 50
0.00
 41
0.62
 51
0.00
  7
STANDARD
100
AcDbAttribute
  2
Nr
 70
0
  0
SEQEND
  5
F5
100
AcDbEntity
  8
0
  0
INSERT
  5
F6
100
AcDbEntity
  8
0
  6
CONTINUOUS
100
AcDbBlockReference
 66
1
  2
pikieta
 10
7565876.88999999872
 20
5720121.3
 41
0.50
 42
0.50
 43
0.50
 50
0.00
  0
ATTRIB
  5
F7
100
AcDbEntity
  8
0
100
AcDbText
 10
7565876.88999999872
 20
5720121.3
 40
0.2
  1
w11
 50
0.00
 41
0.62
 51
0.00
  7
STANDARD
100
AcDbAttribute
  2
Nr
 70
0
  0
SEQEND
  5
F8
100
AcDbEntity
  8
0
  0
INSERT
  5
F9
100
AcDbEntity
  8
0
  6
CONTINUOUS
100
AcDbBlockReference
 66
1
  2
pikieta
 10
7565877.36
 20
5720122.0
 41
0.50
 42
0.50
 43
0.50
 50
0.00
  0
ATTRIB
  5
FA
100
AcDbEntity
  8
0
100
AcDbText
 10
7565877.36
 20
5720122.0
 40
0.2
  1
w12
 50
0.00
 41
0.62
 51
0.00
  7
STANDARD
100
AcDbAttribute
  2
Nr
 70
0
  0
SEQEND
  5
FB
100
AcDbEntity
  8
0
  0
INSERT
  5
FC
100
AcDbEntity
  8
0
  6
CONTINUOUS
100
AcDbBlockReference
 66
1
  2
pikieta
 10
7565877.63
 20
5720122.87
 41
0.50
 42
0.50
 43
0.50
 50
0.00
  0
ATTRIB
  5
FD
100
AcDbEntity
  8
0
100
AcDbText
 10
7565877.63
 20
5720122.87
 40
0.2
  1
w13
 50
0.00
 41
0.62
 51
0.00
  7
STANDARD
100
AcDbAttribute
  2
Nr
 70
0
  0
SEQEND
  5
FE
100
AcDbEntity
  8
0
  0
INSERT
  5
FF
100
AcDbEntity
  8
0
  6
CONTINUOUS
100
AcDbBlockReference
 66
1
  2
pikieta
 10
7565877.55
 20
5720123.86
 41
0.50
 42
0.50
 43
0.50
 50
0.00
  0
ATTRIB
  5
100
100
AcDbEntity
  8
0
100
AcDbText
 10
7565877.55
 20
5720123.86
 40
0.2
  1
w14
 50
0.00
 41
0.62
 51
0.00
  7
STANDARD
100
AcDbAttribute
  2
Nr
 70
0
  0
SEQEND
  5
101
100
AcDbEntity
  8
0
  0
INSERT
  5
102
100
AcDbEntity
  8
0
  6
CONTINUOUS
100
AcDbBlockReference
 66
1
  2
pikieta
 10
7565877.0
 20
5720124.98000000064
 41
0.50
 42
0.50
 43
0.50
 50
0.00
  0
ATTRIB
  5
103
100
AcDbEntity
  8
0
100
AcDbText
 10
7565877.0
 20
5720124.98000000064
 40
0.2
  1
w15
 50
0.00
 41
0.62
 51
0.00
  7
STANDARD
100
AcDbAttribute
  2
Nr
 70
0
  0
SEQEND
  5
104
100
AcDbEntity
  8
0
  0
INSERT
  5
105
100
AcDbEntity
  8
0
  6
CONTINUOUS
100
AcDbBlockReference
 66
1
  2
pikieta
 10
7565867.23
 20
5720108.16999999936
 41
0.50
 42
0.50
 43
0.50
 50
0.00
  0
ATTRIB
  5
106
100
AcDbEntity
  8
0
100
AcDbText
 10
7565867.23
 20
5720108.16999999936
 40
0.2
  1
w16
 50
0.00
 41
0.62
 51
0.00
  7
STANDARD
100
AcDbAttribute
  2
Nr
 70
0
  0
SEQEND
  5
107
100
AcDbEntity
  8
0
  0
INSERT
  5
108
100
AcDbEntity
  8
0
  6
CONTINUOUS
100
AcDbBlockReference
 66
1
  2
pikieta
 10
7565868.12
 20
5720108.25
 41
0.50
 42
0.50
 43
0.50
 50
0.00
  0
ATTRIB
  5
109
100
AcDbEntity
  8
0
100
AcDbText
 10
7565868.12
 20
5720108.25
 40
0.2
  1
w17
 50
0.00
 41
0.62
 51
0.00
  7
STANDARD
100
AcDbAttribute
  2
Nr
 70
0
  0
SEQEND
  5
10A
100
AcDbEntity
  8
0
  0
INSERT
  5
10B
100
AcDbEntity
  8
0
  6
CONTINUOUS
100
AcDbBlockReference
 66
1
  2
pikieta
 10
7565869.01999999872
 20
5720108.28
 41
0.50
 42
0.50
 43
0.50
 50
0.00
  0
ATTRIB
  5
10C
100
AcDbEntity
  8
0
100
AcDbText
 10
7565869.01999999872
 20
5720108.28
 40
0.2
  1
w18
 50
0.00
 41
0.62
 51
0.00
  7
STANDARD
100
AcDbAttribute
  2
Nr
 70
0
  0
SEQEND
  5
10D
100
AcDbEntity
  8
0
  0
INSERT
  5
10E
100
AcDbEntity
  8
0
  6
CONTINUOUS
100
AcDbBlockReference
 66
1
  2
pikieta
 10
7565869.66
 20
5720108.16999999936
 41
0.50
 42
0.50
 43
0.50
 50
0.00
  0
ATTRIB
  5
10F
100
AcDbEntity
  8
0
100
AcDbText
 10
7565869.66
 20
5720108.16999999936
 40
0.2
  1
w19
 50
0.00
 41
0.62
 51
0.00
  7
STANDARD
100
AcDbAttribute
  2
Nr
 70
0
  0
SEQEND
  5
110
100
AcDbEntity
  8
0
  0
INSERT
  5
111
100
AcDbEntity
  8
0
  6
CONTINUOUS
100
AcDbBlockReference
 66
1
  2
pikieta
 10
7565870.08
 20
5720107.78
 41
0.50
 42
0.50
 43
0.50
 50
0.00
  0
ATTRIB
  5
112
100
AcDbEntity
  8
0
100
AcDbText
 10
7565870.08
 20
5720107.78
 40
0.2
  1
w20
 50
0.00
 41
0.62
 51
0.00
  7
STANDARD
100
AcDbAttribute
  2
Nr
 70
0
  0
SEQEND
  5
113
100
AcDbEntity
  8
0
  0
INSERT
  5
114
100
AcDbEntity
  8
0
  6
CONTINUOUS
100
AcDbBlockReference
 66
1
  2
pikieta
 10
7565870.14
 20
5720107.28000000064
 41
0.50
 42
0.50
 43
0.50
 50
0.00
  0
ATTRIB
  5
115
100
AcDbEntity
  8
0
100
AcDbText
 10
7565870.14
 20
5720107.28000000064
 40
0.2
  1
w21
 50
0.00
 41
0.62
 51
0.00
  7
STANDARD
100
AcDbAttribute
  2
Nr
 70
0
  0
SEQEND
  5
116
100
AcDbEntity
  8
0
  0
INSERT
  5
117
100
AcDbEntity
  8
0
  6
CONTINUOUS
100
AcDbBlockReference
 66
1
  2
pikieta
 10
7565869.93
 20
5720106.79
 41
0.50
 42
0.50
 43
0.50
 50
0.00
  0
ATTRIB
  5
118
100
AcDbEntity
  8
0
100
AcDbText
 10
7565869.93
 20
5720106.79
 40
0.2
  1
w22
 50
0.00
 41
0.62
 51
0.00
  7
STANDARD
100
AcDbAttribute
  2
Nr
 70
0
  0
SEQEND
  5
119
100
AcDbEntity
  8
0
  0
INSERT
  5
11A
100
AcDbEntity
  8
0
  6
CONTINUOUS
100
AcDbBlockReference
 66
1
  2
pikieta
 10
7565866.9
 20
5720104.31
 41
0.50
 42
0.50
 43
0.50
 50
0.00
  0
ATTRIB
  5
11B
100
AcDbEntity
  8
0
100
AcDbText
 10
7565866.9
 20
5720104.31
 40
0.2
  1
w23
 50
0.00
 41
0.62
 51
0.00
  7
STANDARD
100
AcDbAttribute
  2
Nr
 70
0
  0
SEQEND
  5
11C
100
AcDbEntity
  8
0
  0
INSERT
  5
11D
100
AcDbEntity
  8
0
  6
CONTINUOUS
100
AcDbBlockReference
 66
1
  2
pikieta
 10
7565883.73
 20
5720083.75
 41
0.50
 42
0.50
 43
0.50
 50
0.00
  0
ATTRIB
  5
11E
100
AcDbEntity
  8
0
100
AcDbText
 10
7565883.73
 20
5720083.75
 40
0.2
  1
w24
 50
0.00
 41
0.62
 51
0.00
  7
STANDARD
100
AcDbAttribute
  2
Nr
 70
0
  0
SEQEND
  5
11F
100
AcDbEntity
  8
0
  0
INSERT
  5
120
100
AcDbEntity
  8
0
  6
CONTINUOUS
100
AcDbBlockReference
 66
1
  2
pikieta
 10
7565900.1
 20
5720097.15
 41
0.50
 42
0.50
 43
0.50
 50
0.00
  0
ATTRIB
  5
121
100
AcDbEntity
  8
0
100
AcDbText
 10
7565900.1
 20
5720097.15
 40
0.2
  1
w25
 50
0.00
 41
0.62
 51
0.00
  7
STANDARD
100
AcDbAttribute
  2
Nr
 70
0
  0
SEQEND
  5
122
100
AcDbEntity
  8
0
  0
INSERT
  5
123
100
AcDbEntity
  8
0
  6
CONTINUOUS
100
AcDbBlockReference
 66
1
  2
pikieta
 10
7565886.49
 20
5720113.78
 41
0.50
 42
0.50
 43
0.50
 50
0.00
  0
ATTRIB
  5
124
100
AcDbEntity
  8
0
100
AcDbText
 10
7565886.49
 20
5720113.78
 40
0.2
  1
w26
 50
0.00
 41
0.62
 51
0.00
  7
STANDARD
100
AcDbAttribute
  2
Nr
 70
0
  0
SEQEND
  5
125
100
AcDbEntity
  8
0
  0
INSERT
  5
126
100
AcDbEntity
  8
0
  6
CONTINUOUS
100
AcDbBlockReference
 66
1
  2
pikieta
 10
7565926.22
 20
5720146.8
 41
0.50
 42
0.50
 43
0.50
 50
0.00
  0
ATTRIB
  5
127
100
AcDbEntity
  8
0
100
AcDbText
 10
7565926.22
 20
5720146.8
 40
0.2
  1
w27
 50
0.00
 41
0.62
 51
0.00
  7
STANDARD
100
AcDbAttribute
  2
Nr
 70
0
  0
SEQEND
  5
128
100
AcDbEntity
  8
0
  0
INSERT
  5
129
100
AcDbEntity
  8
0
  6
CONTINUOUS
100
AcDbBlockReference
 66
1
  2
pikieta
 10
7565915.92
 20
5720159.34999999936
 41
0.50
 42
0.50
 43
0.50
 50
0.00
  0
ATTRIB
  5
12A
100
AcDbEntity
  8
0
100
AcDbText
 10
7565915.92
 20
5720159.34999999936
 40
0.2
  1
w28
 50
0.00
 41
0.62
 51
0.00
  7
STANDARD
100
AcDbAttribute
  2
Nr
 70
0
  0
SEQEND
  5
12B
100
AcDbEntity
  8
0
  0
INSERT
  5
12C
100
AcDbEntity
  8
0
  6
CONTINUOUS
100
AcDbBlockReference
 66
1
  2
pikieta
 10
7565875.65
 20
5720126.53
 41
0.50
 42
0.50
 43
0.50
 50
0.00
  0
ATTRIB
  5
12D
100
AcDbEntity
  8
0
100
AcDbText
 10
7565875.65
 20
5720126.53
 40
0.2
  1
w29
 50
0.00
 41
0.62
 51
0.00
  7
STANDARD
100
AcDbAttribute
  2
Nr
 70
0
  0
SEQEND
  5
12E
100
AcDbEntity
  8
0
  0
INSERT
  5
12F
100
AcDbEntity
  8
0
  6
CONTINUOUS
100
AcDbBlockReference
 66
1
  2
pikieta
 10
7565857.36000000128
 20
5720100.11999999936
 41
0.50
 42
0.50
 43
0.50
 50
0.00
  0
ATTRIB
  5
130
100
AcDbEntity
  8
0
100
AcDbText
 10
7565857.36000000128
 20
5720100.11999999936
 40
0.2
  1
w30
 50
0.00
 41
0.62
 51
0.00
  7
STANDARD
100
AcDbAttribute
  2
Nr
 70
0
  0
SEQEND
  5
131
100
AcDbEntity
  8
0
  0
INSERT
  5
132
100
AcDbEntity
  8
0
  6
CONTINUOUS
100
AcDbBlockReference
 66
1
  2
pikieta
 10
7565856.81
 20
5720092.98000000064
 41
0.50
 42
0.50
 43
0.50
 50
0.00
  0
ATTRIB
  5
133
100
AcDbEntity
  8
0
100
AcDbText
 10
7565856.81
 20
5720092.98000000064
 40
0.2
  1
w31
 50
0.00
 41
0.62
 51
0.00
  7
STANDARD
100
AcDbAttribute
  2
Nr
 70
0
  0
SEQEND
  5
134
100
AcDbEntity
  8
0
  0
INSERT
  5
135
100
AcDbEntity
  8
0
  6
CONTINUOUS
100
AcDbBlockReference
 66
1
  2
pikieta
 10
7565856.2
 20
5720093.88
 41
0.50
 42
0.50
 43
0.50
 50
0.00
  0
ATTRIB
  5
136
100
AcDbEntity
  8
0
100
AcDbText
 10
7565856.2
 20
5720093.88
 40
0.2
  1
w32
 50
0.00
 41
0.62
 51
0.00
  7
STANDARD
100
AcDbAttribute
  2
Nr
 70
0
  0
SEQEND
  5
137
100
AcDbEntity
  8
0
  0
INSERT
  5
138
100
AcDbEntity
  8
0
  6
CONTINUOUS
100
AcDbBlockReference
 66
1
  2
pikieta
 10
7565855.84
 20
5720094.71
 41
0.50
 42
0.50
 43
0.50
 50
0.00
  0
ATTRIB
  5
139
100
AcDbEntity
  8
0
100
AcDbText
 10
7565855.84
 20
5720094.71
 40
0.2
  1
w33
 50
0.00
 41
0.62
 51
0.00
  7
STANDARD
100
AcDbAttribute
  2
Nr
 70
0
  0
SEQEND
  5
13A
100
AcDbEntity
  8
0
  0
INSERT
  5
13B
100
AcDbEntity
  8
0
  6
CONTINUOUS
100
AcDbBlockReference
 66
1
  2
pikieta
 10
7565855.68
 20
5720095.72
 41
0.50
 42
0.50
 43
0.50
 50
0.00
  0
ATTRIB
  5
13C
100
AcDbEntity
  8
0
100
AcDbText
 10
7565855.68
 20
5720095.72
 40
0.2
  1
w34
 50
0.00
 41
0.62
 51
0.00
  7
STANDARD
100
AcDbAttribute
  2
Nr
 70
0
  0
SEQEND
  5
13D
100
AcDbEntity
  8
0
  0
INSERT
  5
13E
100
AcDbEntity
  8
0
  6
CONTINUOUS
100
AcDbBlockReference
 66
1
  2
pikieta
 10
7565855.65
 20
5720096.87
 41
0.50
 42
0.50
 43
0.50
 50
0.00
  0
ATTRIB
  5
13F
100
AcDbEntity
  8
0
100
AcDbText
 10
7565855.65
 20
5720096.87
 40
0.2
  1
w35
 50
0.00
 41
0.62
 51
0.00
  7
STANDARD
100
AcDbAttribute
  2
Nr
 70
0
  0
SEQEND
  5
140
100
AcDbEntity
  8
0
  0
INSERT
  5
141
100
AcDbEntity
  8
0
  6
CONTINUOUS
100
AcDbBlockReference
 66
1
  2
pikieta
 10
7565855.98
 20
5720098.07999999936
 41
0.50
 42
0.50
 43
0.50
 50
0.00
  0
ATTRIB
  5
142
100
AcDbEntity
  8
0
100
AcDbText
 10
7565855.98
 20
5720098.07999999936
 40
0.2
  1
w36
 50
0.00
 41
0.62
 51
0.00
  7
STANDARD
100
AcDbAttribute
  2
Nr
 70
0
  0
SEQEND
  5
143
100
AcDbEntity
  8
0
  0
INSERT
  5
144
100
AcDbEntity
  8
0
  6
CONTINUOUS
100
AcDbBlockReference
 66
1
  2
pikieta
 10
7565856.47
 20
5720099.05
 41
0.50
 42
0.50
 43
0.50
 50
0.00
  0
ATTRIB
  5
145
100
AcDbEntity
  8
0
100
AcDbText
 10
7565856.47
 20
5720099.05
 40
0.2
  1
w37
 50
0.00
 41
0.62
 51
0.00
  7
STANDARD
100
AcDbAttribute
  2
Nr
 70
0
  0
SEQEND
  5
146
100
AcDbEntity
  8
0
  0
ENDSEC
  0
SECTION
  2
OBJECTS
  0
DICTIONARY
  5
147
330
0
100
AcDbDictionary
280
0
281
1
  3
ACAD_GROUP
350
148
  3
ACAD_LAYOUT
350
149
  3
ACAD_MLINESTYLE
350
14A
  3
ACAD_PLOTSETTINGS
350
14B
  3
ACAD_PLOTSTYLENAME
350
14C
  0
DICTIONARY
  5
148
102
{ACAD_REACTORS
330
147
102
}
330
147
100
AcDbDictionary
280
0
281
1
  0
DICTIONARY
  5
149
102
{ACAD_REACTORS
330
147
102
}
330
147
100
AcDbDictionary
280
0
281
1
  3
Layout
350
27
  3
Model
350
25
  0
DICTIONARY
  5
14A
102
{ACAD_REACTORS
330
147
102
}
330
147
100
AcDbDictionary
280
0
281
1
  3
Standard
350
14D
  3
L_0_02
350
7
  3
L_0_15
350
11
  3
L_0_29
350
14
  0
DICTIONARY
  5
14B
102
{ACAD_REACTORS
330
147
102
}
330
147
100
AcDbDictionary
280
0
281
1
  0
ACDBDICTIONARYWDFLT
  5
14C
102
{ACAD_REACTORS
330
147
102
}
330
147
100
AcDbDictionary
281
1
  3
Normal
350
18
100
AcDbDictionaryWithDefault
340
18
  0
LAYOUT
  5
27
100
AcDbPlotSettings
  1

  2

  4

  6

 40
0.0
 41
0.0
 42
0.0
 43
0.0
 44
0.0
 45
0.0
 46
0.0
 47
0.0
 48
0.0
 49
0.0
140
0.0
141
0.0
142
1.0
143
1.0
 70
688
 72
1
 73
0
 74
5
  7

 75
0
147
1.0
148
0.0
149
0.0
100
AcDbLayout
  1
Layout
 70
1
 71
1
 10
0.0
 20
0.0
 11
420.0
 21
297.0
 12
0.0
 22
0.0
 32
0.0
 14
100000000000000000000.0
 24
100000000000000000000.0
 34
100000000000000000000.0
 15
-100000000000000000000.0
 25
-100000000000000000000.0
 35
-100000000000000000000.0
146
0.0
 13
0.0
 23
0.0
 33
0.0
 16
1.0
 26
0.0
 36
0.0
 17
0.0
 27
1.0
 37
0.0
 76
0
330
26
  0
LAYOUT
  5
25
100
AcDbPlotSettings
  1

  2

  4

  6

 40
0.0
 41
0.0
 42
0.0
 43
0.0
 44
0.0
 45
0.0
 46
0.0
 47
0.0
 48
0.0
 49
0.0
140
0.0
141
0.0
142
1.0
143
1.0
 70
1712
 72
1
 73
0
 74
0
  7

 75
0
147
1.0
148
0.0
149
0.0
100
AcDbLayout
  1
Model
 70
1
 71
0
 10
0.0
 20
0.0
 11
12.0
 21
9.0
 12
0.0
 22
0.0
 32
0.0
 14
0.0
 24
0.0
 34
0.0
 15
0.0
 25
0.0
 35
0.0
146
0.0
 13
0.0
 23
0.0
 33
0.0
 16
1.0
 26
0.0
 36
0.0
 17
0.0
 27
1.0
 37
0.0
 76
0
330
24
  0
MLINESTYLE
  5
14D
102
{ACAD_REACTORS
330
14A
102
}
330
14A
100
AcDbMlineStyle
  2
Standard
 70
0
  3

 62
256
 51
90.0
 52
90.0
  2
Standard
 71
2
 49
0.5
 62
256
  6
ByLayer
 49
-0.5
 62
256
  6
ByLayer
  0
MLINESTYLE
  5
7
100
AcDbMlineStyle
  2
L_0_02
 70
0
  3

 51
90.0
 52
90.0
 71
1
 49
0.0
 62
256
  6
CONTINUOUS
  0
MLINESTYLE
  5
11
100
AcDbMlineStyle
  2
L_0_15
 70
0
  3

 51
90.0
 52
90.0
 71
2
 49
0.0
 62
256
  6
L_0_15_SHX
 49
0.0
 62
256
  6
CONTINUOUS
  0
MLINESTYLE
  5
14
100
AcDbMlineStyle
  2
L_0_29
 70
0
  3

 51
90.0
 52
90.0
 71
3
 49
0.25
 62
256
  6
CONTINUOUS
 49
0.0
 62
256
  6
L_0_29_SHX
 49
-0.25
 62
256
  6
CONTINUOUS
  0
ACDBPLACEHOLDER
  5
18
  0
ENDSEC
  0
EOF
