  0
SECTION
  2
HEADER
  9
$ACADVER
  1
AC1027
  9
$ACADMAINTVER
 70
     8
  9
$DWGCODEPAGE
  3
ANSI_1250
  9
$REQUIREDVERSIONS
160
                 0
  9
$INSBASE
 10
0.0
 20
0.0
 30
0.0
  9
$EXTMIN
 10
7573544.309999999
 20
5720920.16
 30
0.0
  9
$EXTMAX
 10
7574825.070000001
 20
5721708.969999999
 30
0.0
  9
$LIMMIN
 10
7573544.309999999
 20
5720920.16
  9
$LIMMAX
 10
7574825.070000001
 20
5721708.969999999
  9
$ORTHOMODE
 70
     0
  9
$REGENMODE
 70
     1
  9
$FILLMODE
 70
     1
  9
$QTEXTMODE
 70
     0
  9
$MIRRTEXT
 70
     0
  9
$LTSCALE
 40
1.0
  9
$ATTMODE
 70
     1
  9
$TEXTSIZE
 40
0.2
  9
$TRACEWID
 40
0.05
  9
$TEXTSTYLE
  7
STANDARD
  9
$CLAYER
  8
0
  9
$CELTYPE
  6
CONTINUOUS
  9
$CECOLOR
 62
   256
  9
$CELTSCALE
 40
1.0
  9
$DISPSILH
 70
     0
  9
$DIMSCALE
 40
1.0
  9
$DIMASZ
 40
2.5
  9
$DIMEXO
 40
0.625
  9
$DIMDLI
 40
0.38
  9
$DIMRND
 40
0.0
  9
$DIMDLE
 40
0.0
  9
$DIMEXE
 40
1.25
  9
$DIMTP
 40
0.0
  9
$DIMTM
 40
0.0
  9
$DIMTXT
 40
2.5
  9
$DIMCEN
 40
0.09
  9
$DIMTSZ
 40
0.0
  9
$DIMTOL
 70
     0
  9
$DIMLIM
 70
     0
  9
$DIMTIH
 70
     1
  9
$DIMTOH
 70
     1
  9
$DIMSE1
 70
     0
  9
$DIMSE2
 70
     0
  9
$DIMTAD
 70
     0
  9
$DIMZIN
 70
     0
  9
$DIMBLK
  1

  9
$DIMASO
 70
     1
  9
$DIMSHO
 70
     1
  9
$DIMPOST
  1

  9
$DIMAPOST
  1

  9
$DIMALT
 70
     0
  9
$DIMALTD
 70
     2
  9
$DIMALTF
 40
25.4
  9
$DIMLFAC
 40
1.0
  9
$DIMTOFL
 70
     0
  9
$DIMTVP
 40
0.0
  9
$DIMTIX
 70
     0
  9
$DIMSOXD
 70
     0
  9
$DIMSAH
 70
     0
  9
$DIMBLK1
  1

  9
$DIMBLK2
  1

  9
$DIMSTYLE
  2
Standard
  9
$DIMCLRD
 70
     0
  9
$DIMCLRE
 70
     0
  9
$DIMCLRT
 70
     0
  9
$DIMTFAC
 40
1.0
  9
$DIMGAP
 40
0.625
  9
$DIMJUST
 70
     0
  9
$DIMSD1
 70
     0
  9
$DIMSD2
 70
     0
  9
$DIMTOLJ
 70
     1
  9
$DIMTZIN
 70
     0
  9
$DIMALTZ
 70
     0
  9
$DIMALTTZ
 70
     0
  9
$DIMUPT
 70
     0
  9
$DIMDEC
 70
     4
  9
$DIMTDEC
 70
     4
  9
$DIMALTU
 70
     2
  9
$DIMALTTD
 70
     2
  9
$DIMTXSTY
  7
STANDARD
  9
$DIMAUNIT
 70
     0
  9
$DIMADEC
 70
     0
  9
$DIMALTRND
 40
0.0
  9
$DIMAZIN
 70
     0
  9
$DIMDSEP
 70
    46
  9
$DIMATFIT
 70
     3
  9
$DIMFRAC
 70
     0
  9
$DIMLDRBLK
  1

  9
$DIMLUNIT
 70
     2
  9
$DIMLWD
 70
    -2
  9
$DIMLWE
 70
    -2
  9
$DIMTMOVE
 70
     0
  9
$DIMFXL
 40
1.0
  9
$DIMFXLON
 70
     0
  9
$DIMJOGANG
 40
0.7853981633974483
  9
$DIMTFILL
 70
     0
  9
$DIMTFILLCLR
 70
     0
  9
$DIMARCSYM
 70
     0
  9
$DIMLTYPE
  6

  9
$DIMLTEX1
  6

  9
$DIMLTEX2
  6

  9
$DIMTXTDIRECTION
 70
     0
  9
$LUNITS
 70
     2
  9
$LUPREC
 70
     4
  9
$SKETCHINC
 40
0.1
  9
$FILLETRAD
 40
0.0
  9
$AUNITS
 70
     0
  9
$AUPREC
 70
     0
  9
$MENU
  1

  9
$ELEVATION
 40
0.0
  9
$PELEVATION
 40
0.0
  9
$THICKNESS
 40
0.0
  9
$LIMCHECK
 70
     0
  9
$CHAMFERA
 40
0.0
  9
$CHAMFERB
 40
0.0
  9
$CHAMFERC
 40
0.0
  9
$CHAMFERD
 40
0.0
  9
$SKPOLY
 70
     0
  9
$TDCREATE
 40
2305814.591604433
  9
$TDUCREATE
 40
45390.508271100
  9
$TDUPDATE
 40
2460409.594655938
  9
$TDUUPDATE
 40
2460409.511322604
  9
$TDINDWG
 40
0.001501505
  9
$TDUSRTIMER
 40
0.001501227
  9
$USRTIMER
 70
     1
  9
$ANGBASE
 50
0.0
  9
$ANGDIR
 70
     0
  9
$PDMODE
 70
     0
  9
$PDSIZE
 40
0.0
  9
$PLINEWID
 40
0.0
  9
$SPLFRAME
 70
     0
  9
$SPLINETYPE
 70
     6
  9
$SPLINESEGS
 70
     8
  9
$HANDSEED
  5
1000228
  9
$SURFTAB1
 70
     6
  9
$SURFTAB2
 70
     6
  9
$SURFTYPE
 70
     6
  9
$SURFU
 70
     6
  9
$SURFV
 70
     6
  9
$UCSBASE
  2

  9
$UCSNAME
  2

  9
$UCSORG
 10
0.0
 20
0.0
 30
0.0
  9
$UCSXDIR
 10
1.0
 20
0.0
 30
0.0
  9
$UCSYDIR
 10
0.0
 20
1.0
 30
0.0
  9
$UCSORTHOREF
  2

  9
$UCSORTHOVIEW
 70
     0
  9
$UCSORGTOP
 10
0.0
 20
0.0
 30
0.0
  9
$UCSORGBOTTOM
 10
0.0
 20
0.0
 30
0.0
  9
$UCSORGLEFT
 10
0.0
 20
0.0
 30
0.0
  9
$UCSORGRIGHT
 10
0.0
 20
0.0
 30
0.0
  9
$UCSORGFRONT
 10
0.0
 20
0.0
 30
0.0
  9
$UCSORGBACK
 10
0.0
 20
0.0
 30
0.0
  9
$PUCSBASE
  2

  9
$PUCSNAME
  2

  9
$PUCSORG
 10
0.0
 20
0.0
 30
0.0
  9
$PUCSXDIR
 10
1.0
 20
0.0
 30
0.0
  9
$PUCSYDIR
 10
0.0
 20
1.0
 30
0.0
  9
$PUCSORTHOREF
  2

  9
$PUCSORTHOVIEW
 70
     0
  9
$PUCSORGTOP
 10
0.0
 20
0.0
 30
0.0
  9
$PUCSORGBOTTOM
 10
0.0
 20
0.0
 30
0.0
  9
$PUCSORGLEFT
 10
0.0
 20
0.0
 30
0.0
  9
$PUCSORGRIGHT
 10
0.0
 20
0.0
 30
0.0
  9
$PUCSORGFRONT
 10
0.0
 20
0.0
 30
0.0
  9
$PUCSORGBACK
 10
0.0
 20
0.0
 30
0.0
  9
$USERI1
 70
     0
  9
$USERI2
 70
     0
  9
$USERI3
 70
     0
  9
$USERI4
 70
     0
  9
$USERI5
 70
     0
  9
$USERR1
 40
0.0
  9
$USERR2
 40
0.0
  9
$USERR3
 40
0.0
  9
$USERR4
 40
0.0
  9
$USERR5
 40
0.0
  9
$WORLDVIEW
 70
     1
  9
$SHADEDGE
 70
     3
  9
$SHADEDIF
 70
    70
  9
$TILEMODE
 70
     1
  9
$MAXACTVP
 70
    64
  9
$PINSBASE
 10
0.0
 20
0.0
 30
0.0
  9
$PLIMCHECK
 70
     0
  9
$PEXTMIN
 10
1.000000000000000E+20
 20
1.000000000000000E+20
 30
1.000000000000000E+20
  9
$PEXTMAX
 10
-1.000000000000000E+20
 20
-1.000000000000000E+20
 30
-1.000000000000000E+20
  9
$PLIMMIN
 10
0.0
 20
0.0
  9
$PLIMMAX
 10
210.0
 20
297.0
  9
$UNITMODE
 70
     0
  9
$VISRETAIN
 70
     1
  9
$PLINEGEN
 70
     0
  9
$PSLTSCALE
 70
     1
  9
$TREEDEPTH
 70
  3020
  9
$CMLSTYLE
  2
Standard
  9
$CMLJUST
 70
     0
  9
$CMLSCALE
 40
1.0
  9
$PROXYGRAPHICS
 70
     1
  9
$MEASUREMENT
 70
     1
  9
$CELWEIGHT
370
    -1
  9
$ENDCAPS
280
     0
  9
$JOINSTYLE
280
     0
  9
$LWDISPLAY
290
     1
  9
$INSUNITS
 70
     6
  9
$HYPERLINKBASE
  1

  9
$STYLESHEET
  1

  9
$XEDIT
290
     0
  9
$CEPSNTYPE
380
     0
  9
$PSTYLEMODE
290
     1
  9
$FINGERPRINTGUID
  2
{7D355697-6F0D-47CD-9B70-0BE4C7E930A7}
  9
$VERSIONGUID
  2
{DD104B5C-753D-4714-924D-77EEEED17D7D}
  9
$EXTNAMES
290
     1
  9
$PSVPSCALE
 40
0.0
  9
$OLESTARTUP
290
     0
  9
$SORTENTS
280
   127
  9
$INDEXCTL
280
     0
  9
$HIDETEXT
280
     1
  9
$XCLIPFRAME
280
     2
  9
$HALOGAP
280
     0
  9
$OBSCOLOR
 70
   257
  9
$OBSLTYPE
280
     0
  9
$INTERSECTIONDISPLAY
280
     0
  9
$INTERSECTIONCOLOR
 70
   257
  9
$DIMASSOC
280
     2
  9
$PROJECTNAME
  1

  9
$CAMERADISPLAY
290
     0
  9
$LENSLENGTH
 40
50.0
  9
$CAMERAHEIGHT
 40
0.0
  9
$STEPSPERSEC
 40
2.0
  9
$STEPSIZE
 40
6.0
  9
$3DDWFPREC
 40
2.0
  9
$PSOLWIDTH
 40
0.25
  9
$PSOLHEIGHT
 40
4.0
  9
$LOFTANG1
 40
1.570796326794896
  9
$LOFTANG2
 40
1.570796326794896
  9
$LOFTMAG1
 40
0.0
  9
$LOFTMAG2
 40
0.0
  9
$LOFTPARAM
 70
     7
  9
$LOFTNORMALS
280
     1
  9
$LATITUDE
 40
0.0
  9
$LONGITUDE
 40
0.0
  9
$NORTHDIRECTION
 40
0.0
  9
$TIMEZONE
 70
 -8000
  9
$LIGHTGLYPHDISPLAY
280
     1
  9
$TILEMODELIGHTSYNCH
280
     1
  9
$CMATERIAL
347
1000000
  9
$SOLIDHIST
280
     1
  9
$SHOWHIST
280
     1
  9
$DWFFRAME
280
     2
  9
$DGNFRAME
280
     0
  9
$REALWORLDSCALE
290
     1
  9
$INTERFERECOLOR
 62
     1
  9
$CSHADOW
280
     0
  9
$SHADOWPLANELOCATION
 40
0.0
  0
ENDSEC
  0
SECTION
  2
CLASSES
  0
CLASS
  1
WIPEOUT
  2
AcDbWipeout
  3
WipeOut
 90
      127
 91
        0
280
     0
281
     1
  0
CLASS
  1
WIPEOUTVARIABLES
  2
AcDbWipeoutVariables
  3
WipeOut
 90
        0
 91
        0
280
     0
281
     0
  0
CLASS
  1
ACDBDICTIONARYWDFLT
  2
AcDbDictionaryWithDefault
  3
ObjectDBX Classes
 90
    32768
 91
        1
280
     0
281
     0
  0
CLASS
  1
MATERIAL
  2
AcDbMaterial
  3
ObjectDBX Classes
 90
        0
 91
        3
280
     0
281
     0
  0
CLASS
  1
VISUALSTYLE
  2
AcDbVisualStyle
  3
ObjectDBX Classes
 90
     4095
 91
       24
280
     0
281
     0
  0
CLASS
  1
TABLESTYLE
  2
AcDbTableStyle
  3
ObjectDBX Classes
 90
     2047
 91
        1
280
     0
281
     0
  0
CLASS
  1
MLEADERSTYLE
  2
AcDbMLeaderStyle
  3
ACDB_MLEADERSTYLE_CLASS
 90
     4095
 91
        1
280
     0
281
     0
  0
CLASS
  1
SCALE
  2
AcDbScale
  3
ObjectDBX Classes
 90
     1153
 91
       17
280
     0
281
     0
  0
CLASS
  1
SORTENTSTABLE
  2
AcDbSortentsTable
  3
ObjectDBX Classes
 90
        0
 91
        1
280
     0
281
     0
  0
CLASS
  1
DICTIONARYVAR
  2
AcDbDictionaryVar
  3
ObjectDBX Classes
 90
        0
 91
        4
280
     0
281
     0
  0
ENDSEC
  0
SECTION
  2
TABLES
  0
TABLE
  2
VPORT
  5
1
330
0
100
AcDbSymbolTable
 70
     1
  0
VPORT
  5
2
330
1
100
AcDbSymbolTableRecord
100
AcDbViewportTableRecord
  2
*ACTIVE
 70
     0
 10
0.0
 20
0.0
 11
1.0
 21
1.0
 12
7574256.180756411
 22
5721245.405541199
 13
0.0
 23
0.0
 14
1.0
 24
1.0
 15
0.0
 25
0.0
 16
0.0
 26
0.0
 36
1.0
 17
0.0
 27
0.0
 37
0.0
 40
394.9435593991816
 41
1.496522948539638
 42
50.0
 43
0.0
 44
0.0
 50
0.0
 51
0.0
 71
     0
 72
   100
 73
     1
 74
     1
 75
     0
 76
     0
 77
     0
 78
     0
281
     0
 65
     1
110
0.0
120
0.0
130
0.0
111
1.0
121
0.0
131
0.0
112
0.0
122
1.0
132
0.0
 79
     0
146
0.0
348
1000008
 60
     3
 61
     5
292
     1
282
     1
141
0.0
142
0.0
 63
   256
  0
ENDTAB
  0
TABLE
  2
LTYPE
  5
3
330
0
100
AcDbSymbolTable
 70
     5
  0
LTYPE
  5
4
330
3
100
AcDbSymbolTableRecord
100
AcDbLinetypeTableRecord
  2
ByBlock
 70
     0
  3

 72
    65
 73
     0
 40
0.0
  0
LTYPE
  5
5
330
3
100
AcDbSymbolTableRecord
100
AcDbLinetypeTableRecord
  2
ByLayer
 70
     0
  3

 72
    65
 73
     0
 40
0.0
  0
LTYPE
  5
6
330
3
100
AcDbSymbolTableRecord
100
AcDbLinetypeTableRecord
  2
CONTINUOUS
 70
     0
  3
Solid line
 72
    65
 73
     0
 40
0.0
  0
LTYPE
  5
8
330
3
100
AcDbSymbolTableRecord
100
AcDbLinetypeTableRecord
  2
L_0_02
 70
     0
  3
Dzialka_ewidencyjna (MLineStyle)
 72
    65
 73
     0
 40
0.0
  0
LTYPE
  5
9
330
3
100
AcDbSymbolTableRecord
100
AcDbLinetypeTableRecord
  2
L_0_03
 70
     0
  3
Uzytek_gruntowy
 72
    65
 73
     2
 40
4.0
 49
2.0
 74
     0
 49
-2.0
 74
     0
  0
LTYPE
  5
A
330
3
100
AcDbSymbolTableRecord
100
AcDbLinetypeTableRecord
  2
L_0_06
 70
     0
  3
Granica_konturu_klasyfikacyjnego_Krawedz_chodnika
 72
    65
 73
     2
 40
8.0
 49
6.0
 74
     0
 49
-2.0
 74
     0
  0
LTYPE
  5
B
330
3
100
AcDbSymbolTableRecord
100
AcDbLinetypeTableRecord
  2
L_0_4F
 70
     0
  3
L_0_4F
 72
    65
 73
     2
 40
7.0
 49
4.2
 74
     0
 49
-2.799999999999999
 74
     0
  0
ENDTAB
  0
TABLE
  2
LAYER
  5
C
330
0
100
AcDbSymbolTable
 70
   287
  0
LAYER
  5
D
330
C
100
AcDbSymbolTableRecord
100
AcDbLayerTableRecord
  2
0
 70
     0
 62
     7
  6
CONTINUOUS
370
    18
390
E
347
1000002
348
0
  0
LAYER
  5
F
330
C
100
AcDbSymbolTableRecord
100
AcDbLayerTableRecord
  2
czolowki
 70
     0
 62
     7
  6
CONTINUOUS
370
    18
390
E
347
1000002
348
0
  0
LAYER
  5
10
330
C
100
AcDbSymbolTableRecord
100
AcDbLayerTableRecord
  2
EGBA
 70
     0
 62
     7
  6
CONTINUOUS
370
    18
390
E
347
1000002
348
0
  0
LAYER
  5
11
330
C
100
AcDbSymbolTableRecord
100
AcDbLayerTableRecord
  2
EGBD
 70
     0
 62
     7
  6
CONTINUOUS
370
    18
390
E
347
1000002
348
0
  0
LAYER
  5
12
330
C
100
AcDbSymbolTableRecord
100
AcDbLayerTableRecord
  2
EGBI
 70
     0
 62
     7
  6
CONTINUOUS
370
    18
390
E
347
1000002
348
0
  0
LAYER
  5
13
330
C
100
AcDbSymbolTableRecord
100
AcDbLayerTableRecord
  2
EGBJ
 70
     0
 62
     7
  6
CONTINUOUS
370
    18
390
E
347
1000002
348
0
  0
LAYER
  5
14
330
C
100
AcDbSymbolTableRecord
100
AcDbLayerTableRecord
  2
EGBL
 70
     0
 62
     7
  6
CONTINUOUS
370
    18
390
E
347
1000002
348
0
  0
LAYER
  5
15
330
C
100
AcDbSymbolTableRecord
100
AcDbLayerTableRecord
  2
EGBN
 70
     0
 62
     7
  6
CONTINUOUS
370
    13
390
E
347
1000002
348
0
  0
LAYER
  5
16
330
C
100
AcDbSymbolTableRecord
100
AcDbLayerTableRecord
  2
EGBO
 70
     0
 62
     7
  6
CONTINUOUS
370
    18
390
E
347
1000002
348
0
  0
LAYER
  5
17
330
C
100
AcDbSymbolTableRecord
100
AcDbLayerTableRecord
  2
EGBO_P
 70
     0
 62
     7
  6
CONTINUOUS
370
    18
390
E
347
1000002
348
0
  0
LAYER
  5
18
330
C
100
AcDbSymbolTableRecord
100
AcDbLayerTableRecord
  2
EGBP
 70
     0
 62
     7
  6
CONTINUOUS
370
    18
390
E
347
1000002
348
0
  0
LAYER
  5
19
330
C
100
AcDbSymbolTableRecord
100
AcDbLayerTableRecord
  2
EGBR
 70
     0
 62
     7
  6
CONTINUOUS
370
    18
390
E
347
1000002
348
0
  0
LAYER
  5
1A
330
C
100
AcDbSymbolTableRecord
100
AcDbLayerTableRecord
  2
EGBS
 70
     0
 62
     7
  6
CONTINUOUS
370
    18
390
E
347
1000002
348
0
  0
LAYER
  5
1B
330
C
100
AcDbSymbolTableRecord
100
AcDbLayerTableRecord
  2
EGBT
 70
     0
 62
     7
  6
CONTINUOUS
370
    18
390
E
347
1000002
348
0
  0
LAYER
  5
1C
330
C
100
AcDbSymbolTableRecord
100
AcDbLayerTableRecord
  2
EGBU
 70
     0
 62
     7
  6
CONTINUOUS
370
    13
390
E
347
1000002
348
0
  0
LAYER
  5
1D
330
C
100
AcDbSymbolTableRecord
100
AcDbLayerTableRecord
  2
EGBW
 70
     0
 62
     7
  6
CONTINUOUS
370
    18
390
E
347
1000002
348
0
  0
LAYER
  5
1E
330
C
100
AcDbSymbolTableRecord
100
AcDbLayerTableRecord
  2
EGBY
 70
     0
 62
     7
  6
CONTINUOUS
370
    18
390
E
347
1000002
348
0
  0
LAYER
  5
1F
330
C
100
AcDbSymbolTableRecord
100
AcDbLayerTableRecord
  2
EGBZ
 70
     0
 62
     7
  6
CONTINUOUS
370
    18
390
E
347
1000002
348
0
  0
LAYER
  5
20
330
C
100
AcDbSymbolTableRecord
100
AcDbLayerTableRecord
  2
EGB_AdresNieruchomosci
 70
     0
 62
     7
  6
CONTINUOUS
370
    18
390
E
347
1000002
348
0
  0
LAYER
  5
21
330
C
100
AcDbSymbolTableRecord
100
AcDbLayerTableRecord
  2
EGB_BlokBudynku
 70
     0
 62
     7
  6
CONTINUOUS
370
    18
390
E
347
1000002
348
0
  0
LAYER
  5
22
330
C
100
AcDbSymbolTableRecord
100
AcDbLayerTableRecord
  2
EGB_Budynek
 70
     0
 62
     7
  6
CONTINUOUS
370
    35
390
E
347
1000002
348
0
  0
LAYER
  5
23
330
C
100
AcDbSymbolTableRecord
100
AcDbLayerTableRecord
  2
EGB_DzialkaEwidencyjna
 70
     0
 62
     7
  6
L_0_02
370
    18
390
E
347
1000002
348
0
  0
LAYER
  5
24
330
C
100
AcDbSymbolTableRecord
100
AcDbLayerTableRecord
  2
EGB_JednostkaEwidencyjna
 70
     0
 62
     7
  6
CONTINUOUS
370
    18
390
E
347
1000002
348
0
  0
LAYER
  5
25
330
C
100
AcDbSymbolTableRecord
100
AcDbLayerTableRecord
  2
EGB_Klasouzytek
 70
     0
 62
    96
  6
L_0_03
370
    18
390
E
347
1000002
348
0
  0
LAYER
  5
26
330
C
100
AcDbSymbolTableRecord
100
AcDbLayerTableRecord
  2
EGB_KonturKlasyfikacyjny
 70
     0
 62
    96
  6
L_0_06
370
    18
390
E
347
1000002
348
0
  0
LAYER
  5
27
330
C
100
AcDbSymbolTableRecord
100
AcDbLayerTableRecord
  2
EGB_KonturUzytkuGruntowego
 70
     0
 62
    96
  6
L_0_03
370
    18
390
E
347
1000002
348
0
  0
LAYER
  5
28
330
C
100
AcDbSymbolTableRecord
100
AcDbLayerTableRecord
  2
EGB_ObiektTrwaleZwiazanyZBudynkiem
 70
     0
 62
     7
  6
CONTINUOUS
370
    18
390
E
347
1000002
348
0
  0
LAYER
  5
29
330
C
100
AcDbSymbolTableRecord
100
AcDbLayerTableRecord
  2
EGB_ObiektTrwaleZwiazanyZBudynkiem_P
 70
     0
 62
     7
  6
CONTINUOUS
370
    18
390
E
347
1000002
348
0
  0
LAYER
  5
2A
330
C
100
AcDbSymbolTableRecord
100
AcDbLayerTableRecord
  2
EGB_ObrebEwidencyjny
 70
     0
 62
     7
  6
CONTINUOUS
370
    18
390
E
347
1000002
348
0
  0
LAYER
  5
2B
330
C
100
AcDbSymbolTableRecord
100
AcDbLayerTableRecord
  2
EGB_PunktGraniczny
 70
     0
 62
     7
  6
CONTINUOUS
370
    18
390
E
347
1000002
348
0
  0
LAYER
  5
2C
330
C
100
AcDbSymbolTableRecord
100
AcDbLayerTableRecord
  2
EGDE
 70
     0
 62
     7
  6
CONTINUOUS
370
    13
390
E
347
1000002
348
0
  0
LAYER
  5
2D
330
C
100
AcDbSymbolTableRecord
100
AcDbLayerTableRecord
  2
EGJE
 70
     0
 62
     7
  6
CONTINUOUS
370
    13
390
E
347
1000002
348
0
  0
LAYER
  5
2E
330
C
100
AcDbSymbolTableRecord
100
AcDbLayerTableRecord
  2
EGKK
 70
     0
 62
     7
  6
CONTINUOUS
370
    13
390
E
347
1000002
348
0
  0
LAYER
  5
2F
330
C
100
AcDbSymbolTableRecord
100
AcDbLayerTableRecord
  2
EGOE
 70
     0
 62
     7
  6
CONTINUOUS
370
    13
390
E
347
1000002
348
0
  0
LAYER
  5
30
330
C
100
AcDbSymbolTableRecord
100
AcDbLayerTableRecord
  2
EGPG_N
 70
     0
 62
     7
  6
CONTINUOUS
370
    13
390
E
347
1000002
348
0
  0
LAYER
  5
31
330
C
100
AcDbSymbolTableRecord
100
AcDbLayerTableRecord
  2
EGUG
 70
     0
 62
     7
  6
CONTINUOUS
370
    13
390
E
347
1000002
348
0
  0
LAYER
  5
32
330
C
100
AcDbSymbolTableRecord
100
AcDbLayerTableRecord
  2
ewns_dzialki
 70
     0
 62
     7
  6
CONTINUOUS
370
    18
390
E
347
1000002
348
0
  0
LAYER
  5
33
330
C
100
AcDbSymbolTableRecord
100
AcDbLayerTableRecord
  2
GES_InneUrzadzeniaTowarzyszace
 70
     0
 62
     7
  6
CONTINUOUS
370
    18
390
E
347
1000002
348
0
  0
LAYER
  5
34
330
C
100
AcDbSymbolTableRecord
100
AcDbLayerTableRecord
  2
GES_InneUrzadzeniaTowarzyszace_Projektowane
 70
     0
 62
     7
  6
CONTINUOUS
370
    18
390
E
347
1000002
348
0
  0
LAYER
  5
35
330
C
100
AcDbSymbolTableRecord
100
AcDbLayerTableRecord
  2
GES_InneUrzadzeniaTowarzyszace_P
 70
     0
 62
     7
  6
CONTINUOUS
370
    18
390
E
347
1000002
348
0
  0
LAYER
  5
36
330
C
100
AcDbSymbolTableRecord
100
AcDbLayerTableRecord
  2
GES_InneUrzadzeniaTowarzyszace_P_Projektowane
 70
     0
 62
     7
  6
CONTINUOUS
370
    18
390
E
347
1000002
348
0
  0
LAYER
  5
37
330
C
100
AcDbSymbolTableRecord
100
AcDbLayerTableRecord
  2
GES_PrzewodCieplowniczy
 70
     0
 62
   212
  6
CONTINUOUS
370
    18
390
E
347
1000002
348
0
  0
LAYER
  5
38
330
C
100
AcDbSymbolTableRecord
100
AcDbLayerTableRecord
  2
GES_PrzewodCieplowniczy_Projektowany
 70
     0
 62
     7
  6
CONTINUOUS
370
    18
390
E
347
1000002
348
0
  0
LAYER
  5
39
330
C
100
AcDbSymbolTableRecord
100
AcDbLayerTableRecord
  2
GES_PrzewodElektroenergetyczny
 70
     0
 62
     1
  6
CONTINUOUS
370
    18
390
E
347
1000002
348
0
  0
LAYER
  5
3A
330
C
100
AcDbSymbolTableRecord
100
AcDbLayerTableRecord
  2
GES_PrzewodElektroenergetyczny_Projektowany
 70
     0
 62
     7
  6
CONTINUOUS
370
    18
390
E
347
1000002
348
0
  0
LAYER
  5
3B
330
C
100
AcDbSymbolTableRecord
100
AcDbLayerTableRecord
  2
GES_PrzewodGazowy
 70
     0
 62
    52
  6
CONTINUOUS
370
    18
390
E
347
1000002
348
0
  0
LAYER
  5
3C
330
C
100
AcDbSymbolTableRecord
100
AcDbLayerTableRecord
  2
GES_PrzewodGazowy_Projektowany
 70
     0
 62
     7
  6
CONTINUOUS
370
    18
390
E
347
1000002
348
0
  0
LAYER
  5
3D
330
C
100
AcDbSymbolTableRecord
100
AcDbLayerTableRecord
  2
GES_PrzewodKanalizacyjny
 70
     0
 62
    36
  6
CONTINUOUS
370
    18
390
E
347
1000002
348
0
  0
LAYER
  5
3E
330
C
100
AcDbSymbolTableRecord
100
AcDbLayerTableRecord
  2
GES_PrzewodKanalizacyjny_Projektowany
 70
     0
 62
     7
  6
CONTINUOUS
370
    18
390
E
347
1000002
348
0
  0
LAYER
  5
3F
330
C
100
AcDbSymbolTableRecord
100
AcDbLayerTableRecord
  2
GES_PrzewodNiezidentyfikowany
 70
     0
 62
     7
  6
CONTINUOUS
370
    18
390
E
347
1000002
348
0
  0
LAYER
  5
40
330
C
100
AcDbSymbolTableRecord
100
AcDbLayerTableRecord
  2
GES_PrzewodNiezidentyfikowany_Projektowany
 70
     0
 62
     7
  6
CONTINUOUS
370
    18
390
E
347
1000002
348
0
  0
LAYER
  5
41
330
C
100
AcDbSymbolTableRecord
100
AcDbLayerTableRecord
  2
GES_PrzewodSpecjalny
 70
     0
 62
     7
  6
CONTINUOUS
370
    18
390
E
347
1000002
348
0
  0
LAYER
  5
42
330
C
100
AcDbSymbolTableRecord
100
AcDbLayerTableRecord
  2
GES_PrzewodSpecjalny_Projektowany
 70
     0
 62
     7
  6
CONTINUOUS
370
    18
390
E
347
1000002
348
0
  0
LAYER
  5
43
330
C
100
AcDbSymbolTableRecord
100
AcDbLayerTableRecord
  2
GES_PrzewodTelekomunikacyjny
 70
     0
 62
    30
  6
CONTINUOUS
370
    18
390
E
347
1000002
348
0
  0
LAYER
  5
44
330
C
100
AcDbSymbolTableRecord
100
AcDbLayerTableRecord
  2
GES_PrzewodTelekomunikacyjny_Projektowany
 70
     0
 62
     7
  6
CONTINUOUS
370
    18
390
E
347
1000002
348
0
  0
LAYER
  5
45
330
C
100
AcDbSymbolTableRecord
100
AcDbLayerTableRecord
  2
GES_PrzewodWodociagowy
 70
     0
 62
     5
  6
CONTINUOUS
370
    18
390
E
347
1000002
348
0
  0
LAYER
  5
46
330
C
100
AcDbSymbolTableRecord
100
AcDbLayerTableRecord
  2
GES_PrzewodWodociagowy_Projektowany
 70
     0
 62
     7
  6
CONTINUOUS
370
    18
390
E
347
1000002
348
0
  0
LAYER
  5
47
330
C
100
AcDbSymbolTableRecord
100
AcDbLayerTableRecord
  2
GES_Rzedna
 70
     0
 62
     7
  6
CONTINUOUS
370
    18
390
E
347
1000002
348
0
  0
LAYER
  5
48
330
C
100
AcDbSymbolTableRecord
100
AcDbLayerTableRecord
  2
GES_UrzadzeniaSiecCieplownicza
 70
     0
 62
     7
  6
CONTINUOUS
370
    18
390
E
347
1000002
348
0
  0
LAYER
  5
49
330
C
100
AcDbSymbolTableRecord
100
AcDbLayerTableRecord
  2
GES_UrzadzeniaSiecCieplownicza_Projektowane
 70
     0
 62
     7
  6
CONTINUOUS
370
    18
390
E
347
1000002
348
0
  0
LAYER
  5
4A
330
C
100
AcDbSymbolTableRecord
100
AcDbLayerTableRecord
  2
GES_UrzadzeniaSiecCieplownicza_P
 70
     0
 62
     7
  6
CONTINUOUS
370
    18
390
E
347
1000002
348
0
  0
LAYER
  5
4B
330
C
100
AcDbSymbolTableRecord
100
AcDbLayerTableRecord
  2
GES_UrzadzeniaSiecCieplownicza_P_Projektowane
 70
     0
 62
     7
  6
CONTINUOUS
370
    18
390
E
347
1000002
348
0
  0
LAYER
  5
4C
330
C
100
AcDbSymbolTableRecord
100
AcDbLayerTableRecord
  2
GES_UrzadzeniaSiecElektroenergetyczna
 70
     0
 62
     7
  6
CONTINUOUS
370
    18
390
E
347
1000002
348
0
  0
LAYER
  5
4D
330
C
100
AcDbSymbolTableRecord
100
AcDbLayerTableRecord
  2
GES_UrzadzeniaSiecElektroenergetyczna_Projektowane
 70
     0
 62
     7
  6
CONTINUOUS
370
    18
390
E
347
1000002
348
0
  0
LAYER
  5
4E
330
C
100
AcDbSymbolTableRecord
100
AcDbLayerTableRecord
  2
GES_UrzadzeniaSiecElektroenergetyczna_P
 70
     0
 62
     7
  6
CONTINUOUS
370
    18
390
E
347
1000002
348
0
  0
LAYER
  5
4F
330
C
100
AcDbSymbolTableRecord
100
AcDbLayerTableRecord
  2
GES_UrzadzeniaSiecElektroenergetyczna_P_Projektowane
 70
     0
 62
     7
  6
CONTINUOUS
370
    18
390
E
347
1000002
348
0
  0
LAYER
  5
50
330
C
100
AcDbSymbolTableRecord
100
AcDbLayerTableRecord
  2
GES_UrzadzeniaSiecGazowa
 70
     0
 62
     7
  6
CONTINUOUS
370
    18
390
E
347
1000002
348
0
  0
LAYER
  5
51
330
C
100
AcDbSymbolTableRecord
100
AcDbLayerTableRecord
  2
GES_UrzadzeniaSiecGazowa_Projektowane
 70
     0
 62
     7
  6
CONTINUOUS
370
    18
390
E
347
1000002
348
0
  0
LAYER
  5
52
330
C
100
AcDbSymbolTableRecord
100
AcDbLayerTableRecord
  2
GES_UrzadzeniaSiecGazowa_P
 70
     0
 62
     7
  6
CONTINUOUS
370
    18
390
E
347
1000002
348
0
  0
LAYER
  5
53
330
C
100
AcDbSymbolTableRecord
100
AcDbLayerTableRecord
  2
GES_UrzadzeniaSiecGazowa_P_Projektowane
 70
     0
 62
     7
  6
CONTINUOUS
370
    18
390
E
347
1000002
348
0
  0
LAYER
  5
54
330
C
100
AcDbSymbolTableRecord
100
AcDbLayerTableRecord
  2
GES_UrzadzeniaSiecKanalizacyjna
 70
     0
 62
     7
  6
CONTINUOUS
370
    18
390
E
347
1000002
348
0
  0
LAYER
  5
55
330
C
100
AcDbSymbolTableRecord
100
AcDbLayerTableRecord
  2
GES_UrzadzeniaSiecKanalizacyjna_Projektowane
 70
     0
 62
     7
  6
CONTINUOUS
370
    18
390
E
347
1000002
348
0
  0
LAYER
  5
56
330
C
100
AcDbSymbolTableRecord
100
AcDbLayerTableRecord
  2
GES_UrzadzeniaSiecKanalizacyjna_P
 70
     0
 62
     7
  6
CONTINUOUS
370
    18
390
E
347
1000002
348
0
  0
LAYER
  5
57
330
C
100
AcDbSymbolTableRecord
100
AcDbLayerTableRecord
  2
GES_UrzadzeniaSiecKanalizacyjna_P_Projektowane
 70
     0
 62
     7
  6
CONTINUOUS
370
    18
390
E
347
1000002
348
0
  0
LAYER
  5
58
330
C
100
AcDbSymbolTableRecord
100
AcDbLayerTableRecord
  2
GES_UrzadzeniaSiecTelekomunikacyjna
 70
     0
 62
     7
  6
CONTINUOUS
370
    18
390
E
347
1000002
348
0
  0
LAYER
  5
59
330
C
100
AcDbSymbolTableRecord
100
AcDbLayerTableRecord
  2
GES_UrzadzeniaSiecTelekomunikacyjna_Projektowane
 70
     0
 62
     7
  6
CONTINUOUS
370
    18
390
E
347
1000002
348
0
  0
LAYER
  5
5A
330
C
100
AcDbSymbolTableRecord
100
AcDbLayerTableRecord
  2
GES_UrzadzeniaSiecTelekomunikacyjna_P
 70
     0
 62
     7
  6
CONTINUOUS
370
    18
390
E
347
1000002
348
0
  0
LAYER
  5
5B
330
C
100
AcDbSymbolTableRecord
100
AcDbLayerTableRecord
  2
GES_UrzadzeniaSiecTelekomunikacyjna_P_Projektowane
 70
     0
 62
     7
  6
CONTINUOUS
370
    18
390
E
347
1000002
348
0
  0
LAYER
  5
5C
330
C
100
AcDbSymbolTableRecord
100
AcDbLayerTableRecord
  2
GES_UrzadzeniaSiecWodociagowa
 70
     0
 62
     7
  6
CONTINUOUS
370
    18
390
E
347
1000002
348
0
  0
LAYER
  5
5D
330
C
100
AcDbSymbolTableRecord
100
AcDbLayerTableRecord
  2
GES_UrzadzeniaSiecWodociagowa_Projektowane
 70
     0
 62
     7
  6
CONTINUOUS
370
    18
390
E
347
1000002
348
0
  0
LAYER
  5
5E
330
C
100
AcDbSymbolTableRecord
100
AcDbLayerTableRecord
  2
GES_UrzadzeniaSiecWodociagowa_P
 70
     0
 62
     7
  6
CONTINUOUS
370
    18
390
E
347
1000002
348
0
  0
LAYER
  5
5F
330
C
100
AcDbSymbolTableRecord
100
AcDbLayerTableRecord
  2
GES_UrzadzeniaSiecWodociagowa_P_Projektowane
 70
     0
 62
     7
  6
CONTINUOUS
370
    18
390
E
347
1000002
348
0
  0
LAYER
  5
60
330
C
100
AcDbSymbolTableRecord
100
AcDbLayerTableRecord
  2
GES_UrzadzeniaTechniczneSieciSpecjalnej
 70
     0
 62
     7
  6
CONTINUOUS
370
    18
390
E
347
1000002
348
0
  0
LAYER
  5
61
330
C
100
AcDbSymbolTableRecord
100
AcDbLayerTableRecord
  2
GES_UrzadzeniaTechniczneSieciSpecjalnej_Projektowane
 70
     0
 62
     7
  6
CONTINUOUS
370
    18
390
E
347
1000002
348
0
  0
LAYER
  5
62
330
C
100
AcDbSymbolTableRecord
100
AcDbLayerTableRecord
  2
GES_UrzadzeniaTechniczneSieciSpecjalnej_P
 70
     0
 62
     7
  6
CONTINUOUS
370
    18
390
E
347
1000002
348
0
  0
LAYER
  5
63
330
C
100
AcDbSymbolTableRecord
100
AcDbLayerTableRecord
  2
GES_UrzadzeniaTechniczneSieciSpecjalnej_P_Projektowane
 70
     0
 62
     7
  6
CONTINUOUS
370
    18
390
E
347
1000002
348
0
  0
LAYER
  5
64
330
C
100
AcDbSymbolTableRecord
100
AcDbLayerTableRecord
  2
GES_UrzadzeniaTowarzyszczaceLiniowe
 70
     0
 62
     7
  6
CONTINUOUS
370
    18
390
E
347
1000002
348
0
  0
LAYER
  5
65
330
C
100
AcDbSymbolTableRecord
100
AcDbLayerTableRecord
  2
GES_UrzadzeniaTowarzyszczaceLiniowe_Projektowane
 70
     0
 62
     7
  6
CONTINUOUS
370
    18
390
E
347
1000002
348
0
  0
LAYER
  5
66
330
C
100
AcDbSymbolTableRecord
100
AcDbLayerTableRecord
  2
GES_UrzadzenieNiezidentyfikowane
 70
     0
 62
     7
  6
CONTINUOUS
370
    18
390
E
347
1000002
348
0
  0
LAYER
  5
67
330
C
100
AcDbSymbolTableRecord
100
AcDbLayerTableRecord
  2
GES_UrzadzenieNiezidentyfikowane_Projektowane
 70
     0
 62
     7
  6
CONTINUOUS
370
    18
390
E
347
1000002
348
0
  0
LAYER
  5
68
330
C
100
AcDbSymbolTableRecord
100
AcDbLayerTableRecord
  2
GES_UrzadzenieNiezidentyfikowane_P
 70
     0
 62
     7
  6
CONTINUOUS
370
    18
390
E
347
1000002
348
0
  0
LAYER
  5
69
330
C
100
AcDbSymbolTableRecord
100
AcDbLayerTableRecord
  2
GES_UrzadzenieNiezidentyfikowane_P_Projektowane
 70
     0
 62
     7
  6
CONTINUOUS
370
    18
390
E
347
1000002
348
0
  0
LAYER
  5
6A
330
C
100
AcDbSymbolTableRecord
100
AcDbLayerTableRecord
  2
KR_ObiektKarto
 70
     0
 62
     7
  6
CONTINUOUS
370
    18
390
E
347
1000002
348
0
  0
LAYER
  5
6B
330
C
100
AcDbSymbolTableRecord
100
AcDbLayerTableRecord
  2
KR_ObiektKarto_P
 70
     0
 62
     7
  6
CONTINUOUS
370
    18
390
E
347
1000002
348
0
  0
LAYER
  5
6C
330
C
100
AcDbSymbolTableRecord
100
AcDbLayerTableRecord
  2
KR_Punkty
 70
     0
 62
     7
  6
CONTINUOUS
370
    13
390
E
347
1000002
348
0
  0
LAYER
  5
6D
330
C
100
AcDbSymbolTableRecord
100
AcDbLayerTableRecord
  2
nr_dzialek
 70
     0
 62
     7
  6
CONTINUOUS
370
    18
390
E
347
1000002
348
0
  0
LAYER
  5
6E
330
C
100
AcDbSymbolTableRecord
100
AcDbLayerTableRecord
  2
obreb
 70
     0
 62
     7
  6
L_0_4F
370
    35
390
E
347
1000002
348
0
  0
LAYER
  5
6F
330
C
100
AcDbSymbolTableRecord
100
AcDbLayerTableRecord
  2
OSGB
 70
     0
 62
     7
  6
CONTINUOUS
370
    18
390
E
347
1000002
348
0
  0
LAYER
  5
70
330
C
100
AcDbSymbolTableRecord
100
AcDbLayerTableRecord
  2
OSGF
 70
     0
 62
     7
  6
CONTINUOUS
370
    18
390
E
347
1000002
348
0
  0
LAYER
  5
71
330
C
100
AcDbSymbolTableRecord
100
AcDbLayerTableRecord
  2
OSHB
 70
     0
 62
     7
  6
CONTINUOUS
370
    18
390
E
347
1000002
348
0
  0
LAYER
  5
72
330
C
100
AcDbSymbolTableRecord
100
AcDbLayerTableRecord
  2
OSHF
 70
     0
 62
     7
  6
CONTINUOUS
370
    18
390
E
347
1000002
348
0
  0
LAYER
  5
73
330
C
100
AcDbSymbolTableRecord
100
AcDbLayerTableRecord
  2
OSMB
 70
     0
 62
     7
  6
CONTINUOUS
370
    18
390
E
347
1000002
348
0
  0
LAYER
  5
74
330
C
100
AcDbSymbolTableRecord
100
AcDbLayerTableRecord
  2
OSMF
 70
     0
 62
     7
  6
CONTINUOUS
370
    18
390
E
347
1000002
348
0
  0
LAYER
  5
75
330
C
100
AcDbSymbolTableRecord
100
AcDbLayerTableRecord
  2
OSPB
 70
     0
 62
     7
  6
CONTINUOUS
370
    18
390
E
347
1000002
348
0
  0
LAYER
  5
76
330
C
100
AcDbSymbolTableRecord
100
AcDbLayerTableRecord
  2
OSPF
 70
     0
 62
     7
  6
CONTINUOUS
370
    18
390
E
347
1000002
348
0
  0
LAYER
  5
77
330
C
100
AcDbSymbolTableRecord
100
AcDbLayerTableRecord
  2
OSSH
 70
     0
 62
     7
  6
CONTINUOUS
370
    18
390
E
347
1000002
348
0
  0
LAYER
  5
78
330
C
100
AcDbSymbolTableRecord
100
AcDbLayerTableRecord
  2
OSSP
 70
     0
 62
     7
  6
CONTINUOUS
370
    18
390
E
347
1000002
348
0
  0
LAYER
  5
79
330
C
100
AcDbSymbolTableRecord
100
AcDbLayerTableRecord
  2
OS_PunktOsnowyGrawimetrycznej
 70
     0
 62
     7
  6
CONTINUOUS
370
    18
390
E
347
1000002
348
0
  0
LAYER
  5
7A
330
C
100
AcDbSymbolTableRecord
100
AcDbLayerTableRecord
  2
OS_PunktOsnowyMagnetycznej
 70
     0
 62
     7
  6
CONTINUOUS
370
    18
390
E
347
1000002
348
0
  0
LAYER
  5
7B
330
C
100
AcDbSymbolTableRecord
100
AcDbLayerTableRecord
  2
OS_PunktOsnowyPoziomej
 70
     0
 62
     7
  6
CONTINUOUS
370
    18
390
E
347
1000002
348
0
  0
LAYER
  5
7C
330
C
100
AcDbSymbolTableRecord
100
AcDbLayerTableRecord
  2
OS_PunktOsnowyWysokosciowej
 70
     0
 62
     7
  6
CONTINUOUS
370
    18
390
E
347
1000002
348
0
  0
LAYER
  5
7D
330
C
100
AcDbSymbolTableRecord
100
AcDbLayerTableRecord
  2
OTBA
 70
     0
 62
     7
  6
CONTINUOUS
370
    18
390
E
347
1000002
348
0
  0
LAYER
  5
7E
330
C
100
AcDbSymbolTableRecord
100
AcDbLayerTableRecord
  2
OTBB
 70
     0
 62
     7
  6
CONTINUOUS
370
    18
390
E
347
1000002
348
0
  0
LAYER
  5
7F
330
C
100
AcDbSymbolTableRecord
100
AcDbLayerTableRecord
  2
OTBD
 70
     0
 62
     7
  6
CONTINUOUS
370
    18
390
E
347
1000002
348
0
  0
LAYER
  5
80
330
C
100
AcDbSymbolTableRecord
100
AcDbLayerTableRecord
  2
OTBI
 70
     0
 62
     7
  6
CONTINUOUS
370
    18
390
E
347
1000002
348
0
  0
LAYER
  5
81
330
C
100
AcDbSymbolTableRecord
100
AcDbLayerTableRecord
  2
OTBJ
 70
     0
 62
     7
  6
CONTINUOUS
370
    18
390
E
347
1000002
348
0
  0
LAYER
  5
82
330
C
100
AcDbSymbolTableRecord
100
AcDbLayerTableRecord
  2
OTBL
 70
     0
 62
     7
  6
CONTINUOUS
370
    18
390
E
347
1000002
348
0
  0
LAYER
  5
83
330
C
100
AcDbSymbolTableRecord
100
AcDbLayerTableRecord
  2
OTBN
 70
     0
 62
     7
  6
CONTINUOUS
370
    18
390
E
347
1000002
348
0
  0
LAYER
  5
84
330
C
100
AcDbSymbolTableRecord
100
AcDbLayerTableRecord
  2
OTBO
 70
     0
 62
     7
  6
CONTINUOUS
370
    18
390
E
347
1000002
348
0
  0
LAYER
  5
85
330
C
100
AcDbSymbolTableRecord
100
AcDbLayerTableRecord
  2
OTBO_P
 70
     0
 62
     7
  6
CONTINUOUS
370
    18
390
E
347
1000002
348
0
  0
LAYER
  5
86
330
C
100
AcDbSymbolTableRecord
100
AcDbLayerTableRecord
  2
OTBP
 70
     0
 62
     7
  6
CONTINUOUS
370
    18
390
E
347
1000002
348
0
  0
LAYER
  5
87
330
C
100
AcDbSymbolTableRecord
100
AcDbLayerTableRecord
  2
OTBR
 70
     0
 62
     7
  6
CONTINUOUS
370
    18
390
E
347
1000002
348
0
  0
LAYER
  5
88
330
C
100
AcDbSymbolTableRecord
100
AcDbLayerTableRecord
  2
OTBS
 70
     0
 62
     7
  6
CONTINUOUS
370
    18
390
E
347
1000002
348
0
  0
LAYER
  5
89
330
C
100
AcDbSymbolTableRecord
100
AcDbLayerTableRecord
  2
OTBT
 70
     0
 62
     7
  6
CONTINUOUS
370
    18
390
E
347
1000002
348
0
  0
LAYER
  5
8A
330
C
100
AcDbSymbolTableRecord
100
AcDbLayerTableRecord
  2
OTBU
 70
     0
 62
     7
  6
CONTINUOUS
370
    18
390
E
347
1000002
348
0
  0
LAYER
  5
8B
330
C
100
AcDbSymbolTableRecord
100
AcDbLayerTableRecord
  2
OTBW
 70
     0
 62
     7
  6
CONTINUOUS
370
    18
390
E
347
1000002
348
0
  0
LAYER
  5
8C
330
C
100
AcDbSymbolTableRecord
100
AcDbLayerTableRecord
  2
OTBY
 70
     0
 62
     7
  6
CONTINUOUS
370
    18
390
E
347
1000002
348
0
  0
LAYER
  5
8D
330
C
100
AcDbSymbolTableRecord
100
AcDbLayerTableRecord
  2
OTBZ
 70
     0
 62
     7
  6
CONTINUOUS
370
    18
390
E
347
1000002
348
0
  0
LAYER
  5
8E
330
C
100
AcDbSymbolTableRecord
100
AcDbLayerTableRecord
  2
OTDA
 70
     0
 62
     7
  6
CONTINUOUS
370
    13
390
E
347
1000002
348
0
  0
LAYER
  5
8F
330
C
100
AcDbSymbolTableRecord
100
AcDbLayerTableRecord
  2
OTDB
 70
     0
 62
     7
  6
CONTINUOUS
370
    13
390
E
347
1000002
348
0
  0
LAYER
  5
90
330
C
100
AcDbSymbolTableRecord
100
AcDbLayerTableRecord
  2
OTDC
 70
     0
 62
     7
  6
CONTINUOUS
370
    18
390
E
347
1000002
348
0
  0
LAYER
  5
91
330
C
100
AcDbSymbolTableRecord
100
AcDbLayerTableRecord
  2
OTDD
 70
     0
 62
     7
  6
CONTINUOUS
370
    18
390
E
347
1000002
348
0
  0
LAYER
  5
92
330
C
100
AcDbSymbolTableRecord
100
AcDbLayerTableRecord
  2
OTDD_P
 70
     0
 62
     7
  6
CONTINUOUS
370
    18
390
E
347
1000002
348
0
  0
LAYER
  5
93
330
C
100
AcDbSymbolTableRecord
100
AcDbLayerTableRecord
  2
OTDF
 70
     0
 62
     7
  6
CONTINUOUS
370
    18
390
E
347
1000002
348
0
  0
LAYER
  5
94
330
C
100
AcDbSymbolTableRecord
100
AcDbLayerTableRecord
  2
OTDI
 70
     0
 62
     7
  6
CONTINUOUS
370
    13
390
E
347
1000002
348
0
  0
LAYER
  5
95
330
C
100
AcDbSymbolTableRecord
100
AcDbLayerTableRecord
  2
OTDI_P
 70
     0
 62
     7
  6
CONTINUOUS
370
    13
390
E
347
1000002
348
0
  0
LAYER
  5
96
330
C
100
AcDbSymbolTableRecord
100
AcDbLayerTableRecord
  2
OTDK
 70
     0
 62
     7
  6
CONTINUOUS
370
    18
390
E
347
1000002
348
0
  0
LAYER
  5
97
330
C
100
AcDbSymbolTableRecord
100
AcDbLayerTableRecord
  2
OTDM
 70
     0
 62
     7
  6
CONTINUOUS
370
    18
390
E
347
1000002
348
0
  0
LAYER
  5
98
330
C
100
AcDbSymbolTableRecord
100
AcDbLayerTableRecord
  2
OTDN
 70
     0
 62
     7
  6
CONTINUOUS
370
    13
390
E
347
1000002
348
0
  0
LAYER
  5
99
330
C
100
AcDbSymbolTableRecord
100
AcDbLayerTableRecord
  2
OTDO
 70
     0
 62
     7
  6
CONTINUOUS
370
    18
390
E
347
1000002
348
0
  0
LAYER
  5
9A
330
C
100
AcDbSymbolTableRecord
100
AcDbLayerTableRecord
  2
OTDR
 70
     0
 62
     7
  6
CONTINUOUS
370
    13
390
E
347
1000002
348
0
  0
LAYER
  5
9B
330
C
100
AcDbSymbolTableRecord
100
AcDbLayerTableRecord
  2
OTDS
 70
     0
 62
     7
  6
CONTINUOUS
370
    18
390
E
347
1000002
348
0
  0
LAYER
  5
9C
330
C
100
AcDbSymbolTableRecord
100
AcDbLayerTableRecord
  2
OTDT_P
 70
     0
 62
     7
  6
CONTINUOUS
370
    18
390
E
347
1000002
348
0
  0
LAYER
  5
9D
330
C
100
AcDbSymbolTableRecord
100
AcDbLayerTableRecord
  2
OTDW
 70
     0
 62
     7
  6
CONTINUOUS
370
    18
390
E
347
1000002
348
0
  0
LAYER
  5
9E
330
C
100
AcDbSymbolTableRecord
100
AcDbLayerTableRecord
  2
OTDZ
 70
     0
 62
     7
  6
CONTINUOUS
370
    18
390
E
347
1000002
348
0
  0
LAYER
  5
9F
330
C
100
AcDbSymbolTableRecord
100
AcDbLayerTableRecord
  2
OTKA
 70
     0
 62
     7
  6
CONTINUOUS
370
    18
390
E
347
1000002
348
0
  0
LAYER
  5
A0
330
C
100
AcDbSymbolTableRecord
100
AcDbLayerTableRecord
  2
OTKB
 70
     0
 62
     7
  6
CONTINUOUS
370
    18
390
E
347
1000002
348
0
  0
LAYER
  5
A1
330
C
100
AcDbSymbolTableRecord
100
AcDbLayerTableRecord
  2
OTKC
 70
     0
 62
     7
  6
CONTINUOUS
370
    13
390
E
347
1000002
348
0
  0
LAYER
  5
A2
330
C
100
AcDbSymbolTableRecord
100
AcDbLayerTableRecord
  2
OTKE
 70
     0
 62
     7
  6
CONTINUOUS
370
    18
390
E
347
1000002
348
0
  0
LAYER
  5
A3
330
C
100
AcDbSymbolTableRecord
100
AcDbLayerTableRecord
  2
OTKG
 70
     0
 62
     7
  6
CONTINUOUS
370
    13
390
E
347
1000002
348
0
  0
LAYER
  5
A4
330
C
100
AcDbSymbolTableRecord
100
AcDbLayerTableRecord
  2
OTKI
 70
     0
 62
     7
  6
CONTINUOUS
370
    18
390
E
347
1000002
348
0
  0
LAYER
  5
A5
330
C
100
AcDbSymbolTableRecord
100
AcDbLayerTableRecord
  2
OTKJ
 70
     0
 62
     7
  6
CONTINUOUS
370
    13
390
E
347
1000002
348
0
  0
LAYER
  5
A6
330
C
100
AcDbSymbolTableRecord
100
AcDbLayerTableRecord
  2
OTKK
 70
     0
 62
     7
  6
CONTINUOUS
370
    13
390
E
347
1000002
348
0
  0
LAYER
  5
A7
330
C
100
AcDbSymbolTableRecord
100
AcDbLayerTableRecord
  2
OTKL
 70
     0
 62
     7
  6
CONTINUOUS
370
    18
390
E
347
1000002
348
0
  0
LAYER
  5
A8
330
C
100
AcDbSymbolTableRecord
100
AcDbLayerTableRecord
  2
OTKM
 70
     0
 62
     7
  6
CONTINUOUS
370
    18
390
E
347
1000002
348
0
  0
LAYER
  5
A9
330
C
100
AcDbSymbolTableRecord
100
AcDbLayerTableRecord
  2
OTKN
 70
     0
 62
     7
  6
CONTINUOUS
370
    18
390
E
347
1000002
348
0
  0
LAYER
  5
AA
330
C
100
AcDbSymbolTableRecord
100
AcDbLayerTableRecord
  2
OTKR
 70
     0
 62
     7
  6
CONTINUOUS
370
    18
390
E
347
1000002
348
0
  0
LAYER
  5
AB
330
C
100
AcDbSymbolTableRecord
100
AcDbLayerTableRecord
  2
OTKS
 70
     0
 62
     7
  6
CONTINUOUS
370
    18
390
E
347
1000002
348
0
  0
LAYER
  5
AC
330
C
100
AcDbSymbolTableRecord
100
AcDbLayerTableRecord
  2
OTKT
 70
     0
 62
     7
  6
CONTINUOUS
370
    18
390
E
347
1000002
348
0
  0
LAYER
  5
AD
330
C
100
AcDbSymbolTableRecord
100
AcDbLayerTableRecord
  2
OTKU
 70
     0
 62
     7
  6
CONTINUOUS
370
    13
390
E
347
1000002
348
0
  0
LAYER
  5
AE
330
C
100
AcDbSymbolTableRecord
100
AcDbLayerTableRecord
  2
OTKW
 70
     0
 62
     7
  6
CONTINUOUS
370
    18
390
E
347
1000002
348
0
  0
LAYER
  5
AF
330
C
100
AcDbSymbolTableRecord
100
AcDbLayerTableRecord
  2
OTKY
 70
     0
 62
     7
  6
CONTINUOUS
370
    18
390
E
347
1000002
348
0
  0
LAYER
  5
B0
330
C
100
AcDbSymbolTableRecord
100
AcDbLayerTableRecord
  2
OTKZ
 70
     0
 62
     7
  6
CONTINUOUS
370
    13
390
E
347
1000002
348
0
  0
LAYER
  5
B1
330
C
100
AcDbSymbolTableRecord
100
AcDbLayerTableRecord
  2
OTOB
 70
     0
 62
     7
  6
CONTINUOUS
370
    13
390
E
347
1000002
348
0
  0
LAYER
  5
B2
330
C
100
AcDbSymbolTableRecord
100
AcDbLayerTableRecord
  2
OTOF
 70
     0
 62
     7
  6
CONTINUOUS
370
    13
390
E
347
1000002
348
0
  0
LAYER
  5
B3
330
C
100
AcDbSymbolTableRecord
100
AcDbLayerTableRecord
  2
OTOO
 70
     0
 62
     7
  6
CONTINUOUS
370
    13
390
E
347
1000002
348
0
  0
LAYER
  5
B4
330
C
100
AcDbSymbolTableRecord
100
AcDbLayerTableRecord
  2
OTRK
 70
     0
 62
     7
  6
CONTINUOUS
370
    18
390
E
347
1000002
348
0
  0
LAYER
  5
B5
330
C
100
AcDbSymbolTableRecord
100
AcDbLayerTableRecord
  2
OTRN
 70
     0
 62
     7
  6
CONTINUOUS
370
    13
390
E
347
1000002
348
0
  0
LAYER
  5
B6
330
C
100
AcDbSymbolTableRecord
100
AcDbLayerTableRecord
  2
OTRS
 70
     0
 62
     7
  6
CONTINUOUS
370
    13
390
E
347
1000002
348
0
  0
LAYER
  5
B7
330
C
100
AcDbSymbolTableRecord
100
AcDbLayerTableRecord
  2
OTRU
 70
     0
 62
     7
  6
CONTINUOUS
370
    18
390
E
347
1000002
348
0
  0
LAYER
  5
B8
330
C
100
AcDbSymbolTableRecord
100
AcDbLayerTableRecord
  2
OTSB
 70
     0
 62
     7
  6
CONTINUOUS
370
    18
390
E
347
1000002
348
0
  0
LAYER
  5
B9
330
C
100
AcDbSymbolTableRecord
100
AcDbLayerTableRecord
  2
OTSI
 70
     0
 62
     7
  6
CONTINUOUS
370
    18
390
E
347
1000002
348
0
  0
LAYER
  5
BA
330
C
100
AcDbSymbolTableRecord
100
AcDbLayerTableRecord
  2
OTSP
 70
     0
 62
     7
  6
CONTINUOUS
370
    18
390
E
347
1000002
348
0
  0
LAYER
  5
BB
330
C
100
AcDbSymbolTableRecord
100
AcDbLayerTableRecord
  2
OTSW
 70
     0
 62
     7
  6
CONTINUOUS
370
    18
390
E
347
1000002
348
0
  0
LAYER
  5
BC
330
C
100
AcDbSymbolTableRecord
100
AcDbLayerTableRecord
  2
OTSZ
 70
     0
 62
     7
  6
CONTINUOUS
370
    13
390
E
347
1000002
348
0
  0
LAYER
  5
BD
330
C
100
AcDbSymbolTableRecord
100
AcDbLayerTableRecord
  2
OTWG
 70
     0
 62
     7
  6
CONTINUOUS
370
    18
390
E
347
1000002
348
0
  0
LAYER
  5
BE
330
C
100
AcDbSymbolTableRecord
100
AcDbLayerTableRecord
  2
OTWI
 70
     0
 62
     7
  6
CONTINUOUS
370
    18
390
E
347
1000002
348
0
  0
LAYER
  5
BF
330
C
100
AcDbSymbolTableRecord
100
AcDbLayerTableRecord
  2
OTWI_P
 70
     0
 62
     7
  6
CONTINUOUS
370
    13
390
E
347
1000002
348
0
  0
LAYER
  5
C0
330
C
100
AcDbSymbolTableRecord
100
AcDbLayerTableRecord
  2
OTWJ
 70
     0
 62
     7
  6
CONTINUOUS
370
    18
390
E
347
1000002
348
0
  0
LAYER
  5
C1
330
C
100
AcDbSymbolTableRecord
100
AcDbLayerTableRecord
  2
OTWL
 70
     0
 62
     7
  6
CONTINUOUS
370
    18
390
E
347
1000002
348
0
  0
LAYER
  5
C2
330
C
100
AcDbSymbolTableRecord
100
AcDbLayerTableRecord
  2
OTWM
 70
     0
 62
     7
  6
CONTINUOUS
370
    18
390
E
347
1000002
348
0
  0
LAYER
  5
C3
330
C
100
AcDbSymbolTableRecord
100
AcDbLayerTableRecord
  2
OTWO
 70
     0
 62
     7
  6
CONTINUOUS
370
    18
390
E
347
1000002
348
0
  0
LAYER
  5
C4
330
C
100
AcDbSymbolTableRecord
100
AcDbLayerTableRecord
  2
OTWP
 70
     0
 62
     7
  6
CONTINUOUS
370
    18
390
E
347
1000002
348
0
  0
LAYER
  5
C5
330
C
100
AcDbSymbolTableRecord
100
AcDbLayerTableRecord
  2
OTWS
 70
     0
 62
     7
  6
CONTINUOUS
370
    13
390
E
347
1000002
348
0
  0
LAYER
  5
C6
330
C
100
AcDbSymbolTableRecord
100
AcDbLayerTableRecord
  2
OTWT
 70
     0
 62
     7
  6
CONTINUOUS
370
    18
390
E
347
1000002
348
0
  0
LAYER
  5
C7
330
C
100
AcDbSymbolTableRecord
100
AcDbLayerTableRecord
  2
OTWW
 70
     0
 62
     7
  6
CONTINUOUS
370
    18
390
E
347
1000002
348
0
  0
LAYER
  5
C8
330
C
100
AcDbSymbolTableRecord
100
AcDbLayerTableRecord
  2
OTWZ
 70
     0
 62
     7
  6
CONTINUOUS
370
    18
390
E
347
1000002
348
0
  0
LAYER
  5
C9
330
C
100
AcDbSymbolTableRecord
100
AcDbLayerTableRecord
  2
OTZC
 70
     0
 62
     7
  6
CONTINUOUS
370
    18
390
E
347
1000002
348
0
  0
LAYER
  5
CA
330
C
100
AcDbSymbolTableRecord
100
AcDbLayerTableRecord
  2
OTZG
 70
     0
 62
     7
  6
CONTINUOUS
370
    13
390
E
347
1000002
348
0
  0
LAYER
  5
CB
330
C
100
AcDbSymbolTableRecord
100
AcDbLayerTableRecord
  2
OTZI
 70
     0
 62
     7
  6
CONTINUOUS
370
    18
390
E
347
1000002
348
0
  0
LAYER
  5
CC
330
C
100
AcDbSymbolTableRecord
100
AcDbLayerTableRecord
  2
OTZI_P
 70
     0
 62
     7
  6
CONTINUOUS
370
    18
390
E
347
1000002
348
0
  0
LAYER
  5
CD
330
C
100
AcDbSymbolTableRecord
100
AcDbLayerTableRecord
  2
OTZK
 70
     0
 62
     7
  6
CONTINUOUS
370
    13
390
E
347
1000002
348
0
  0
LAYER
  5
CE
330
C
100
AcDbSymbolTableRecord
100
AcDbLayerTableRecord
  2
OTZL
 70
     0
 62
     7
  6
CONTINUOUS
370
    13
390
E
347
1000002
348
0
  0
LAYER
  5
CF
330
C
100
AcDbSymbolTableRecord
100
AcDbLayerTableRecord
  2
OTZT
 70
     0
 62
     7
  6
CONTINUOUS
370
    18
390
E
347
1000002
348
0
  0
LAYER
  5
D0
330
C
100
AcDbSymbolTableRecord
100
AcDbLayerTableRecord
  2
OTZZ
 70
     0
 62
     7
  6
CONTINUOUS
370
    13
390
E
347
1000002
348
0
  0
LAYER
  5
D1
330
C
100
AcDbSymbolTableRecord
100
AcDbLayerTableRecord
  2
OT_BlokBudynku
 70
     0
 62
     7
  6
CONTINUOUS
370
    18
390
E
347
1000002
348
0
  0
LAYER
  5
D2
330
C
100
AcDbSymbolTableRecord
100
AcDbLayerTableRecord
  2
OT_Budowle
 70
     0
 62
     7
  6
CONTINUOUS
370
    18
390
E
347
1000002
348
0
  0
LAYER
  5
D3
330
C
100
AcDbSymbolTableRecord
100
AcDbLayerTableRecord
  2
OT_Budowle_P
 70
     0
 62
     7
  6
CONTINUOUS
370
    18
390
E
347
1000002
348
0
  0
LAYER
  5
D4
330
C
100
AcDbSymbolTableRecord
100
AcDbLayerTableRecord
  2
OT_BudynekNiewykazanyWEGIB
 70
     0
 62
     7
  6
CONTINUOUS
370
    18
390
E
347
1000002
348
0
  0
LAYER
  5
D5
330
C
100
AcDbSymbolTableRecord
100
AcDbLayerTableRecord
  2
OT_Komunikacja
 70
     0
 62
     7
  6
CONTINUOUS
370
    18
390
E
347
1000002
348
0
  0
LAYER
  5
D6
330
C
100
AcDbSymbolTableRecord
100
AcDbLayerTableRecord
  2
OT_ObiektTrwaleZwiazanyZBudynkami
 70
     0
 62
     7
  6
CONTINUOUS
370
    18
390
E
347
1000002
348
0
  0
LAYER
  5
D7
330
C
100
AcDbSymbolTableRecord
100
AcDbLayerTableRecord
  2
OT_ObiektTrwaleZwiazanyZBudynkami_P
 70
     0
 62
     7
  6
CONTINUOUS
370
    18
390
E
347
1000002
348
0
  0
LAYER
  5
D8
330
C
100
AcDbSymbolTableRecord
100
AcDbLayerTableRecord
  2
OT_Ogrodzenia
 70
     0
 62
     7
  6
CONTINUOUS
370
    18
390
E
347
1000002
348
0
  0
LAYER
  5
D9
330
C
100
AcDbSymbolTableRecord
100
AcDbLayerTableRecord
  2
OT_Rzedna
 70
     0
 62
     7
  6
CONTINUOUS
370
    18
390
E
347
1000002
348
0
  0
LAYER
  5
DA
330
C
100
AcDbSymbolTableRecord
100
AcDbLayerTableRecord
  2
OT_Skarpa
 70
     0
 62
     7
  6
CONTINUOUS
370
    18
390
E
347
1000002
348
0
  0
LAYER
  5
DB
330
C
100
AcDbSymbolTableRecord
100
AcDbLayerTableRecord
  2
OT_SportIRekreacja
 70
     0
 62
     7
  6
CONTINUOUS
370
    18
390
E
347
1000002
348
0
  0
LAYER
  5
DC
330
C
100
AcDbSymbolTableRecord
100
AcDbLayerTableRecord
  2
OT_Wody
 70
     0
 62
     7
  6
CONTINUOUS
370
    18
390
E
347
1000002
348
0
  0
LAYER
  5
DD
330
C
100
AcDbSymbolTableRecord
100
AcDbLayerTableRecord
  2
OT_Wody_P
 70
     0
 62
     7
  6
CONTINUOUS
370
    18
390
E
347
1000002
348
0
  0
LAYER
  5
DE
330
C
100
AcDbSymbolTableRecord
100
AcDbLayerTableRecord
  2
OT_ZagospodarowanieTerenu
 70
     0
 62
     7
  6
CONTINUOUS
370
    18
390
E
347
1000002
348
0
  0
LAYER
  5
DF
330
C
100
AcDbSymbolTableRecord
100
AcDbLayerTableRecord
  2
OT_ZagospodarowanieTerenu_P
 70
     0
 62
     7
  6
CONTINUOUS
370
    18
390
E
347
1000002
348
0
  0
LAYER
  5
E0
330
C
100
AcDbSymbolTableRecord
100
AcDbLayerTableRecord
  2
PrezentacjaGraficzna
 70
     0
 62
     7
  6
CONTINUOUS
370
    13
390
E
347
1000002
348
0
  0
LAYER
  5
E1
330
C
100
AcDbSymbolTableRecord
100
AcDbLayerTableRecord
  2
PrezentacjaGraficzna_P
 70
     0
 62
     7
  6
CONTINUOUS
370
    18
390
E
347
1000002
348
0
  0
LAYER
  5
E2
330
C
100
AcDbSymbolTableRecord
100
AcDbLayerTableRecord
  2
PRG_Granica
 70
     0
 62
     7
  6
CONTINUOUS
370
    18
390
E
347
1000002
348
0
  0
LAYER
  5
E3
330
C
100
AcDbSymbolTableRecord
100
AcDbLayerTableRecord
  2
PRG_PunktGranicyPanstwa
 70
     0
 62
     7
  6
CONTINUOUS
370
    18
390
E
347
1000002
348
0
  0
LAYER
  5
E4
330
C
100
AcDbSymbolTableRecord
100
AcDbLayerTableRecord
  2
SUCP
 70
     0
 62
     7
  6
CONTINUOUS
370
    18
390
E
347
1000002
348
0
  0
LAYER
  5
E5
330
C
100
AcDbSymbolTableRecord
100
AcDbLayerTableRecord
  2
SUCU
 70
     0
 62
     7
  6
CONTINUOUS
370
    18
390
E
347
1000002
348
0
  0
LAYER
  5
E6
330
C
100
AcDbSymbolTableRecord
100
AcDbLayerTableRecord
  2
SUCU_P
 70
     0
 62
     7
  6
CONTINUOUS
370
    18
390
E
347
1000002
348
0
  0
LAYER
  5
E7
330
C
100
AcDbSymbolTableRecord
100
AcDbLayerTableRecord
  2
SUCW
 70
     0
 62
     7
  6
CONTINUOUS
370
    18
390
E
347
1000002
348
0
  0
LAYER
  5
E8
330
C
100
AcDbSymbolTableRecord
100
AcDbLayerTableRecord
  2
SUEA
 70
     0
 62
     7
  6
CONTINUOUS
370
    18
390
E
347
1000002
348
0
  0
LAYER
  5
E9
330
C
100
AcDbSymbolTableRecord
100
AcDbLayerTableRecord
  2
SUEA_P
 70
     0
 62
     7
  6
CONTINUOUS
370
    18
390
E
347
1000002
348
0
  0
LAYER
  5
EA
330
C
100
AcDbSymbolTableRecord
100
AcDbLayerTableRecord
  2
SUEL
 70
     0
 62
     7
  6
CONTINUOUS
370
    18
390
E
347
1000002
348
0
  0
LAYER
  5
EB
330
C
100
AcDbSymbolTableRecord
100
AcDbLayerTableRecord
  2
SUEM
 70
     0
 62
     7
  6
CONTINUOUS
370
    18
390
E
347
1000002
348
0
  0
LAYER
  5
EC
330
C
100
AcDbSymbolTableRecord
100
AcDbLayerTableRecord
  2
SUEM_P
 70
     0
 62
     7
  6
CONTINUOUS
370
    18
390
E
347
1000002
348
0
  0
LAYER
  5
ED
330
C
100
AcDbSymbolTableRecord
100
AcDbLayerTableRecord
  2
SUEO
 70
     0
 62
     7
  6
CONTINUOUS
370
    13
390
E
347
1000002
348
0
  0
LAYER
  5
EE
330
C
100
AcDbSymbolTableRecord
100
AcDbLayerTableRecord
  2
SUEP
 70
     0
 62
     7
  6
CONTINUOUS
370
    13
390
E
347
1000002
348
0
  0
LAYER
  5
EF
330
C
100
AcDbSymbolTableRecord
100
AcDbLayerTableRecord
  2
SUES
 70
     0
 62
     7
  6
CONTINUOUS
370
    18
390
E
347
1000002
348
0
  0
LAYER
  5
F0
330
C
100
AcDbSymbolTableRecord
100
AcDbLayerTableRecord
  2
SUES_P
 70
     0
 62
     7
  6
CONTINUOUS
370
    18
390
E
347
1000002
348
0
  0
LAYER
  5
F1
330
C
100
AcDbSymbolTableRecord
100
AcDbLayerTableRecord
  2
SUET
 70
     0
 62
     7
  6
CONTINUOUS
370
    18
390
E
347
1000002
348
0
  0
LAYER
  5
F2
330
C
100
AcDbSymbolTableRecord
100
AcDbLayerTableRecord
  2
SUEU
 70
     0
 62
     7
  6
CONTINUOUS
370
    18
390
E
347
1000002
348
0
  0
LAYER
  5
F3
330
C
100
AcDbSymbolTableRecord
100
AcDbLayerTableRecord
  2
SUEU_P
 70
     0
 62
     7
  6
CONTINUOUS
370
    18
390
E
347
1000002
348
0
  0
LAYER
  5
F4
330
C
100
AcDbSymbolTableRecord
100
AcDbLayerTableRecord
  2
SUGN
 70
     0
 62
     7
  6
CONTINUOUS
370
    18
390
E
347
1000002
348
0
  0
LAYER
  5
F5
330
C
100
AcDbSymbolTableRecord
100
AcDbLayerTableRecord
  2
SUGP
 70
     0
 62
     7
  6
CONTINUOUS
370
    18
390
E
347
1000002
348
0
  0
LAYER
  5
F6
330
C
100
AcDbSymbolTableRecord
100
AcDbLayerTableRecord
  2
SUGS
 70
     0
 62
     7
  6
CONTINUOUS
370
    18
390
E
347
1000002
348
0
  0
LAYER
  5
F7
330
C
100
AcDbSymbolTableRecord
100
AcDbLayerTableRecord
  2
SUGS_P
 70
     0
 62
     7
  6
CONTINUOUS
370
    18
390
E
347
1000002
348
0
  0
LAYER
  5
F8
330
C
100
AcDbSymbolTableRecord
100
AcDbLayerTableRecord
  2
SUGU
 70
     0
 62
     7
  6
CONTINUOUS
370
    18
390
E
347
1000002
348
0
  0
LAYER
  5
F9
330
C
100
AcDbSymbolTableRecord
100
AcDbLayerTableRecord
  2
SUGU_P
 70
     0
 62
     7
  6
CONTINUOUS
370
    18
390
E
347
1000002
348
0
  0
LAYER
  5
FA
330
C
100
AcDbSymbolTableRecord
100
AcDbLayerTableRecord
  2
SUGV
 70
     0
 62
     7
  6
CONTINUOUS
370
    18
390
E
347
1000002
348
0
  0
LAYER
  5
FB
330
C
100
AcDbSymbolTableRecord
100
AcDbLayerTableRecord
  2
SUKD
 70
     0
 62
     7
  6
CONTINUOUS
370
    18
390
E
347
1000002
348
0
  0
LAYER
  5
FC
330
C
100
AcDbSymbolTableRecord
100
AcDbLayerTableRecord
  2
SUKE
 70
     0
 62
     7
  6
CONTINUOUS
370
    18
390
E
347
1000002
348
0
  0
LAYER
  5
FD
330
C
100
AcDbSymbolTableRecord
100
AcDbLayerTableRecord
  2
SUKK
 70
     0
 62
     7
  6
CONTINUOUS
370
    13
390
E
347
1000002
348
0
  0
LAYER
  5
FE
330
C
100
AcDbSymbolTableRecord
100
AcDbLayerTableRecord
  2
SUKK_P
 70
     0
 62
     7
  6
CONTINUOUS
370
    18
390
E
347
1000002
348
0
  0
LAYER
  5
FF
330
C
100
AcDbSymbolTableRecord
100
AcDbLayerTableRecord
  2
SUKL
 70
     0
 62
     7
  6
CONTINUOUS
370
    18
390
E
347
1000002
348
0
  0
LAYER
  5
100
330
C
100
AcDbSymbolTableRecord
100
AcDbLayerTableRecord
  2
SUKM
 70
     0
 62
     7
  6
CONTINUOUS
370
    18
390
E
347
1000002
348
0
  0
LAYER
  5
101
330
C
100
AcDbSymbolTableRecord
100
AcDbLayerTableRecord
  2
SUKM_P
 70
     0
 62
     7
  6
CONTINUOUS
370
    13
390
E
347
1000002
348
0
  0
LAYER
  5
102
330
C
100
AcDbSymbolTableRecord
100
AcDbLayerTableRecord
  2
SUKN
 70
     0
 62
     7
  6
CONTINUOUS
370
    18
390
E
347
1000002
348
0
  0
LAYER
  5
103
330
C
100
AcDbSymbolTableRecord
100
AcDbLayerTableRecord
  2
SUKP
 70
     0
 62
     7
  6
CONTINUOUS
370
    13
390
E
347
1000002
348
0
  0
LAYER
  5
104
330
C
100
AcDbSymbolTableRecord
100
AcDbLayerTableRecord
  2
SUKS
 70
     0
 62
     7
  6
CONTINUOUS
370
    13
390
E
347
1000002
348
0
  0
LAYER
  5
105
330
C
100
AcDbSymbolTableRecord
100
AcDbLayerTableRecord
  2
SUKS_P
 70
     0
 62
     7
  6
CONTINUOUS
370
    18
390
E
347
1000002
348
0
  0
LAYER
  5
106
330
C
100
AcDbSymbolTableRecord
100
AcDbLayerTableRecord
  2
SUKU
 70
     0
 62
     7
  6
CONTINUOUS
370
    18
390
E
347
1000002
348
0
  0
LAYER
  5
107
330
C
100
AcDbSymbolTableRecord
100
AcDbLayerTableRecord
  2
SUKU_P
 70
     0
 62
     7
  6
CONTINUOUS
370
    13
390
E
347
1000002
348
0
  0
LAYER
  5
108
330
C
100
AcDbSymbolTableRecord
100
AcDbLayerTableRecord
  2
SUKW
 70
     0
 62
     7
  6
CONTINUOUS
370
    18
390
E
347
1000002
348
0
  0
LAYER
  5
109
330
C
100
AcDbSymbolTableRecord
100
AcDbLayerTableRecord
  2
SULL
 70
     0
 62
     7
  6
CONTINUOUS
370
    18
390
E
347
1000002
348
0
  0
LAYER
  5
10A
330
C
100
AcDbSymbolTableRecord
100
AcDbLayerTableRecord
  2
SUNP
 70
     0
 62
     7
  6
CONTINUOUS
370
    18
390
E
347
1000002
348
0
  0
LAYER
  5
10B
330
C
100
AcDbSymbolTableRecord
100
AcDbLayerTableRecord
  2
SUNU
 70
     0
 62
     7
  6
CONTINUOUS
370
    18
390
E
347
1000002
348
0
  0
LAYER
  5
10C
330
C
100
AcDbSymbolTableRecord
100
AcDbLayerTableRecord
  2
SUNU_P
 70
     0
 62
     7
  6
CONTINUOUS
370
    18
390
E
347
1000002
348
0
  0
LAYER
  5
10D
330
C
100
AcDbSymbolTableRecord
100
AcDbLayerTableRecord
  2
SUPB
 70
     0
 62
     7
  6
CONTINUOUS
370
    18
390
E
347
1000002
348
0
  0
LAYER
  5
10E
330
C
100
AcDbSymbolTableRecord
100
AcDbLayerTableRecord
  2
SUPI_P
 70
     0
 62
     7
  6
CONTINUOUS
370
    18
390
E
347
1000002
348
0
  0
LAYER
  5
10F
330
C
100
AcDbSymbolTableRecord
100
AcDbLayerTableRecord
  2
SUPK
 70
     0
 62
     7
  6
CONTINUOUS
370
    13
390
E
347
1000002
348
0
  0
LAYER
  5
110
330
C
100
AcDbSymbolTableRecord
100
AcDbLayerTableRecord
  2
SUPK_P
 70
     0
 62
     7
  6
CONTINUOUS
370
    13
390
E
347
1000002
348
0
  0
LAYER
  5
111
330
C
100
AcDbSymbolTableRecord
100
AcDbLayerTableRecord
  2
SUPN
 70
     0
 62
     7
  6
CONTINUOUS
370
    18
390
E
347
1000002
348
0
  0
LAYER
  5
112
330
C
100
AcDbSymbolTableRecord
100
AcDbLayerTableRecord
  2
SUPN_P
 70
     0
 62
     7
  6
CONTINUOUS
370
    18
390
E
347
1000002
348
0
  0
LAYER
  5
113
330
C
100
AcDbSymbolTableRecord
100
AcDbLayerTableRecord
  2
SUPP
 70
     0
 62
     7
  6
CONTINUOUS
370
    13
390
E
347
1000002
348
0
  0
LAYER
  5
114
330
C
100
AcDbSymbolTableRecord
100
AcDbLayerTableRecord
  2
SUPP_P
 70
     0
 62
     7
  6
CONTINUOUS
370
    13
390
E
347
1000002
348
0
  0
LAYER
  5
115
330
C
100
AcDbSymbolTableRecord
100
AcDbLayerTableRecord
  2
SUPW_O
 70
     0
 62
     7
  6
CONTINUOUS
370
    13
390
E
347
1000002
348
0
  0
LAYER
  5
116
330
C
100
AcDbSymbolTableRecord
100
AcDbLayerTableRecord
  2
SUPW_P
 70
     0
 62
     7
  6
CONTINUOUS
370
    18
390
E
347
1000002
348
0
  0
LAYER
  5
117
330
C
100
AcDbSymbolTableRecord
100
AcDbLayerTableRecord
  2
SUPY
 70
     0
 62
     7
  6
CONTINUOUS
370
    18
390
E
347
1000002
348
0
  0
LAYER
  5
118
330
C
100
AcDbSymbolTableRecord
100
AcDbLayerTableRecord
  2
SUSP
 70
     0
 62
     7
  6
CONTINUOUS
370
    18
390
E
347
1000002
348
0
  0
LAYER
  5
119
330
C
100
AcDbSymbolTableRecord
100
AcDbLayerTableRecord
  2
SUSU
 70
     0
 62
     7
  6
CONTINUOUS
370
    18
390
E
347
1000002
348
0
  0
LAYER
  5
11A
330
C
100
AcDbSymbolTableRecord
100
AcDbLayerTableRecord
  2
SUSU_P
 70
     0
 62
     7
  6
CONTINUOUS
370
    18
390
E
347
1000002
348
0
  0
LAYER
  5
11B
330
C
100
AcDbSymbolTableRecord
100
AcDbLayerTableRecord
  2
SUTK
 70
     0
 62
     7
  6
CONTINUOUS
370
    13
390
E
347
1000002
348
0
  0
LAYER
  5
11C
330
C
100
AcDbSymbolTableRecord
100
AcDbLayerTableRecord
  2
SUTP
 70
     0
 62
     7
  6
CONTINUOUS
370
    13
390
E
347
1000002
348
0
  0
LAYER
  5
11D
330
C
100
AcDbSymbolTableRecord
100
AcDbLayerTableRecord
  2
SUTS
 70
     0
 62
     7
  6
CONTINUOUS
370
    13
390
E
347
1000002
348
0
  0
LAYER
  5
11E
330
C
100
AcDbSymbolTableRecord
100
AcDbLayerTableRecord
  2
SUTS_P
 70
     0
 62
     7
  6
CONTINUOUS
370
    18
390
E
347
1000002
348
0
  0
LAYER
  5
11F
330
C
100
AcDbSymbolTableRecord
100
AcDbLayerTableRecord
  2
SUTU
 70
     0
 62
     7
  6
CONTINUOUS
370
    18
390
E
347
1000002
348
0
  0
LAYER
  5
120
330
C
100
AcDbSymbolTableRecord
100
AcDbLayerTableRecord
  2
SUTU_P
 70
     0
 62
     7
  6
CONTINUOUS
370
    18
390
E
347
1000002
348
0
  0
LAYER
  5
121
330
C
100
AcDbSymbolTableRecord
100
AcDbLayerTableRecord
  2
SUTW
 70
     0
 62
     7
  6
CONTINUOUS
370
    18
390
E
347
1000002
348
0
  0
LAYER
  5
122
330
C
100
AcDbSymbolTableRecord
100
AcDbLayerTableRecord
  2
SUTW_P
 70
     0
 62
     7
  6
CONTINUOUS
370
    18
390
E
347
1000002
348
0
  0
LAYER
  5
123
330
C
100
AcDbSymbolTableRecord
100
AcDbLayerTableRecord
  2
SUWD
 70
     0
 62
     7
  6
CONTINUOUS
370
    13
390
E
347
1000002
348
0
  0
LAYER
  5
124
330
C
100
AcDbSymbolTableRecord
100
AcDbLayerTableRecord
  2
SUWG
 70
     0
 62
     7
  6
CONTINUOUS
370
    13
390
E
347
1000002
348
0
  0
LAYER
  5
125
330
C
100
AcDbSymbolTableRecord
100
AcDbLayerTableRecord
  2
SUWH
 70
     0
 62
     7
  6
CONTINUOUS
370
    13
390
E
347
1000002
348
0
  0
LAYER
  5
126
330
C
100
AcDbSymbolTableRecord
100
AcDbLayerTableRecord
  2
SUWP
 70
     0
 62
     7
  6
CONTINUOUS
370
    13
390
E
347
1000002
348
0
  0
LAYER
  5
127
330
C
100
AcDbSymbolTableRecord
100
AcDbLayerTableRecord
  2
SUWR
 70
     0
 62
     7
  6
CONTINUOUS
370
    18
390
E
347
1000002
348
0
  0
LAYER
  5
128
330
C
100
AcDbSymbolTableRecord
100
AcDbLayerTableRecord
  2
SUWS
 70
     0
 62
     7
  6
CONTINUOUS
370
    13
390
E
347
1000002
348
0
  0
LAYER
  5
129
330
C
100
AcDbSymbolTableRecord
100
AcDbLayerTableRecord
  2
SUWU
 70
     0
 62
     7
  6
CONTINUOUS
370
    18
390
E
347
1000002
348
0
  0
LAYER
  5
12A
330
C
100
AcDbSymbolTableRecord
100
AcDbLayerTableRecord
  2
SUWU_P
 70
     0
 62
     7
  6
CONTINUOUS
370
    18
390
E
347
1000002
348
0
  0
LAYER
  5
12B
330
C
100
AcDbSymbolTableRecord
100
AcDbLayerTableRecord
  2
SUWW
 70
     0
 62
     7
  6
CONTINUOUS
370
    13
390
E
347
1000002
348
0
  0
LAYER
  5
12C
330
C
100
AcDbSymbolTableRecord
100
AcDbLayerTableRecord
  2
szrafura
 70
     0
 62
    41
  6
CONTINUOUS
370
    18
390
E
347
1000002
348
0
  0
ENDTAB
  0
TABLE
  2
STYLE
  5
12D
330
0
100
AcDbSymbolTable
 70
     2
  0
STYLE
  5
12E
330
12D
100
AcDbSymbolTableRecord
100
AcDbTextStyleTableRecord
  2
STANDARD
 70
     0
 40
0.0
 41
1.0
 50
0.0
 71
     0
 42
0.2
  3
simplex.shx
  4

  0
STYLE
  5
12F
330
12D
100
AcDbSymbolTableRecord
100
AcDbTextStyleTableRecord
  2
STANDARD_ITALIC
 70
     0
 40
0.0
 41
1.0
 50
15.0
 71
     0
 42
0.2
  3
simplex.shx
  4

  0
ENDTAB
  0
TABLE
  2
VIEW
  5
130
330
0
100
AcDbSymbolTable
 70
     0
  0
ENDTAB
  0
TABLE
  2
UCS
  5
131
330
0
100
AcDbSymbolTable
 70
     0
  0
ENDTAB
  0
TABLE
  2
APPID
  5
132
330
0
100
AcDbSymbolTable
 70
     1
  0
APPID
  5
133
330
132
100
AcDbSymbolTableRecord
100
AcDbRegAppTableRecord
  2
ACAD
 70
     0
  0
ENDTAB
  0
TABLE
  2
DIMSTYLE
  5
134
330
0
100
AcDbSymbolTable
 70
     1
100
AcDbDimStyleTable
 71
     0
  0
DIMSTYLE
105
135
330
134
100
AcDbSymbolTableRecord
100
AcDbDimStyleTableRecord
  2
Standard
 70
     0
340
12E
  0
ENDTAB
  0
TABLE
  2
BLOCK_RECORD
  5
136
330
0
100
AcDbSymbolTable
 70
     2
  0
BLOCK_RECORD
  5
137
102
{ACAD_XDICTIONARY
360
1000034
102
}
330
136
100
AcDbSymbolTableRecord
100
AcDbBlockTableRecord
  2
*MODEL_SPACE
340
138
 70
     0
280
     1
281
     0
  0
BLOCK_RECORD
  5
139
330
136
100
AcDbSymbolTableRecord
100
AcDbBlockTableRecord
  2
*PAPER_SPACE
340
13A
 70
     0
280
     1
281
     0
  0
BLOCK_RECORD
  5
13B
330
136
100
AcDbSymbolTableRecord
100
AcDbBlockTableRecord
  2
L_0_02_1
340
0
 70
     0
280
     1
281
     0
  0
BLOCK_RECORD
  5
13D
330
136
100
AcDbSymbolTableRecord
100
AcDbBlockTableRecord
  2
L_0_02_2
340
0
 70
     0
280
     1
281
     0
  0
ENDTAB
  0
ENDSEC
  0
SECTION
  2
BLOCKS
  0
BLOCK
  5
13F
330
137
100
AcDbEntity
  8
0
100
AcDbBlockBegin
  2
*MODEL_SPACE
 70
     0
 10
0.0
 20
0.0
 30
0.0
  3
*MODEL_SPACE
  1

  0
ENDBLK
  5
140
330
137
100
AcDbEntity
  8
0
100
AcDbBlockEnd
  0
BLOCK
  5
141
330
139
100
AcDbEntity
 67
     1
  8
0
100
AcDbBlockBegin
  2
*PAPER_SPACE
 70
     0
 10
0.0
 20
0.0
 30
0.0
  3
*PAPER_SPACE
  1

  0
ENDBLK
  5
142
330
139
100
AcDbEntity
 67
     1
  8
0
100
AcDbBlockEnd
  0
BLOCK
  5
13C
330
13B
100
AcDbEntity
  8
0
 62
     0
370
    13
100
AcDbBlockBegin
  2
L_0_02_1
 70
     0
 10
0.0
 20
0.0
 30
0.0
  3
L_0_02_1
  1

  0
POINT
  5
143
330
13B
100
AcDbEntity
  8
0
 62
     0
100
AcDbPoint
 10
0.0
 20
0.0
 30
0.0
  0
ENDBLK
  5
144
330
13B
100
AcDbEntity
  8
0
100
AcDbBlockEnd
  0
BLOCK
  5
13E
330
13D
100
AcDbEntity
  8
0
 62
     0
370
    13
100
AcDbBlockBegin
  2
L_0_02_2
 70
     0
 10
0.0
 20
0.0
 30
0.0
  3
L_0_02_2
  1

  0
POINT
  5
145
330
13D
100
AcDbEntity
  8
0
 62
     0
100
AcDbPoint
 10
0.0
 20
0.0
 30
0.0
  0
ENDBLK
  5
146
330
13D
100
AcDbEntity
  8
0
100
AcDbBlockEnd
  0
ENDSEC
  0
SECTION
  2
ENTITIES
  0
HATCH
  5
3B5
330
137
100
AcDbEntity
  8
szrafura
  6
Continuous
370
    18
100
AcDbHatch
 10
0.0
 20
0.0
 30
0.0
210
0.0
220
0.0
230
1.0
  2
SOLID
 70
     1
 71
     1
 91
        1
 92
        3
 72
     0
 73
     1
 93
        5
 10
7574121.259999999
 20
5721288.37
 10
7574128.44
 20
5721315.18
 10
7574510.309999999
 20
5721212.38
 10
7574501.79
 20
5721184.690000001
 10
7574278.99
 20
5721245.399999999
 97
        0
 75
     0
 76
     1
 98
        1
 10
0.0
 20
0.0
  0
POINT
  5
3BD
330
137
100
AcDbEntity
  8
0
100
AcDbPoint
 10
7574082.04
 20
5721142.93
 30
0.0
  0
POINT
  5
3BE
330
137
100
AcDbEntity
  8
0
100
AcDbPoint
 10
7574121.259999999
 20
5721288.37
 30
0.0
  0
POINT
  5
3BF
330
137
100
AcDbEntity
  8
0
100
AcDbPoint
 10
7574128.44
 20
5721315.18
 30
0.0
  0
POINT
  5
3C0
330
137
100
AcDbEntity
  8
0
100
AcDbPoint
 10
7574510.309999999
 20
5721212.38
 30
0.0
  0
POINT
  5
3C1
330
137
100
AcDbEntity
  8
0
100
AcDbPoint
 10
7574501.79
 20
5721184.690000001
 30
0.0
  0
POINT
  5
3C2
330
137
100
AcDbEntity
  8
0
100
AcDbPoint
 10
7574278.99
 20
5721245.399999999
 30
0.0
  0
TEXT
  5
3C3
330
137
100
AcDbEntity
  8
czolowki
370
    25
100
AcDbText
 39
0.25
 10
7574121.883523741
 20
5721291.669885703
 30
0.0
 40
5.0
  1
-27.75-
 50
75.00000000000001
 41
0.6600000000000001
 72
     1
 11
7574126.218394921
 21
5721301.408339685
 31
0.0
100
AcDbText
 73
     1
  0
TEXT
  5
3C4
330
137
100
AcDbEntity
  8
czolowki
370
    25
100
AcDbText
 39
0.25
 10
7574307.752002263
 20
5721267.153191901
 30
0.0
 40
5.0
  1
-395.46-
 50
345.0
 41
0.6600000000000001
 72
     1
 11
7574319.008339686
 21
5721262.411605079
 31
0.0
100
AcDbText
 73
     1
  0
TEXT
  5
3C5
330
137
100
AcDbEntity
  8
czolowki
370
    25
100
AcDbText
 39
0.25
 10
7574502.732667435
 20
5721188.539569996
 30
0.0
 40
5.0
  1
-28.97-
 50
72.99999999999998
 41
0.6600000000000001
 72
     1
 11
7574507.404765071
 21
5721198.120806753
 31
0.0
100
AcDbText
 73
     1
  0
TEXT
  5
3C6
330
137
100
AcDbEntity
  8
czolowki
370
    25
100
AcDbText
 39
0.25
 10
7574378.767002262
 20
5721218.418191901
 30
0.0
 40
5.0
  1
-230.92-
 50
345.0
 41
0.6600000000000001
 72
     1
 11
7574390.023339686
 21
5721213.676605079
 31
0.0
100
AcDbText
 73
     1
  0
TEXT
  5
3C7
330
137
100
AcDbEntity
  8
czolowki
370
    25
100
AcDbText
 39
0.25
 10
7574188.805578951
 20
5721270.176848774
 30
0.0
 40
5.0
  1
-163.48-
 50
345.0
 41
0.6600000000000001
 72
     1
 11
7574199.758339686
 21
5721265.516605079
 31
0.0
100
AcDbText
 73
     1
  0
TEXT
  5
3C8
330
137
100
AcDbEntity
  8
nr_dzialek
370
    35
100
AcDbText
 39
0.35
 10
7574328.599999999
 20
5721239.099999998
 30
0.0
 40
7.0
  1
516/1
 41
0.6600000000000001
 11
7574328.599999999
 21
5721236.766666664
 31
0.0
100
AcDbText
 73
     1
  0
TEXT
  5
3C9
330
137
100
AcDbEntity
  8
nr_dzialek
370
    35
100
AcDbText
 39
0.35
 10
7574318.699999999
 20
5721209.899999998
 30
0.0
 40
7.0
  1
516/2
 41
0.6600000000000001
 11
7574318.699999999
 21
5721207.566666664
 31
0.0
100
AcDbText
 73
     1
  0
TEXT
  5
3CA
330
137
100
AcDbEntity
  8
nr_dzialek
370
    35
100
AcDbText
 39
0.35
 10
7574339.399999999
 20
5721260.699999999
 30
0.0
 40
7.0
  1
623
 41
0.6600000000000001
 11
7574339.399999999
 21
5721258.366666666
 31
0.0
100
AcDbText
 73
     1
  0
TEXT
  5
3CB
330
137
100
AcDbEntity
  8
nr_dzialek
370
    35
100
AcDbText
 39
0.35
 10
7574110.799999999
 20
5721323.299999998
 30
0.0
 40
7.0
  1
115
 41
0.6600000000000001
 11
7574110.799999999
 21
5721320.966666665
 31
0.0
100
AcDbText
 73
     1
  0
TEXT
  5
3CC
330
137
100
AcDbEntity
  8
nr_dzialek
370
    35
100
AcDbText
 39
0.35
 10
7574524.099999998
 20
5721202.099999998
 30
0.0
 40
7.0
  1
526
 41
0.6600000000000001
 11
7574524.099999998
 21
5721199.766666664
 31
0.0
100
AcDbText
 73
     1
  0
TEXT
  5
3CD
330
137
100
AcDbEntity
  8
nr_dzialek
370
    20
100
AcDbText
 39
0.2
 10
7574510.199999998
 20
5721212.199999999
 30
0.0
 40
4.0
  1
12172
 41
0.6600000000000001
 11
7574510.199999998
 21
5721210.866666665
 31
0.0
100
AcDbText
 73
     1
  0
TEXT
  5
3CE
330
137
100
AcDbEntity
  8
nr_dzialek
370
    20
100
AcDbText
 39
0.2
 10
7574487.599999998
 20
5721180.099999997
 30
0.0
 40
4.0
  1
12171
 41
0.6600000000000001
 11
7574487.599999998
 21
5721178.766666664
 31
0.0
100
AcDbText
 73
     1
  0
TEXT
  5
3CF
330
137
100
AcDbEntity
  8
nr_dzialek
370
    20
100
AcDbText
 39
0.2
 10
7574266.599999998
 20
5721239.899999998
 30
0.0
 40
4.0
  1
12382
 41
0.6600000000000001
 11
7574266.599999998
 21
5721238.566666665
 31
0.0
100
AcDbText
 73
     1
  0
TEXT
  5
3D0
330
137
100
AcDbEntity
  8
nr_dzialek
370
    20
100
AcDbText
 39
0.2
 10
7574122.739999997
 20
5721288.539999997
 30
0.0
 40
4.0
  1
3890
 41
0.6600000000000001
 11
7574122.739999997
 21
5721287.206666663
 31
0.0
100
AcDbText
 73
     1
  0
TEXT
  5
3D1
330
137
100
AcDbEntity
  8
nr_dzialek
370
    20
100
AcDbText
 39
0.2
 10
7574129.759999996
 20
5721315.389999997
 30
0.0
 40
4.0
  1
3892
 41
0.6600000000000001
 11
7574129.759999996
 21
5721314.056666663
 31
0.0
100
AcDbText
 73
     1
  0
TEXT
  5
3D2
330
137
100
AcDbEntity
  8
obreb
370
    25
100
AcDbText
 39
0.25
 10
7574130.799999998
 20
5721337.399999997
 30
0.0
 40
5.0
  1
0012 Trzcianki
 50
75.00000000000001
 41
0.6600000000000001
 11
7574132.409876376
 21
5721336.968634922
 31
0.0
100
AcDbText
 73
     1
  0
TEXT
  5
3D3
330
137
100
AcDbEntity
  8
obreb
370
    25
100
AcDbText
 39
0.25
 10
7574141.599999999
 20
5721334.999999998
 30
0.0
 40
5.0
  1
0014 Wrzosówka
 50
75.00000000000001
 41
0.6600000000000001
 11
7574143.209876377
 21
5721334.568634923
 31
0.0
100
AcDbText
 73
     1
  0
LINE
  5
100004A
330
137
100
AcDbEntity
  8
ewns_dzialki
  6
Continuous
370
    18
100
AcDbLine
 10
7574541.559999999
 20
5721303.299999999
 30
0.0
 11
7574545.53
 21
5721314.99
 31
0.0
  0
LINE
  5
100004B
330
137
100
AcDbEntity
  8
ewns_dzialki
  6
Continuous
370
    18
100
AcDbLine
 10
7574545.53
 20
5721314.99
 30
0.0
 11
7574794.66
 21
5721347.41
 31
0.0
  0
LINE
  5
100004D
330
137
100
AcDbEntity
  8
ewns_dzialki
  6
Continuous
370
    18
100
AcDbLine
 10
7574796.049999999
 20
5721336.4
 30
0.0
 11
7574541.559999999
 21
5721303.299999999
 31
0.0
  0
LINE
  5
100004E
330
137
100
AcDbEntity
  8
ewns_dzialki
  6
Continuous
370
    18
100
AcDbLine
 10
7574541.559999999
 20
5721303.299999999
 30
0.0
 11
7574796.049999999
 21
5721336.4
 31
0.0
  0
LINE
  5
1000050
330
137
100
AcDbEntity
  8
ewns_dzialki
  6
Continuous
370
    18
100
AcDbLine
 10
7574797.400000001
 20
5721325.57
 30
0.0
 11
7574537.91
 21
5721291.73
 31
0.0
  0
LINE
  5
1000051
330
137
100
AcDbEntity
  8
ewns_dzialki
  6
Continuous
370
    18
100
AcDbLine
 10
7574537.91
 20
5721291.73
 30
0.0
 11
7574540.66
 21
5721300.71
 31
0.0
  0
LINE
  5
1000052
330
137
100
AcDbEntity
  8
ewns_dzialki
  6
Continuous
370
    18
100
AcDbLine
 10
7574540.66
 20
5721300.71
 30
0.0
 11
7574541.559999999
 21
5721303.299999999
 31
0.0
  0
LINE
  5
1000053
330
137
100
AcDbEntity
  8
ewns_dzialki
  6
Continuous
370
    18
100
AcDbLine
 10
7574517.789999999
 20
5721226.45
 30
0.0
 11
7574520.29
 21
5721234.57
 31
0.0
  0
LINE
  5
1000054
330
137
100
AcDbEntity
  8
ewns_dzialki
  6
Continuous
370
    18
100
AcDbLine
 10
7574520.29
 20
5721234.57
 30
0.0
 11
7574804.179999999
 21
5721271.809999999
 31
0.0
  0
LINE
  5
1000056
330
137
100
AcDbEntity
  8
ewns_dzialki
  6
Continuous
370
    18
100
AcDbLine
 10
7574805.139999998
 20
5721264.11
 30
0.0
 11
7574517.789999999
 21
5721226.45
 31
0.0
  0
LINE
  5
1000057
330
137
100
AcDbEntity
  8
ewns_dzialki
  6
Continuous
370
    18
100
AcDbLine
 10
7574517.789999999
 20
5721226.45
 30
0.0
 11
7574805.139999998
 21
5721264.11
 31
0.0
  0
LINE
  5
1000059
330
137
100
AcDbEntity
  8
ewns_dzialki
  6
Continuous
370
    18
100
AcDbLine
 10
7574807.03
 20
5721249.089999999
 30
0.0
 11
7574512.88
 21
5721210.5
 31
0.0
  0
LINE
  5
100005A
330
137
100
AcDbEntity
  8
ewns_dzialki
  6
Continuous
370
    18
100
AcDbLine
 10
7574512.88
 20
5721210.5
 30
0.0
 11
7574517.789999999
 21
5721226.45
 31
0.0
  0
LINE
  5
100005B
330
137
100
AcDbEntity
  8
ewns_dzialki
  6
Continuous
370
    18
100
AcDbLine
 10
7574512.88
 20
5721210.5
 30
0.0
 11
7574807.03
 21
5721249.089999999
 31
0.0
  0
LINE
  5
100005D
330
137
100
AcDbEntity
  8
ewns_dzialki
  6
Continuous
370
    18
100
AcDbLine
 10
7574808.88
 20
5721234.41
 30
0.0
 11
7574508.059999999
 21
5721194.89
 31
0.0
  0
LINE
  5
100005E
330
137
100
AcDbEntity
  8
ewns_dzialki
  6
Continuous
370
    18
100
AcDbLine
 10
7574508.059999999
 20
5721194.89
 30
0.0
 11
7574512.88
 21
5721210.5
 31
0.0
  0
LINE
  5
100005F
330
137
100
AcDbEntity
  8
ewns_dzialki
  6
Continuous
370
    18
100
AcDbLine
 10
7574508.059999999
 20
5721194.89
 30
0.0
 11
7574808.88
 21
5721234.41
 31
0.0
  0
LINE
  5
1000061
330
137
100
AcDbEntity
  8
ewns_dzialki
  6
Continuous
370
    18
100
AcDbLine
 10
7574810.219999999
 20
5721223.79
 30
0.0
 11
7574504.59
 21
5721183.62
 31
0.0
  0
LINE
  5
1000062
330
137
100
AcDbEntity
  8
ewns_dzialki
  6
Continuous
370
    18
100
AcDbLine
 10
7574504.59
 20
5721183.62
 30
0.0
 11
7574508.059999999
 21
5721194.89
 31
0.0
  0
LINE
  5
1000063
330
137
100
AcDbEntity
  8
ewns_dzialki
  6
Continuous
370
    18
100
AcDbLine
 10
7574504.59
 20
5721183.62
 30
0.0
 11
7574810.219999999
 21
5721223.79
 31
0.0
  0
LINE
  5
1000065
330
137
100
AcDbEntity
  8
ewns_dzialki
  6
Continuous
370
    18
100
AcDbLine
 10
7574811.53
 20
5721213.32
 30
0.0
 11
7574501.169999999
 21
5721172.54
 31
0.0
  0
LINE
  5
1000066
330
137
100
AcDbEntity
  8
ewns_dzialki
  6
Continuous
370
    18
100
AcDbLine
 10
7574501.169999999
 20
5721172.54
 30
0.0
 11
7574504.59
 21
5721183.62
 31
0.0
  0
LINE
  5
1000067
330
137
100
AcDbEntity
  8
ewns_dzialki
  6
Continuous
370
    18
100
AcDbLine
 10
7574501.169999999
 20
5721172.54
 30
0.0
 11
7574811.53
 21
5721213.32
 31
0.0
  0
LINE
  5
1000069
330
137
100
AcDbEntity
  8
ewns_dzialki
  6
Continuous
370
    18
100
AcDbLine
 10
7574812.82
 20
5721203.05
 30
0.0
 11
7574497.809999999
 21
5721161.6
 31
0.0
  0
LINE
  5
100006A
330
137
100
AcDbEntity
  8
ewns_dzialki
  6
Continuous
370
    18
100
AcDbLine
 10
7574497.809999999
 20
5721161.6
 30
0.0
 11
7574501.169999999
 21
5721172.54
 31
0.0
  0
LINE
  5
100006B
330
137
100
AcDbEntity
  8
ewns_dzialki
  6
Continuous
370
    18
100
AcDbLine
 10
7574497.809999999
 20
5721161.6
 30
0.0
 11
7574812.82
 21
5721203.05
 31
0.0
  0
LINE
  5
100006D
330
137
100
AcDbEntity
  8
ewns_dzialki
  6
Continuous
370
    18
100
AcDbLine
 10
7574814.099999998
 20
5721192.929999999
 30
0.0
 11
7574494.500000001
 21
5721150.86
 31
0.0
  0
LINE
  5
100006E
330
137
100
AcDbEntity
  8
ewns_dzialki
  6
Continuous
370
    18
100
AcDbLine
 10
7574494.500000001
 20
5721150.86
 30
0.0
 11
7574497.809999999
 21
5721161.6
 31
0.0
  0
LINE
  5
100006F
330
137
100
AcDbEntity
  8
ewns_dzialki
  6
Continuous
370
    18
100
AcDbLine
 10
7574494.500000001
 20
5721150.86
 30
0.0
 11
7574814.099999998
 21
5721192.929999999
 31
0.0
  0
LINE
  5
1000071
330
137
100
AcDbEntity
  8
ewns_dzialki
  6
Continuous
370
    18
100
AcDbLine
 10
7574815.269999999
 20
5721183.71
 30
0.0
 11
7574491.469999999
 21
5721141.02
 31
0.0
  0
LINE
  5
1000072
330
137
100
AcDbEntity
  8
ewns_dzialki
  6
Continuous
370
    18
100
AcDbLine
 10
7574491.469999999
 20
5721141.02
 30
0.0
 11
7574494.500000001
 21
5721150.86
 31
0.0
  0
LINE
  5
1000073
330
137
100
AcDbEntity
  8
ewns_dzialki
  6
Continuous
370
    18
100
AcDbLine
 10
7574483.79
 20
5721113.91
 30
0.0
 11
7574486.3
 21
5721122.86
 31
0.0
  0
LINE
  5
1000074
330
137
100
AcDbEntity
  8
ewns_dzialki
  6
Continuous
370
    18
100
AcDbLine
 10
7574486.3
 20
5721122.86
 30
0.0
 11
7574817.4
 21
5721166.740000001
 31
0.0
  0
LINE
  5
1000076
330
137
100
AcDbEntity
  8
ewns_dzialki
  6
Continuous
370
    18
100
AcDbLine
 10
7574818.45
 20
5721158.41
 30
0.0
 11
7574483.79
 21
5721113.91
 31
0.0
  0
LINE
  5
1000077
330
137
100
AcDbEntity
  8
ewns_dzialki
  6
Continuous
370
    18
100
AcDbLine
 10
7574483.79
 20
5721113.91
 30
0.0
 11
7574818.45
 21
5721158.41
 31
0.0
  0
LINE
  5
1000079
330
137
100
AcDbEntity
  8
ewns_dzialki
  6
Continuous
370
    18
100
AcDbLine
 10
7574819.15
 20
5721152.85
 30
0.0
 11
7574482.109999999
 21
5721107.94
 31
0.0
  0
LINE
  5
100007A
330
137
100
AcDbEntity
  8
ewns_dzialki
  6
Continuous
370
    18
100
AcDbLine
 10
7574482.109999999
 20
5721107.94
 30
0.0
 11
7574483.79
 21
5721113.91
 31
0.0
  0
LINE
  5
100007B
330
137
100
AcDbEntity
  8
ewns_dzialki
  6
Continuous
370
    18
100
AcDbLine
 10
7574482.109999999
 20
5721107.94
 30
0.0
 11
7574819.15
 21
5721152.85
 31
0.0
  0
LINE
  5
100007D
330
137
100
AcDbEntity
  8
ewns_dzialki
  6
Continuous
370
    18
100
AcDbLine
 10
7574819.69
 20
5721148.59
 30
0.0
 11
7574480.829999999
 21
5721103.37
 31
0.0
  0
LINE
  5
100007E
330
137
100
AcDbEntity
  8
ewns_dzialki
  6
Continuous
370
    18
100
AcDbLine
 10
7574480.829999999
 20
5721103.37
 30
0.0
 11
7574482.109999999
 21
5721107.94
 31
0.0
  0
LINE
  5
100007F
330
137
100
AcDbEntity
  8
ewns_dzialki
  6
Continuous
370
    18
100
AcDbLine
 10
7574480.829999999
 20
5721103.37
 30
0.0
 11
7574819.69
 21
5721148.59
 31
0.0
  0
LINE
  5
1000081
330
137
100
AcDbEntity
  8
ewns_dzialki
  6
Continuous
370
    18
100
AcDbLine
 10
7574819.79
 20
5721147.55
 30
0.0
 11
7574480.519999998
 21
5721102.27
 31
0.0
  0
LINE
  5
1000082
330
137
100
AcDbEntity
  8
ewns_dzialki
  6
Continuous
370
    18
100
AcDbLine
 10
7574480.519999998
 20
5721102.27
 30
0.0
 11
7574480.829999999
 21
5721103.37
 31
0.0
  0
LINE
  5
1000083
330
137
100
AcDbEntity
  8
ewns_dzialki
  6
Continuous
370
    18
100
AcDbLine
 10
7574469.86
 20
5721064.31
 30
0.0
 11
7574471.62
 21
5721070.580000001
 31
0.0
  0
LINE
  5
1000084
330
137
100
AcDbEntity
  8
ewns_dzialki
  6
Continuous
370
    18
100
AcDbLine
 10
7574471.62
 20
5721070.580000001
 30
0.0
 11
7574823.570000001
 21
5721117.780000001
 31
0.0
  0
LINE
  5
100008F
330
137
100
AcDbEntity
  8
ewns_dzialki
  6
Continuous
370
    18
100
AcDbLine
 10
7574121.259999999
 20
5721288.37
 30
0.0
 11
7574128.44
 21
5721315.18
 31
0.0
  0
LINE
  5
1000090
330
137
100
AcDbEntity
  8
ewns_dzialki
  6
Continuous
370
    18
100
AcDbLine
 10
7574128.44
 20
5721315.18
 30
0.0
 11
7574510.309999999
 21
5721212.38
 31
0.0
  0
LINE
  5
1000091
330
137
100
AcDbEntity
  8
ewns_dzialki
  6
Continuous
370
    18
100
AcDbLine
 10
7574510.309999999
 20
5721212.38
 30
0.0
 11
7574501.79
 21
5721184.690000001
 31
0.0
  0
LINE
  5
1000092
330
137
100
AcDbEntity
  8
ewns_dzialki
  6
Continuous
370
    18
100
AcDbLine
 10
7574501.79
 20
5721184.690000001
 30
0.0
 11
7574278.99
 21
5721245.399999999
 31
0.0
  0
LINE
  5
1000093
330
137
100
AcDbEntity
  8
ewns_dzialki
  6
Continuous
370
    18
100
AcDbLine
 10
7574278.99
 20
5721245.399999999
 30
0.0
 11
7574121.259999999
 21
5721288.37
 31
0.0
  0
LINE
  5
1000094
330
137
100
AcDbEntity
  8
ewns_dzialki
  6
Continuous
370
    18
100
AcDbLine
 10
7574823.570000001
 20
5721117.780000001
 30
0.0
 11
7574471.62
 21
5721070.580000001
 31
0.0
  0
LINE
  5
1000095
330
137
100
AcDbEntity
  8
ewns_dzialki
  6
Continuous
370
    18
100
AcDbLine
 10
7574471.62
 20
5721070.580000001
 30
0.0
 11
7574473.980000001
 21
5721078.98
 31
0.0
  0
LINE
  5
1000096
330
137
100
AcDbEntity
  8
ewns_dzialki
  6
Continuous
370
    18
100
AcDbLine
 10
7574473.980000001
 20
5721078.98
 30
0.0
 11
7574822.559999999
 21
5721125.769999999
 31
0.0
  0
LINE
  5
1000098
330
137
100
AcDbEntity
  8
ewns_dzialki
  6
Continuous
370
    18
100
AcDbLine
 10
7574480.519999998
 20
5721102.27
 30
0.0
 11
7574819.79
 21
5721147.55
 31
0.0
  0
LINE
  5
100009A
330
137
100
AcDbEntity
  8
ewns_dzialki
  6
Continuous
370
    18
100
AcDbLine
 10
7574820.530000001
 20
5721141.89
 30
0.0
 11
7574478.82
 21
5721096.21
 31
0.0
  0
LINE
  5
100009B
330
137
100
AcDbEntity
  8
ewns_dzialki
  6
Continuous
370
    18
100
AcDbLine
 10
7574478.82
 20
5721096.21
 30
0.0
 11
7574480.519999998
 21
5721102.27
 31
0.0
  0
LINE
  5
100009C
330
137
100
AcDbEntity
  8
ewns_dzialki
  6
Continuous
370
    18
100
AcDbLine
 10
7574822.559999999
 20
5721125.769999999
 30
0.0
 11
7574473.980000001
 21
5721078.98
 31
0.0
  0
LINE
  5
100009D
330
137
100
AcDbEntity
  8
ewns_dzialki
  6
Continuous
370
    18
100
AcDbLine
 10
7574473.980000001
 20
5721078.98
 30
0.0
 11
7574478.82
 21
5721096.21
 31
0.0
  0
LINE
  5
100009E
330
137
100
AcDbEntity
  8
ewns_dzialki
  6
Continuous
370
    18
100
AcDbLine
 10
7574478.82
 20
5721096.21
 30
0.0
 11
7574820.530000001
 21
5721141.89
 31
0.0
  0
LINE
  5
10000A0
330
137
100
AcDbEntity
  8
ewns_dzialki
  6
Continuous
370
    18
100
AcDbLine
 10
7574804.179999999
 20
5721271.809999999
 30
0.0
 11
7574520.29
 21
5721234.57
 31
0.0
  0
LINE
  5
10000A1
330
137
100
AcDbEntity
  8
ewns_dzialki
  6
Continuous
370
    18
100
AcDbLine
 10
7574520.29
 20
5721234.57
 30
0.0
 11
7574522.809999998
 21
5721242.73
 31
0.0
  0
LINE
  5
10000A2
330
137
100
AcDbEntity
  8
ewns_dzialki
  6
Continuous
370
    18
100
AcDbLine
 10
7574522.809999998
 20
5721242.73
 30
0.0
 11
7574803.209999999
 21
5721279.44
 31
0.0
  0
LINE
  5
10000A4
330
137
100
AcDbEntity
  8
ewns_dzialki
  6
Continuous
370
    18
100
AcDbLine
 10
7574491.469999999
 20
5721141.02
 30
0.0
 11
7574815.269999999
 21
5721183.71
 31
0.0
  0
LINE
  5
10000A6
330
137
100
AcDbEntity
  8
ewns_dzialki
  6
Continuous
370
    18
100
AcDbLine
 10
7574816.329999999
 20
5721175.17
 30
0.0
 11
7574488.849999998
 21
5721131.9
 31
0.0
  0
LINE
  5
10000A7
330
137
100
AcDbEntity
  8
ewns_dzialki
  6
Continuous
370
    18
100
AcDbLine
 10
7574488.849999998
 20
5721131.9
 30
0.0
 11
7574490.820000001
 21
5721138.919999999
 31
0.0
  0
LINE
  5
10000A8
330
137
100
AcDbEntity
  8
ewns_dzialki
  6
Continuous
370
    18
100
AcDbLine
 10
7574490.820000001
 20
5721138.919999999
 30
0.0
 11
7574491.469999999
 21
5721141.02
 31
0.0
  0
LINE
  5
10000A9
330
137
100
AcDbEntity
  8
ewns_dzialki
  6
Continuous
370
    18
100
AcDbLine
 10
7574817.4
 20
5721166.740000001
 30
0.0
 11
7574486.3
 21
5721122.86
 31
0.0
  0
LINE
  5
10000AA
330
137
100
AcDbEntity
  8
ewns_dzialki
  6
Continuous
370
    18
100
AcDbLine
 10
7574486.3
 20
5721122.86
 30
0.0
 11
7574488.849999998
 21
5721131.9
 31
0.0
  0
LINE
  5
10000AB
330
137
100
AcDbEntity
  8
ewns_dzialki
  6
Continuous
370
    18
100
AcDbLine
 10
7574488.849999998
 20
5721131.9
 30
0.0
 11
7574816.329999999
 21
5721175.17
 31
0.0
  0
LINE
  5
10000AD
330
137
100
AcDbEntity
  8
ewns_dzialki
  6
Continuous
370
    18
100
AcDbLine
 10
7574510.309999999
 20
5721212.38
 30
0.0
 11
7574128.44
 21
5721315.18
 31
0.0
  0
LINE
  5
10000AE
330
137
100
AcDbEntity
  8
ewns_dzialki
  6
Continuous
370
    18
100
AcDbLine
 10
7574128.44
 20
5721315.18
 30
0.0
 11
7574131.95
 21
5721328.28
 31
0.0
  0
LINE
  5
10000AF
330
137
100
AcDbEntity
  8
ewns_dzialki
  6
Continuous
370
    18
100
AcDbLine
 10
7574131.95
 20
5721328.28
 30
0.0
 11
7574514.34
 21
5721225.41
 31
0.0
  0
LINE
  5
10000B0
330
137
100
AcDbEntity
  8
ewns_dzialki
  6
Continuous
370
    18
100
AcDbLine
 10
7574514.34
 20
5721225.41
 30
0.0
 11
7574510.309999999
 21
5721212.38
 31
0.0
  0
LINE
  5
10000B1
330
137
100
AcDbEntity
  8
ewns_dzialki
  6
Continuous
370
    18
100
AcDbLine
 10
7574514.34
 20
5721225.41
 30
0.0
 11
7574131.95
 21
5721328.28
 31
0.0
  0
LINE
  5
10000B2
330
137
100
AcDbEntity
  8
ewns_dzialki
  6
Continuous
370
    18
100
AcDbLine
 10
7574131.95
 20
5721328.28
 30
0.0
 11
7574143.139999998
 21
5721370.019999999
 31
0.0
  0
LINE
  5
10000B3
330
137
100
AcDbEntity
  8
ewns_dzialki
  6
Continuous
370
    18
100
AcDbLine
 10
7574143.139999998
 20
5721370.019999999
 30
0.0
 11
7574527.259999999
 21
5721267.38
 31
0.0
  0
LINE
  5
10000B4
330
137
100
AcDbEntity
  8
ewns_dzialki
  6
Continuous
370
    18
100
AcDbLine
 10
7574527.259999999
 20
5721267.38
 30
0.0
 11
7574514.34
 21
5721225.41
 31
0.0
  0
LINE
  5
10000B5
330
137
100
AcDbEntity
  8
ewns_dzialki
  6
Continuous
370
    18
100
AcDbLine
 10
7574553.320000001
 20
5721347.19
 30
0.0
 11
7574548.929999999
 21
5721334.309999999
 31
0.0
  0
LINE
  5
10000B6
330
137
100
AcDbEntity
  8
ewns_dzialki
  6
Continuous
370
    18
100
AcDbLine
 10
7574548.929999999
 20
5721334.309999999
 30
0.0
 11
7574161.269999998
 21
5721437.7
 31
0.0
  0
LINE
  5
10000BE
330
137
100
AcDbEntity
  8
ewns_dzialki
  6
Continuous
370
    18
100
AcDbLine
 10
7574527.259999999
 20
5721267.38
 30
0.0
 11
7574143.139999998
 21
5721370.019999999
 31
0.0
  0
LINE
  5
10000BF
330
137
100
AcDbEntity
  8
ewns_dzialki
  6
Continuous
370
    18
100
AcDbLine
 10
7574143.139999998
 20
5721370.019999999
 30
0.0
 11
7574150.429999999
 21
5721397.259999999
 31
0.0
  0
LINE
  5
10000C0
330
137
100
AcDbEntity
  8
ewns_dzialki
  6
Continuous
370
    18
100
AcDbLine
 10
7574150.429999999
 20
5721397.259999999
 30
0.0
 11
7574226.889999998
 21
5721376.719999999
 31
0.0
  0
LINE
  5
10000C1
330
137
100
AcDbEntity
  8
ewns_dzialki
  6
Continuous
370
    18
100
AcDbLine
 10
7574226.889999998
 20
5721376.719999999
 30
0.0
 11
7574535.400000001
 21
5721293.82
 31
0.0
  0
LINE
  5
10000C2
330
137
100
AcDbEntity
  8
ewns_dzialki
  6
Continuous
370
    18
100
AcDbLine
 10
7574535.400000001
 20
5721293.82
 30
0.0
 11
7574527.259999999
 21
5721267.38
 31
0.0
  0
LINE
  5
10000C3
330
137
100
AcDbEntity
  8
ewns_dzialki
  6
Continuous
370
    18
100
AcDbLine
 10
7574161.269999998
 20
5721437.7
 30
0.0
 11
7574548.929999999
 21
5721334.309999999
 31
0.0
  0
LINE
  5
10000C4
330
137
100
AcDbEntity
  8
ewns_dzialki
  6
Continuous
370
    18
100
AcDbLine
 10
7574548.929999999
 20
5721334.309999999
 30
0.0
 11
7574537.8
 21
5721301.59
 31
0.0
  0
LINE
  5
10000C5
330
137
100
AcDbEntity
  8
ewns_dzialki
  6
Continuous
370
    18
100
AcDbLine
 10
7574537.8
 20
5721301.59
 30
0.0
 11
7574535.400000001
 21
5721293.82
 31
0.0
  0
LINE
  5
10000C6
330
137
100
AcDbEntity
  8
ewns_dzialki
  6
Continuous
370
    18
100
AcDbLine
 10
7574535.400000001
 20
5721293.82
 30
0.0
 11
7574226.889999998
 21
5721376.719999999
 31
0.0
  0
LINE
  5
10000C7
330
137
100
AcDbEntity
  8
ewns_dzialki
  6
Continuous
370
    18
100
AcDbLine
 10
7574226.889999998
 20
5721376.719999999
 30
0.0
 11
7574150.429999999
 21
5721397.259999999
 31
0.0
  0
LINE
  5
10000C8
330
137
100
AcDbEntity
  8
ewns_dzialki
  6
Continuous
370
    18
100
AcDbLine
 10
7574150.429999999
 20
5721397.259999999
 30
0.0
 11
7574161.269999998
 21
5721437.7
 31
0.0
  0
LINE
  5
10000CA
330
137
100
AcDbEntity
  8
ewns_dzialki
  6
Continuous
370
    18
100
AcDbLine
 10
7574803.209999999
 20
5721279.44
 30
0.0
 11
7574522.809999998
 21
5721242.73
 31
0.0
  0
LINE
  5
10000CB
330
137
100
AcDbEntity
  8
ewns_dzialki
  6
Continuous
370
    18
100
AcDbLine
 10
7574522.809999998
 20
5721242.73
 30
0.0
 11
7574526.730000001
 21
5721255.48
 31
0.0
  0
LINE
  5
10000CC
330
137
100
AcDbEntity
  8
ewns_dzialki
  6
Continuous
370
    18
100
AcDbLine
 10
7574526.730000001
 20
5721255.48
 30
0.0
 11
7574603.09
 21
5721265.469999999
 31
0.0
  0
LINE
  5
10000CD
330
137
100
AcDbEntity
  8
ewns_dzialki
  6
Continuous
370
    18
100
AcDbLine
 10
7574603.09
 20
5721265.469999999
 30
0.0
 11
7574801.7
 21
5721291.449999999
 31
0.0
  0
LINE
  5
10000CF
330
137
100
AcDbEntity
  8
ewns_dzialki
  6
Continuous
370
    18
100
AcDbLine
 10
7574801.7
 20
5721291.449999999
 30
0.0
 11
7574603.09
 21
5721265.469999999
 31
0.0
  0
LINE
  5
10000D0
330
137
100
AcDbEntity
  8
ewns_dzialki
  6
Continuous
370
    18
100
AcDbLine
 10
7574603.09
 20
5721265.469999999
 30
0.0
 11
7574606.049999999
 21
5721278.18
 31
0.0
  0
LINE
  5
10000D1
330
137
100
AcDbEntity
  8
ewns_dzialki
  6
Continuous
370
    18
100
AcDbLine
 10
7574606.049999999
 20
5721278.18
 30
0.0
 11
7574800.179999998
 21
5721303.55
 31
0.0
  0
LINE
  5
10000D5
330
137
100
AcDbEntity
  8
ewns_dzialki
  6
Continuous
370
    18
100
AcDbLine
 10
7574549.59
 20
5721326.91
 30
0.0
 11
7574553.709999999
 21
5721339.02
 31
0.0
  0
LINE
  5
10000D6
330
137
100
AcDbEntity
  8
ewns_dzialki
  6
Continuous
370
    18
100
AcDbLine
 10
7574794.66
 20
5721347.41
 30
0.0
 11
7574545.53
 21
5721314.99
 31
0.0
  0
LINE
  5
10000D7
330
137
100
AcDbEntity
  8
ewns_dzialki
  6
Continuous
370
    18
100
AcDbLine
 10
7574545.53
 20
5721314.99
 30
0.0
 11
7574549.59
 21
5721326.91
 31
0.0
  0
LINE
  5
10000DA
330
137
100
AcDbEntity
  8
ewns_dzialki
  6
Continuous
370
    18
100
AcDbLine
 10
7574537.91
 20
5721291.73
 30
0.0
 11
7574797.400000001
 21
5721325.57
 31
0.0
  0
LINE
  5
10000DC
330
137
100
AcDbEntity
  8
ewns_dzialki
  6
Continuous
370
    18
100
AcDbLine
 10
7574800.179999998
 20
5721303.55
 30
0.0
 11
7574606.049999999
 21
5721278.18
 31
0.0
  0
LINE
  5
10000DD
330
137
100
AcDbEntity
  8
ewns_dzialki
  6
Continuous
370
    18
100
AcDbLine
 10
7574606.049999999
 20
5721278.18
 30
0.0
 11
7574530.69
 21
5721268.33
 31
0.0
  0
LINE
  5
10000DE
330
137
100
AcDbEntity
  8
ewns_dzialki
  6
Continuous
370
    18
100
AcDbLine
 10
7574530.69
 20
5721268.33
 30
0.0
 11
7574537.91
 21
5721291.73
 31
0.0
  0
LINE
  5
10000DF
330
137
100
AcDbEntity
  8
ewns_dzialki
  6
Continuous
370
    18
100
AcDbLine
 10
7574603.09
 20
5721265.469999999
 30
0.0
 11
7574526.730000001
 21
5721255.48
 31
0.0
  0
LINE
  5
10000E0
330
137
100
AcDbEntity
  8
ewns_dzialki
  6
Continuous
370
    18
100
AcDbLine
 10
7574526.730000001
 20
5721255.48
 30
0.0
 11
7574530.69
 21
5721268.33
 31
0.0
  0
LINE
  5
10000E1
330
137
100
AcDbEntity
  8
ewns_dzialki
  6
Continuous
370
    18
100
AcDbLine
 10
7574530.69
 20
5721268.33
 30
0.0
 11
7574606.049999999
 21
5721278.18
 31
0.0
  0
LINE
  5
10000E2
330
137
100
AcDbEntity
  8
ewns_dzialki
  6
Continuous
370
    18
100
AcDbLine
 10
7574606.049999999
 20
5721278.18
 30
0.0
 11
7574603.09
 21
5721265.469999999
 31
0.0
  0
LINE
  5
10000EA
330
137
100
AcDbEntity
  8
ewns_dzialki
  6
Continuous
370
    18
100
AcDbLine
 10
7574100.69
 20
5721602.589999999
 30
0.0
 11
7574015.99
 21
5721286.55
 31
0.0
  0
LINE
  5
10000EC
330
137
100
AcDbEntity
  8
ewns_dzialki
  6
Continuous
370
    18
100
AcDbLine
 10
7574015.99
 20
5721286.55
 30
0.0
 11
7574100.69
 21
5721602.589999999
 31
0.0
  0
LINE
  5
10000EF
330
137
100
AcDbEntity
  8
ewns_dzialki
  6
Continuous
370
    18
100
AcDbLine
 10
7574135.480000001
 20
5721542.88
 30
0.0
 11
7574064.45
 21
5721277.28
 31
0.0
  0
LINE
  5
10000F0
330
137
100
AcDbEntity
  8
ewns_dzialki
  6
Continuous
370
    18
100
AcDbLine
 10
7574064.45
 20
5721277.28
 30
0.0
 11
7574015.99
 21
5721286.55
 31
0.0
  0
LINE
  5
10000F1
330
137
100
AcDbEntity
  8
ewns_dzialki
  6
Continuous
370
    18
100
AcDbLine
 10
7574064.45
 20
5721277.28
 30
0.0
 11
7574135.480000001
 21
5721542.88
 31
0.0
  0
LINE
  5
10000F3
330
137
100
AcDbEntity
  8
ewns_dzialki
  6
Continuous
370
    18
100
AcDbLine
 10
7574160.519999999
 20
5721538.06
 30
0.0
 11
7574089.469999998
 21
5721272.49
 31
0.0
  0
LINE
  5
10000F4
330
137
100
AcDbEntity
  8
ewns_dzialki
  6
Continuous
370
    18
100
AcDbLine
 10
7574089.469999998
 20
5721272.49
 30
0.0
 11
7574064.45
 21
5721277.28
 31
0.0
  0
LINE
  5
10000F8
330
137
100
AcDbEntity
  8
ewns_dzialki
  6
Continuous
370
    18
100
AcDbLine
 10
7574161.269999998
 20
5721437.7
 30
0.0
 11
7574150.429999999
 21
5721397.259999999
 31
0.0
  0
LINE
  5
10000F9
330
137
100
AcDbEntity
  8
ewns_dzialki
  6
Continuous
370
    18
100
AcDbLine
 10
7574150.429999999
 20
5721397.259999999
 30
0.0
 11
7574143.139999998
 21
5721370.019999999
 31
0.0
  0
LINE
  5
10000FA
330
137
100
AcDbEntity
  8
ewns_dzialki
  6
Continuous
370
    18
100
AcDbLine
 10
7574143.139999998
 20
5721370.019999999
 30
0.0
 11
7574131.95
 21
5721328.28
 31
0.0
  0
LINE
  5
10000FB
330
137
100
AcDbEntity
  8
ewns_dzialki
  6
Continuous
370
    18
100
AcDbLine
 10
7574131.95
 20
5721328.28
 30
0.0
 11
7574128.44
 21
5721315.18
 31
0.0
  0
LINE
  5
10000FC
330
137
100
AcDbEntity
  8
ewns_dzialki
  6
Continuous
370
    18
100
AcDbLine
 10
7574128.44
 20
5721315.18
 30
0.0
 11
7574121.259999999
 21
5721288.37
 31
0.0
  0
LINE
  5
10000FD
330
137
100
AcDbEntity
  8
ewns_dzialki
  6
Continuous
370
    18
100
AcDbLine
 10
7574121.259999999
 20
5721288.37
 30
0.0
 11
7574115.67
 21
5721267.49
 31
0.0
  0
LINE
  5
10000FE
330
137
100
AcDbEntity
  8
ewns_dzialki
  6
Continuous
370
    18
100
AcDbLine
 10
7574115.67
 20
5721267.49
 30
0.0
 11
7574089.469999998
 21
5721272.49
 31
0.0
  0
LINE
  5
10000FF
330
137
100
AcDbEntity
  8
ewns_dzialki
  6
Continuous
370
    18
100
AcDbLine
 10
7574089.469999998
 20
5721272.49
 30
0.0
 11
7574160.519999999
 21
5721538.06
 31
0.0
  0
LINE
  5
1000102
330
137
100
AcDbEntity
  8
ewns_dzialki
  6
Continuous
370
    18
100
AcDbLine
 10
7574467.49
 20
5721067.01
 30
0.0
 11
7574456.089999999
 21
5721026.429999999
 31
0.0
  0
LINE
  5
1000104
330
137
100
AcDbEntity
  8
ewns_dzialki
  6
Continuous
370
    18
100
AcDbLine
 10
7574078.88
 20
5721130.679999999
 30
0.0
 11
7574082.03
 21
5721142.94
 31
0.0
  0
LINE
  5
1000105
330
137
100
AcDbEntity
  8
ewns_dzialki
  6
Continuous
370
    18
100
AcDbLine
 10
7574082.03
 20
5721142.94
 30
0.0
 11
7574090.309999998
 21
5721173.599999999
 31
0.0
  0
LINE
  5
1000120
330
137
100
AcDbEntity
  8
ewns_dzialki
  6
Continuous
370
    18
100
AcDbLine
 10
7574553.709999999
 20
5721339.02
 30
0.0
 11
7574549.59
 21
5721326.91
 31
0.0
  0
LINE
  5
1000121
330
137
100
AcDbEntity
  8
ewns_dzialki
  6
Continuous
370
    18
100
AcDbLine
 10
7574549.59
 20
5721326.91
 30
0.0
 11
7574545.53
 21
5721314.99
 31
0.0
  0
LINE
  5
1000122
330
137
100
AcDbEntity
  8
ewns_dzialki
  6
Continuous
370
    18
100
AcDbLine
 10
7574545.53
 20
5721314.99
 30
0.0
 11
7574541.559999999
 21
5721303.299999999
 31
0.0
  0
LINE
  5
1000123
330
137
100
AcDbEntity
  8
ewns_dzialki
  6
Continuous
370
    18
100
AcDbLine
 10
7574541.559999999
 20
5721303.299999999
 30
0.0
 11
7574540.66
 21
5721300.71
 31
0.0
  0
LINE
  5
1000124
330
137
100
AcDbEntity
  8
ewns_dzialki
  6
Continuous
370
    18
100
AcDbLine
 10
7574540.66
 20
5721300.71
 30
0.0
 11
7574537.91
 21
5721291.73
 31
0.0
  0
LINE
  5
1000125
330
137
100
AcDbEntity
  8
ewns_dzialki
  6
Continuous
370
    18
100
AcDbLine
 10
7574537.91
 20
5721291.73
 30
0.0
 11
7574530.69
 21
5721268.33
 31
0.0
  0
LINE
  5
1000126
330
137
100
AcDbEntity
  8
ewns_dzialki
  6
Continuous
370
    18
100
AcDbLine
 10
7574530.69
 20
5721268.33
 30
0.0
 11
7574526.730000001
 21
5721255.48
 31
0.0
  0
LINE
  5
1000127
330
137
100
AcDbEntity
  8
ewns_dzialki
  6
Continuous
370
    18
100
AcDbLine
 10
7574526.730000001
 20
5721255.48
 30
0.0
 11
7574522.809999998
 21
5721242.73
 31
0.0
  0
LINE
  5
1000128
330
137
100
AcDbEntity
  8
ewns_dzialki
  6
Continuous
370
    18
100
AcDbLine
 10
7574522.809999998
 20
5721242.73
 30
0.0
 11
7574520.29
 21
5721234.57
 31
0.0
  0
LINE
  5
1000129
330
137
100
AcDbEntity
  8
ewns_dzialki
  6
Continuous
370
    18
100
AcDbLine
 10
7574520.29
 20
5721234.57
 30
0.0
 11
7574517.789999999
 21
5721226.45
 31
0.0
  0
LINE
  5
100012A
330
137
100
AcDbEntity
  8
ewns_dzialki
  6
Continuous
370
    18
100
AcDbLine
 10
7574517.789999999
 20
5721226.45
 30
0.0
 11
7574512.88
 21
5721210.5
 31
0.0
  0
LINE
  5
100012B
330
137
100
AcDbEntity
  8
ewns_dzialki
  6
Continuous
370
    18
100
AcDbLine
 10
7574512.88
 20
5721210.5
 30
0.0
 11
7574508.059999999
 21
5721194.89
 31
0.0
  0
LINE
  5
100012C
330
137
100
AcDbEntity
  8
ewns_dzialki
  6
Continuous
370
    18
100
AcDbLine
 10
7574508.059999999
 20
5721194.89
 30
0.0
 11
7574504.59
 21
5721183.62
 31
0.0
  0
LINE
  5
100012D
330
137
100
AcDbEntity
  8
ewns_dzialki
  6
Continuous
370
    18
100
AcDbLine
 10
7574504.59
 20
5721183.62
 30
0.0
 11
7574501.169999999
 21
5721172.54
 31
0.0
  0
LINE
  5
100012E
330
137
100
AcDbEntity
  8
ewns_dzialki
  6
Continuous
370
    18
100
AcDbLine
 10
7574501.169999999
 20
5721172.54
 30
0.0
 11
7574497.809999999
 21
5721161.6
 31
0.0
  0
LINE
  5
100012F
330
137
100
AcDbEntity
  8
ewns_dzialki
  6
Continuous
370
    18
100
AcDbLine
 10
7574497.809999999
 20
5721161.6
 30
0.0
 11
7574494.500000001
 21
5721150.86
 31
0.0
  0
LINE
  5
1000130
330
137
100
AcDbEntity
  8
ewns_dzialki
  6
Continuous
370
    18
100
AcDbLine
 10
7574494.500000001
 20
5721150.86
 30
0.0
 11
7574491.469999999
 21
5721141.02
 31
0.0
  0
LINE
  5
1000131
330
137
100
AcDbEntity
  8
ewns_dzialki
  6
Continuous
370
    18
100
AcDbLine
 10
7574491.469999999
 20
5721141.02
 30
0.0
 11
7574490.820000001
 21
5721138.919999999
 31
0.0
  0
LINE
  5
1000132
330
137
100
AcDbEntity
  8
ewns_dzialki
  6
Continuous
370
    18
100
AcDbLine
 10
7574490.820000001
 20
5721138.919999999
 30
0.0
 11
7574488.849999998
 21
5721131.9
 31
0.0
  0
LINE
  5
1000133
330
137
100
AcDbEntity
  8
ewns_dzialki
  6
Continuous
370
    18
100
AcDbLine
 10
7574488.849999998
 20
5721131.9
 30
0.0
 11
7574486.3
 21
5721122.86
 31
0.0
  0
LINE
  5
1000134
330
137
100
AcDbEntity
  8
ewns_dzialki
  6
Continuous
370
    18
100
AcDbLine
 10
7574486.3
 20
5721122.86
 30
0.0
 11
7574483.79
 21
5721113.91
 31
0.0
  0
LINE
  5
1000135
330
137
100
AcDbEntity
  8
ewns_dzialki
  6
Continuous
370
    18
100
AcDbLine
 10
7574483.79
 20
5721113.91
 30
0.0
 11
7574482.109999999
 21
5721107.94
 31
0.0
  0
LINE
  5
1000136
330
137
100
AcDbEntity
  8
ewns_dzialki
  6
Continuous
370
    18
100
AcDbLine
 10
7574482.109999999
 20
5721107.94
 30
0.0
 11
7574480.829999999
 21
5721103.37
 31
0.0
  0
LINE
  5
1000137
330
137
100
AcDbEntity
  8
ewns_dzialki
  6
Continuous
370
    18
100
AcDbLine
 10
7574480.829999999
 20
5721103.37
 30
0.0
 11
7574480.519999998
 21
5721102.27
 31
0.0
  0
LINE
  5
1000138
330
137
100
AcDbEntity
  8
ewns_dzialki
  6
Continuous
370
    18
100
AcDbLine
 10
7574480.519999998
 20
5721102.27
 30
0.0
 11
7574478.82
 21
5721096.21
 31
0.0
  0
LINE
  5
1000139
330
137
100
AcDbEntity
  8
ewns_dzialki
  6
Continuous
370
    18
100
AcDbLine
 10
7574478.82
 20
5721096.21
 30
0.0
 11
7574473.980000001
 21
5721078.98
 31
0.0
  0
LINE
  5
100013A
330
137
100
AcDbEntity
  8
ewns_dzialki
  6
Continuous
370
    18
100
AcDbLine
 10
7574473.980000001
 20
5721078.98
 30
0.0
 11
7574471.62
 21
5721070.580000001
 31
0.0
  0
LINE
  5
100013B
330
137
100
AcDbEntity
  8
ewns_dzialki
  6
Continuous
370
    18
100
AcDbLine
 10
7574471.62
 20
5721070.580000001
 30
0.0
 11
7574469.86
 21
5721064.31
 31
0.0
  0
LINE
  5
100013C
330
137
100
AcDbEntity
  8
ewns_dzialki
  6
Continuous
370
    18
100
AcDbLine
 10
7574469.86
 20
5721064.31
 30
0.0
 11
7574468.099999998
 21
5721058.06
 31
0.0
  0
LINE
  5
100013D
330
137
100
AcDbEntity
  8
ewns_dzialki
  6
Continuous
370
    18
100
AcDbLine
 10
7574468.099999998
 20
5721058.06
 30
0.0
 11
7574458.739999999
 21
5721024.73
 31
0.0
  0
LINE
  5
100013E
330
137
100
AcDbEntity
  8
ewns_dzialki
  6
Continuous
370
    18
100
AcDbLine
 10
7574458.739999999
 20
5721024.73
 30
0.0
 11
7574455.88
 21
5721014.549999999
 31
0.0
  0
LINE
  5
100013F
330
137
100
AcDbEntity
  8
ewns_dzialki
  6
Continuous
370
    18
100
AcDbLine
 10
7574455.88
 20
5721014.549999999
 30
0.0
 11
7574452.179999999
 21
5721012.51
 31
0.0
  0
LINE
  5
1000140
330
137
100
AcDbEntity
  8
ewns_dzialki
  6
Continuous
370
    18
100
AcDbLine
 10
7574452.179999999
 20
5721012.51
 30
0.0
 11
7574455.84
 21
5721025.55
 31
0.0
  0
LINE
  5
1000141
330
137
100
AcDbEntity
  8
ewns_dzialki
  6
Continuous
370
    18
100
AcDbLine
 10
7574455.84
 20
5721025.55
 30
0.0
 11
7574456.089999999
 21
5721026.429999999
 31
0.0
  0
LINE
  5
1000142
330
137
100
AcDbEntity
  8
ewns_dzialki
  6
Continuous
370
    18
100
AcDbLine
 10
7574456.089999999
 20
5721026.429999999
 30
0.0
 11
7574467.49
 21
5721067.01
 31
0.0
  0
LINE
  5
1000143
330
137
100
AcDbEntity
  8
ewns_dzialki
  6
Continuous
370
    18
100
AcDbLine
 10
7574467.49
 20
5721067.01
 30
0.0
 11
7574469.34
 21
5721073.539999999
 31
0.0
  0
LINE
  5
1000144
330
137
100
AcDbEntity
  8
ewns_dzialki
  6
Continuous
370
    18
100
AcDbLine
 10
7574469.34
 20
5721073.539999999
 30
0.0
 11
7574473.12
 21
5721087.019999999
 31
0.0
  0
LINE
  5
1000145
330
137
100
AcDbEntity
  8
ewns_dzialki
  6
Continuous
370
    18
100
AcDbLine
 10
7574473.12
 20
5721087.019999999
 30
0.0
 11
7574474.990000001
 21
5721093.64
 31
0.0
  0
LINE
  5
1000146
330
137
100
AcDbEntity
  8
ewns_dzialki
  6
Continuous
370
    18
100
AcDbLine
 10
7574474.990000001
 20
5721093.64
 30
0.0
 11
7574480.099999999
 21
5721111.839999999
 31
0.0
  0
LINE
  5
1000147
330
137
100
AcDbEntity
  8
ewns_dzialki
  6
Continuous
370
    18
100
AcDbLine
 10
7574480.099999999
 20
5721111.839999999
 30
0.0
 11
7574485.059999999
 21
5721129.48
 31
0.0
  0
LINE
  5
1000148
330
137
100
AcDbEntity
  8
ewns_dzialki
  6
Continuous
370
    18
100
AcDbLine
 10
7574485.059999999
 20
5721129.48
 30
0.0
 11
7574487.94
 21
5721139.73
 31
0.0
  0
LINE
  5
1000149
330
137
100
AcDbEntity
  8
ewns_dzialki
  6
Continuous
370
    18
100
AcDbLine
 10
7574487.94
 20
5721139.73
 30
0.0
 11
7574493.13
 21
5721156.59
 31
0.0
  0
LINE
  5
100014A
330
137
100
AcDbEntity
  8
ewns_dzialki
  6
Continuous
370
    18
100
AcDbLine
 10
7574493.13
 20
5721156.59
 30
0.0
 11
7574501.79
 21
5721184.690000001
 31
0.0
  0
LINE
  5
100014B
330
137
100
AcDbEntity
  8
ewns_dzialki
  6
Continuous
370
    18
100
AcDbLine
 10
7574501.79
 20
5721184.690000001
 30
0.0
 11
7574510.309999999
 21
5721212.38
 31
0.0
  0
LINE
  5
100014C
330
137
100
AcDbEntity
  8
ewns_dzialki
  6
Continuous
370
    18
100
AcDbLine
 10
7574510.309999999
 20
5721212.38
 30
0.0
 11
7574514.34
 21
5721225.41
 31
0.0
  0
LINE
  5
100014D
330
137
100
AcDbEntity
  8
ewns_dzialki
  6
Continuous
370
    18
100
AcDbLine
 10
7574514.34
 20
5721225.41
 30
0.0
 11
7574527.259999999
 21
5721267.38
 31
0.0
  0
LINE
  5
100014E
330
137
100
AcDbEntity
  8
ewns_dzialki
  6
Continuous
370
    18
100
AcDbLine
 10
7574527.259999999
 20
5721267.38
 30
0.0
 11
7574535.400000001
 21
5721293.82
 31
0.0
  0
LINE
  5
100014F
330
137
100
AcDbEntity
  8
ewns_dzialki
  6
Continuous
370
    18
100
AcDbLine
 10
7574535.400000001
 20
5721293.82
 30
0.0
 11
7574537.8
 21
5721301.59
 31
0.0
  0
LINE
  5
1000150
330
137
100
AcDbEntity
  8
ewns_dzialki
  6
Continuous
370
    18
100
AcDbLine
 10
7574537.8
 20
5721301.59
 30
0.0
 11
7574548.929999999
 21
5721334.309999999
 31
0.0
  0
LINE
  5
1000151
330
137
100
AcDbEntity
  8
ewns_dzialki
  6
Continuous
370
    18
100
AcDbLine
 10
7574548.929999999
 20
5721334.309999999
 30
0.0
 11
7574553.320000001
 21
5721347.19
 31
0.0
  0
LINE
  5
1000162
330
137
100
AcDbEntity
  8
ewns_dzialki
  6
Continuous
370
    18
100
AcDbLine
 10
7574456.089999999
 20
5721026.429999999
 30
0.0
 11
7574455.84
 21
5721025.55
 31
0.0
  0
LINE
  5
1000163
330
137
100
AcDbEntity
  8
ewns_dzialki
  6
Continuous
370
    18
100
AcDbLine
 10
7574455.84
 20
5721025.55
 30
0.0
 11
7574452.179999999
 21
5721012.51
 31
0.0
  0
LINE
  5
1000167
330
137
100
AcDbEntity
  8
ewns_dzialki
  6
Continuous
370
    18
100
AcDbLine
 10
7574455.88
 20
5721014.549999999
 30
0.0
 11
7574458.739999999
 21
5721024.73
 31
0.0
  0
LINE
  5
1000168
330
137
100
AcDbEntity
  8
ewns_dzialki
  6
Continuous
370
    18
100
AcDbLine
 10
7574458.739999999
 20
5721024.73
 30
0.0
 11
7574468.099999998
 21
5721058.06
 31
0.0
  0
LINE
  5
100016E
330
137
100
AcDbEntity
  8
ewns_dzialki
  6
Continuous
370
    18
100
AcDbLine
 10
7574121.259999999
 20
5721288.37
 30
0.0
 11
7574278.99
 21
5721245.399999999
 31
0.0
  0
LINE
  5
100016F
330
137
100
AcDbEntity
  8
ewns_dzialki
  6
Continuous
370
    18
100
AcDbLine
 10
7574278.99
 20
5721245.399999999
 30
0.0
 11
7574501.79
 21
5721184.690000001
 31
0.0
  0
LINE
  5
1000170
330
137
100
AcDbEntity
  8
ewns_dzialki
  6
Continuous
370
    18
100
AcDbLine
 10
7574501.79
 20
5721184.690000001
 30
0.0
 11
7574493.13
 21
5721156.59
 31
0.0
  0
LINE
  5
1000171
330
137
100
AcDbEntity
  8
ewns_dzialki
  6
Continuous
370
    18
100
AcDbLine
 10
7574493.13
 20
5721156.59
 30
0.0
 11
7574113.82
 21
5721260.57
 31
0.0
  0
LINE
  5
1000172
330
137
100
AcDbEntity
  8
ewns_dzialki
  6
Continuous
370
    18
100
AcDbLine
 10
7574113.82
 20
5721260.57
 30
0.0
 11
7574114.42
 21
5721262.79
 31
0.0
  0
LINE
  5
1000173
330
137
100
AcDbEntity
  8
ewns_dzialki
  6
Continuous
370
    18
100
AcDbLine
 10
7574114.42
 20
5721262.79
 30
0.0
 11
7574115.67
 21
5721267.49
 31
0.0
  0
LINE
  5
1000174
330
137
100
AcDbEntity
  8
ewns_dzialki
  6
Continuous
370
    18
100
AcDbLine
 10
7574115.67
 20
5721267.49
 30
0.0
 11
7574121.259999999
 21
5721288.37
 31
0.0
  0
LINE
  5
1000175
330
137
100
AcDbEntity
  8
ewns_dzialki
  6
Continuous
370
    18
100
AcDbLine
 10
7574493.13
 20
5721156.59
 30
0.0
 11
7574487.94
 21
5721139.73
 31
0.0
  0
LINE
  5
1000176
330
137
100
AcDbEntity
  8
ewns_dzialki
  6
Continuous
370
    18
100
AcDbLine
 10
7574487.94
 20
5721139.73
 30
0.0
 11
7574485.059999999
 21
5721129.48
 31
0.0
  0
LINE
  5
1000177
330
137
100
AcDbEntity
  8
ewns_dzialki
  6
Continuous
370
    18
100
AcDbLine
 10
7574485.059999999
 20
5721129.48
 30
0.0
 11
7574483.09
 21
5721130.03
 31
0.0
  0
LINE
  5
1000178
330
137
100
AcDbEntity
  8
ewns_dzialki
  6
Continuous
370
    18
100
AcDbLine
 10
7574483.09
 20
5721130.03
 30
0.0
 11
7574106.69
 21
5721234.19
 31
0.0
  0
LINE
  5
1000179
330
137
100
AcDbEntity
  8
ewns_dzialki
  6
Continuous
370
    18
100
AcDbLine
 10
7574106.69
 20
5721234.19
 30
0.0
 11
7574113.82
 21
5721260.57
 31
0.0
  0
LINE
  5
100017A
330
137
100
AcDbEntity
  8
ewns_dzialki
  6
Continuous
370
    18
100
AcDbLine
 10
7574113.82
 20
5721260.57
 30
0.0
 11
7574493.13
 21
5721156.59
 31
0.0
  0
LINE
  5
100017B
330
137
100
AcDbEntity
  8
ewns_dzialki
  6
Continuous
370
    18
100
AcDbLine
 10
7574485.059999999
 20
5721129.48
 30
0.0
 11
7574480.099999999
 21
5721111.839999999
 31
0.0
  0
LINE
  5
100017C
330
137
100
AcDbEntity
  8
ewns_dzialki
  6
Continuous
370
    18
100
AcDbLine
 10
7574480.099999999
 20
5721111.839999999
 30
0.0
 11
7574101.98
 21
5721216.769999999
 31
0.0
  0
LINE
  5
100017D
330
137
100
AcDbEntity
  8
ewns_dzialki
  6
Continuous
370
    18
100
AcDbLine
 10
7574101.98
 20
5721216.769999999
 30
0.0
 11
7574106.69
 21
5721234.19
 31
0.0
  0
LINE
  5
100017E
330
137
100
AcDbEntity
  8
ewns_dzialki
  6
Continuous
370
    18
100
AcDbLine
 10
7574106.69
 20
5721234.19
 30
0.0
 11
7574483.09
 21
5721130.03
 31
0.0
  0
LINE
  5
100017F
330
137
100
AcDbEntity
  8
ewns_dzialki
  6
Continuous
370
    18
100
AcDbLine
 10
7574483.09
 20
5721130.03
 30
0.0
 11
7574485.059999999
 21
5721129.48
 31
0.0
  0
LINE
  5
1000180
330
137
100
AcDbEntity
  8
ewns_dzialki
  6
Continuous
370
    18
100
AcDbLine
 10
7574480.099999999
 20
5721111.839999999
 30
0.0
 11
7574474.990000001
 21
5721093.64
 31
0.0
  0
LINE
  5
1000181
330
137
100
AcDbEntity
  8
ewns_dzialki
  6
Continuous
370
    18
100
AcDbLine
 10
7574474.990000001
 20
5721093.64
 30
0.0
 11
7574097.37
 21
5721199.71
 31
0.0
  0
LINE
  5
1000182
330
137
100
AcDbEntity
  8
ewns_dzialki
  6
Continuous
370
    18
100
AcDbLine
 10
7574097.37
 20
5721199.71
 30
0.0
 11
7574101.98
 21
5721216.769999999
 31
0.0
  0
LINE
  5
1000183
330
137
100
AcDbEntity
  8
ewns_dzialki
  6
Continuous
370
    18
100
AcDbLine
 10
7574101.98
 20
5721216.769999999
 30
0.0
 11
7574480.099999999
 21
5721111.839999999
 31
0.0
  0
LINE
  5
1000184
330
137
100
AcDbEntity
  8
ewns_dzialki
  6
Continuous
370
    18
100
AcDbLine
 10
7574474.990000001
 20
5721093.64
 30
0.0
 11
7574473.12
 21
5721087.019999999
 31
0.0
  0
LINE
  5
1000186
330
137
100
AcDbEntity
  8
ewns_dzialki
  6
Continuous
370
    18
100
AcDbLine
 10
7574095.469999998
 20
5721192.68
 30
0.0
 11
7574097.37
 21
5721199.71
 31
0.0
  0
LINE
  5
1000187
330
137
100
AcDbEntity
  8
ewns_dzialki
  6
Continuous
370
    18
100
AcDbLine
 10
7574097.37
 20
5721199.71
 30
0.0
 11
7574474.990000001
 21
5721093.64
 31
0.0
  0
LINE
  5
1000189
330
137
100
AcDbEntity
  8
ewns_dzialki
  6
Continuous
370
    18
100
AcDbLine
 10
7574090.309999998
 20
5721173.599999999
 30
0.0
 11
7574092.290000001
 21
5721180.920000001
 31
0.0
  0
LINE
  5
100018B
330
137
100
AcDbEntity
  8
ewns_dzialki
  6
Continuous
370
    18
100
AcDbLine
 10
7574469.34
 20
5721073.539999999
 30
0.0
 11
7574467.49
 21
5721067.01
 31
0.0
  0
LINE
  5
100018C
330
137
100
AcDbEntity
  8
ewns_dzialki
  6
Continuous
370
    18
100
AcDbLine
 10
7574473.12
 20
5721087.019999999
 30
0.0
 11
7574469.34
 21
5721073.539999999
 31
0.0
  0
LINE
  5
100018E
330
137
100
AcDbEntity
  8
ewns_dzialki
  6
Continuous
370
    18
100
AcDbLine
 10
7574092.290000001
 20
5721180.920000001
 30
0.0
 11
7574095.469999998
 21
5721192.68
 31
0.0
  0
LINE
  5
1000190
330
137
100
AcDbEntity
  8
ewns_dzialki
  6
Continuous
370
    18
100
AcDbLine
 10
7573949.419999999
 20
5720989.11
 30
0.0
 11
7574026.080000001
 21
5721279.62
 31
0.0
  0
LINE
  5
1000191
330
137
100
AcDbEntity
  8
ewns_dzialki
  6
Continuous
370
    18
100
AcDbLine
 10
7574026.080000001
 20
5721279.62
 30
0.0
 11
7574063.37
 21
5721272.52
 31
0.0
  0
LINE
  5
1000192
330
137
100
AcDbEntity
  8
ewns_dzialki
  6
Continuous
370
    18
100
AcDbLine
 10
7574063.37
 20
5721272.52
 30
0.0
 11
7573987.12
 21
5720982.049999999
 31
0.0
  0
LINE
  5
100019B
330
137
100
AcDbEntity
  8
ewns_dzialki
  6
Continuous
370
    18
100
AcDbLine
 10
7574015.99
 20
5721286.55
 30
0.0
 11
7574064.45
 21
5721277.28
 31
0.0
  0
LINE
  5
100019C
330
137
100
AcDbEntity
  8
ewns_dzialki
  6
Continuous
370
    18
100
AcDbLine
 10
7574064.45
 20
5721277.28
 30
0.0
 11
7574089.469999998
 21
5721272.49
 31
0.0
  0
LINE
  5
100019D
330
137
100
AcDbEntity
  8
ewns_dzialki
  6
Continuous
370
    18
100
AcDbLine
 10
7574089.469999998
 20
5721272.49
 30
0.0
 11
7574115.67
 21
5721267.49
 31
0.0
  0
LINE
  5
100019E
330
137
100
AcDbEntity
  8
ewns_dzialki
  6
Continuous
370
    18
100
AcDbLine
 10
7574115.67
 20
5721267.49
 30
0.0
 11
7574114.42
 21
5721262.79
 31
0.0
  0
LINE
  5
100019F
330
137
100
AcDbEntity
  8
ewns_dzialki
  6
Continuous
370
    18
100
AcDbLine
 10
7574114.42
 20
5721262.79
 30
0.0
 11
7574088.9
 21
5721267.65
 31
0.0
  0
LINE
  5
10001A0
330
137
100
AcDbEntity
  8
ewns_dzialki
  6
Continuous
370
    18
100
AcDbLine
 10
7574088.9
 20
5721267.65
 30
0.0
 11
7574063.37
 21
5721272.52
 31
0.0
  0
LINE
  5
10001A1
330
137
100
AcDbEntity
  8
ewns_dzialki
  6
Continuous
370
    18
100
AcDbLine
 10
7574063.37
 20
5721272.52
 30
0.0
 11
7574026.080000001
 21
5721279.62
 31
0.0
  0
LINE
  5
10001A2
330
137
100
AcDbEntity
  8
ewns_dzialki
  6
Continuous
370
    18
100
AcDbLine
 10
7574026.080000001
 20
5721279.62
 30
0.0
 11
7574006.179999998
 21
5721283.41
 31
0.0
  0
LINE
  5
10001B4
330
137
100
AcDbEntity
  8
ewns_dzialki
  6
Continuous
370
    18
100
AcDbLine
 10
7573987.12
 20
5720982.049999999
 30
0.0
 11
7574063.37
 21
5721272.52
 31
0.0
  0
LINE
  5
10001B5
330
137
100
AcDbEntity
  8
ewns_dzialki
  6
Continuous
370
    18
100
AcDbLine
 10
7574063.37
 20
5721272.52
 30
0.0
 11
7574088.9
 21
5721267.65
 31
0.0
  0
LINE
  5
10001B6
330
137
100
AcDbEntity
  8
ewns_dzialki
  6
Continuous
370
    18
100
AcDbLine
 10
7574088.9
 20
5721267.65
 30
0.0
 11
7574012.660000001
 21
5720977.269999999
 31
0.0
  0
LINE
  5
10001BC
330
137
100
AcDbEntity
  8
ewns_dzialki
  6
Continuous
370
    18
100
AcDbLine
 10
7574090.309999998
 20
5721173.599999999
 30
0.0
 11
7574082.03
 21
5721142.94
 31
0.0
  0
LINE
  5
10001BD
330
137
100
AcDbEntity
  8
ewns_dzialki
  6
Continuous
370
    18
100
AcDbLine
 10
7574082.03
 20
5721142.94
 30
0.0
 11
7574078.88
 21
5721130.679999999
 31
0.0
  0
LINE
  5
10001C4
330
137
100
AcDbEntity
  8
ewns_dzialki
  6
Continuous
370
    18
100
AcDbLine
 10
7574012.660000001
 20
5720977.269999999
 30
0.0
 11
7574088.9
 21
5721267.65
 31
0.0
  0
LINE
  5
10001C5
330
137
100
AcDbEntity
  8
ewns_dzialki
  6
Continuous
370
    18
100
AcDbLine
 10
7574088.9
 20
5721267.65
 30
0.0
 11
7574114.42
 21
5721262.79
 31
0.0
  0
LINE
  5
10001C6
330
137
100
AcDbEntity
  8
ewns_dzialki
  6
Continuous
370
    18
100
AcDbLine
 10
7574114.42
 20
5721262.79
 30
0.0
 11
7574113.82
 21
5721260.57
 31
0.0
  0
LINE
  5
10001C7
330
137
100
AcDbEntity
  8
ewns_dzialki
  6
Continuous
370
    18
100
AcDbLine
 10
7574113.82
 20
5721260.57
 30
0.0
 11
7574106.69
 21
5721234.19
 31
0.0
  0
LINE
  5
10001C8
330
137
100
AcDbEntity
  8
ewns_dzialki
  6
Continuous
370
    18
100
AcDbLine
 10
7574106.69
 20
5721234.19
 30
0.0
 11
7574101.98
 21
5721216.769999999
 31
0.0
  0
LINE
  5
10001C9
330
137
100
AcDbEntity
  8
ewns_dzialki
  6
Continuous
370
    18
100
AcDbLine
 10
7574101.98
 20
5721216.769999999
 30
0.0
 11
7574097.37
 21
5721199.71
 31
0.0
  0
LINE
  5
10001CA
330
137
100
AcDbEntity
  8
ewns_dzialki
  6
Continuous
370
    18
100
AcDbLine
 10
7574097.37
 20
5721199.71
 30
0.0
 11
7574095.469999998
 21
5721192.68
 31
0.0
  0
LINE
  5
10001CB
330
137
100
AcDbEntity
  8
ewns_dzialki
  6
Continuous
370
    18
100
AcDbLine
 10
7574095.469999998
 20
5721192.68
 30
0.0
 11
7574092.290000001
 21
5721180.920000001
 31
0.0
  0
LINE
  5
10001CC
330
137
100
AcDbEntity
  8
ewns_dzialki
  6
Continuous
370
    18
100
AcDbLine
 10
7574092.290000001
 20
5721180.920000001
 30
0.0
 11
7574090.309999998
 21
5721173.599999999
 31
0.0
  0
LINE
  5
10001D3
330
137
100
AcDbEntity
  8
ewns_dzialki
  6
Continuous
370
    18
100
AcDbLine
 10
7574468.099999998
 20
5721058.06
 30
0.0
 11
7574469.86
 21
5721064.31
 31
0.0
  0
LINE
  5
10001FD
330
137
100
AcDbEntity
  8
ewns_dzialki
  6
Continuous
370
    18
100
AcDbLine
 10
7574452.179999999
 20
5721012.51
 30
0.0
 11
7574455.88
 21
5721014.549999999
 31
0.0
  0
LINE
  5
100020D
330
137
100
AcDbEntity
  8
obreb
370
    35
100
AcDbLine
 10
7574078.88
 20
5721130.679999999
 30
0.0
 11
7574082.03
 21
5721142.94
 31
0.0
  0
LINE
  5
100020E
330
137
100
AcDbEntity
  8
obreb
370
    35
100
AcDbLine
 10
7574082.03
 20
5721142.94
 30
0.0
 11
7574090.309999998
 21
5721173.599999999
 31
0.0
  0
LINE
  5
100020F
330
137
100
AcDbEntity
  8
obreb
370
    35
100
AcDbLine
 10
7574090.309999998
 20
5721173.599999999
 30
0.0
 11
7574092.290000001
 21
5721180.920000001
 31
0.0
  0
LINE
  5
1000210
330
137
100
AcDbEntity
  8
obreb
370
    35
100
AcDbLine
 10
7574092.290000001
 20
5721180.920000001
 30
0.0
 11
7574095.469999998
 21
5721192.68
 31
0.0
  0
LINE
  5
1000211
330
137
100
AcDbEntity
  8
obreb
370
    35
100
AcDbLine
 10
7574095.469999998
 20
5721192.68
 30
0.0
 11
7574097.37
 21
5721199.71
 31
0.0
  0
LINE
  5
1000212
330
137
100
AcDbEntity
  8
obreb
370
    35
100
AcDbLine
 10
7574097.37
 20
5721199.71
 30
0.0
 11
7574101.98
 21
5721216.769999999
 31
0.0
  0
LINE
  5
1000213
330
137
100
AcDbEntity
  8
obreb
370
    35
100
AcDbLine
 10
7574101.98
 20
5721216.769999999
 30
0.0
 11
7574106.69
 21
5721234.19
 31
0.0
  0
LINE
  5
1000214
330
137
100
AcDbEntity
  8
obreb
370
    35
100
AcDbLine
 10
7574106.69
 20
5721234.19
 30
0.0
 11
7574113.82
 21
5721260.57
 31
0.0
  0
LINE
  5
1000215
330
137
100
AcDbEntity
  8
obreb
370
    35
100
AcDbLine
 10
7574113.82
 20
5721260.57
 30
0.0
 11
7574114.42
 21
5721262.79
 31
0.0
  0
LINE
  5
1000216
330
137
100
AcDbEntity
  8
obreb
370
    35
100
AcDbLine
 10
7574114.42
 20
5721262.79
 30
0.0
 11
7574115.67
 21
5721267.49
 31
0.0
  0
LINE
  5
1000217
330
137
100
AcDbEntity
  8
obreb
370
    35
100
AcDbLine
 10
7574115.67
 20
5721267.49
 30
0.0
 11
7574121.259999999
 21
5721288.37
 31
0.0
  0
LINE
  5
1000218
330
137
100
AcDbEntity
  8
obreb
370
    35
100
AcDbLine
 10
7574121.259999999
 20
5721288.37
 30
0.0
 11
7574128.44
 21
5721315.18
 31
0.0
  0
LINE
  5
1000219
330
137
100
AcDbEntity
  8
obreb
370
    35
100
AcDbLine
 10
7574128.44
 20
5721315.18
 30
0.0
 11
7574131.95
 21
5721328.28
 31
0.0
  0
LINE
  5
100021A
330
137
100
AcDbEntity
  8
obreb
370
    35
100
AcDbLine
 10
7574131.95
 20
5721328.28
 30
0.0
 11
7574143.139999998
 21
5721370.019999999
 31
0.0
  0
LINE
  5
100021B
330
137
100
AcDbEntity
  8
obreb
370
    35
100
AcDbLine
 10
7574143.139999998
 20
5721370.019999999
 30
0.0
 11
7574150.429999999
 21
5721397.259999999
 31
0.0
  0
LINE
  5
100021C
330
137
100
AcDbEntity
  8
obreb
370
    35
100
AcDbLine
 10
7574150.429999999
 20
5721397.259999999
 30
0.0
 11
7574161.269999998
 21
5721437.7
 31
0.0
  0
LINE
  5
1000221
330
137
100
AcDbEntity
  8
nr_dzialek
  6
Continuous
 62
     7
370
    13
100
AcDbLine
 10
7574537.291666307
 20
5721200.349999999
 30
0.0
 11
7574524.099999998
 21
5721200.349999999
 31
0.0
  0
LINE
  5
1000222
330
137
100
AcDbEntity
  8
nr_dzialek
  6
Continuous
 62
     7
370
    13
100
AcDbLine
 10
7574524.099999998
 20
5721200.349999999
 30
0.0
 11
7574510.459999997
 21
5721207.659999996
 31
0.0
  0
ENDSEC
  0
SECTION
  2
OBJECTS
  0
DICTIONARY
  5
3D9
330
0
100
AcDbDictionary
281
     1
  3
ACAD_COLOR
350
100001C
  3
ACAD_GROUP
350
3DA
  3
ACAD_LAYOUT
350
3DB
  3
ACAD_MATERIAL
350
FFFFFF
  3
ACAD_MLEADERSTYLE
350
100001F
  3
ACAD_MLINESTYLE
350
3DC
  3
ACAD_PLOTSETTINGS
350
3DD
  3
ACAD_PLOTSTYLENAME
350
3DE
  3
ACAD_SCALELIST
350
1000021
  3
ACAD_TABLESTYLE
350
100001D
  3
ACAD_VISUALSTYLE
350
1000003
  3
AcDbVariableDictionary
350
1000223
  0
DICTIONARY
  5
1000034
330
137
100
AcDbDictionary
280
     1
281
     1
  3
ACAD_SORTENTS
360
1000035
  0
DICTIONARY
  5
100001C
102
{ACAD_REACTORS
330
3D9
102
}
330
3D9
100
AcDbDictionary
281
     1
  0
DICTIONARY
  5
3DA
102
{ACAD_REACTORS
330
3D9
102
}
330
3D9
100
AcDbDictionary
281
     1
  0
DICTIONARY
  5
3DB
102
{ACAD_REACTORS
330
3D9
102
}
330
3D9
100
AcDbDictionary
281
     1
  3
Layout
350
13A
  3
Model
350
138
  0
DICTIONARY
  5
FFFFFF
102
{ACAD_REACTORS
330
3D9
102
}
330
3D9
100
AcDbDictionary
281
     1
  3
ByBlock
350
1000001
  3
ByLayer
350
1000000
  3
Global
350
1000002
  0
DICTIONARY
  5
100001F
102
{ACAD_REACTORS
330
3D9
102
}
330
3D9
100
AcDbDictionary
281
     1
  3
Standard
350
1000020
  0
DICTIONARY
  5
3DC
102
{ACAD_REACTORS
330
3D9
102
}
330
3D9
100
AcDbDictionary
281
     1
  3
L_0_02
350
7
  3
Standard
350
3DF
  0
DICTIONARY
  5
3DD
102
{ACAD_REACTORS
330
3D9
102
}
330
3D9
100
AcDbDictionary
281
     1
  0
ACDBDICTIONARYWDFLT
  5
3DE
102
{ACAD_REACTORS
330
3D9
102
}
330
3D9
100
AcDbDictionary
281
     1
  3
Normal
350
E
100
AcDbDictionaryWithDefault
340
E
  0
DICTIONARY
  5
1000021
102
{ACAD_REACTORS
330
3D9
102
}
330
3D9
100
AcDbDictionary
281
     1
  3
A0
350
1000022
  3
A1
350
1000023
  3
A2
350
1000024
  3
A3
350
1000025
  3
A4
350
1000026
  3
A5
350
1000027
  3
A6
350
1000028
  3
A7
350
1000029
  3
A8
350
100002A
  3
A9
350
100002B
  3
B0
350
100002C
  3
B1
350
100002D
  3
B2
350
100002E
  3
B3
350
100002F
  3
B4
350
1000030
  3
B5
350
1000031
  3
B6
350
1000032
  0
DICTIONARY
  5
100001D
102
{ACAD_REACTORS
330
3D9
102
}
330
3D9
100
AcDbDictionary
281
     1
  3
Standard
350
100001E
  0
DICTIONARY
  5
1000003
102
{ACAD_REACTORS
330
3D9
102
}
330
3D9
100
AcDbDictionary
281
     1
  3
2dWireframe
350
1000008
  3
Basic
350
100000B
  3
Brighten
350
100000F
  3
ColorChange
350
1000013
  3
Conceptual
350
100000D
  3
Dim
350
100000E
  3
EdgeColorOff
350
1000016
  3
Facepattern
350
1000012
  3
Flat
350
1000004
  3
FlatWithEdges
350
1000005
  3
Gouraud
350
1000006
  3
GouraudWithEdges
350
1000007
  3
Hidden
350
100000A
  3
JitterOff
350
1000014
  3
Linepattern
350
1000011
  3
OverhangOff
350
1000015
  3
Realistic
350
100000C
  3
Shaded
350
100001B
  3
Shaded with edges
350
100001A
  3
Shades of Gray
350
1000017
  3
Sketchy
350
1000018
  3
Thicken
350
1000010
  3
Wireframe
350
1000009
  3
X-Ray
350
1000019
  0
DICTIONARY
  5
1000223
102
{ACAD_REACTORS
330
3D9
102
}
330
3D9
100
AcDbDictionary
281
     1
  3
CANNOSCALE
350
1000227
  3
CMLEADERSTYLE
350
1000225
  3
CTABLESTYLE
350
1000224
  3
MSLTSCALE
350
1000226
  0
SORTENTSTABLE
  5
1000035
102
{ACAD_REACTORS
330
1000034
102
}
330
1000034
100
AcDbSortentsTable
330
137
331
3B5
  5
1000209
331
3BD
  5
100020A
331
3BE
  5
100020B
331
3BF
  5
100020C
331
3C0
  5
100020D
331
3C1
  5
100020E
331
3C2
  5
100020F
331
3C3
  5
1000210
331
3C4
  5
1000211
331
3C5
  5
1000212
331
3C6
  5
1000213
331
3C7
  5
1000214
331
3C8
  5
1000215
331
3C9
  5
1000216
331
3CA
  5
1000217
331
3CB
  5
1000218
331
3CC
  5
1000219
331
3CD
  5
100021A
331
3CE
  5
100021B
331
3CF
  5
100021C
331
3D0
  5
100021D
331
3D1
  5
100021E
331
3D2
  5
100021F
331
3D3
  5
1000220
331
1000036
  5
3B5
331
1000037
  5
3BD
331
1000038
  5
3BE
331
1000039
  5
3BF
331
100003A
  5
3C0
331
100003B
  5
3C1
331
100003C
  5
3C2
331
100003D
  5
3C3
331
100003E
  5
3C4
331
100003F
  5
3C5
331
1000040
  5
3C6
331
1000041
  5
3C7
331
1000042
  5
3C8
331
1000043
  5
3C9
331
1000044
  5
3CA
331
1000045
  5
3CB
331
1000046
  5
3CC
331
1000047
  5
3CD
331
1000048
  5
3CE
331
1000049
  5
3CF
331
100004A
  5
3D0
331
100004B
  5
3D1
331
100004C
  5
3D2
331
100004D
  5
3D3
331
100004E
  5
1000036
331
100004F
  5
1000037
331
1000050
  5
1000038
331
1000051
  5
1000039
331
1000052
  5
100003A
331
1000053
  5
100003B
331
1000054
  5
100003C
331
1000055
  5
100003D
331
1000056
  5
100003E
331
1000057
  5
100003F
331
1000058
  5
1000040
331
1000059
  5
1000041
331
100005A
  5
1000042
331
100005B
  5
1000043
331
100005C
  5
1000044
331
100005D
  5
1000045
331
100005E
  5
1000046
331
100005F
  5
1000047
331
1000060
  5
1000048
331
1000061
  5
1000049
331
1000062
  5
100004A
331
1000063
  5
100004B
331
1000064
  5
100004C
331
1000065
  5
100004D
331
1000066
  5
100004E
331
1000067
  5
100004F
331
1000068
  5
1000050
331
1000069
  5
1000051
331
100006A
  5
1000052
331
100006B
  5
1000053
331
100006C
  5
1000054
331
100006D
  5
1000055
331
100006E
  5
1000056
331
100006F
  5
1000057
331
1000070
  5
1000058
331
1000071
  5
1000059
331
1000072
  5
100005A
331
1000073
  5
100005B
331
1000074
  5
100005C
331
1000075
  5
100005D
331
1000076
  5
100005E
331
1000077
  5
100005F
331
1000078
  5
1000060
331
1000079
  5
1000061
331
100007A
  5
1000062
331
100007B
  5
1000063
331
100007C
  5
1000064
331
100007D
  5
1000065
331
100007E
  5
1000066
331
100007F
  5
1000067
331
1000080
  5
1000068
331
1000081
  5
1000069
331
1000082
  5
100006A
331
1000083
  5
100006B
331
1000084
  5
100006C
331
1000085
  5
100006D
331
1000086
  5
100006E
331
1000087
  5
100006F
331
1000088
  5
1000070
331
1000089
  5
1000071
331
100008A
  5
1000072
331
100008B
  5
1000073
331
100008C
  5
1000074
331
100008D
  5
1000075
331
100008E
  5
1000076
331
100008F
  5
1000077
331
1000090
  5
1000078
331
1000091
  5
1000079
331
1000092
  5
100007A
331
1000093
  5
100007B
331
1000094
  5
100007C
331
1000095
  5
100007D
331
1000096
  5
100007E
331
1000097
  5
100007F
331
1000098
  5
1000080
331
1000099
  5
1000081
331
100009A
  5
1000082
331
100009B
  5
1000083
331
100009C
  5
1000084
331
100009D
  5
1000085
331
100009E
  5
1000086
331
100009F
  5
1000087
331
10000A0
  5
1000088
331
10000A1
  5
1000089
331
10000A2
  5
100008A
331
10000A3
  5
100008B
331
10000A4
  5
100008C
331
10000A5
  5
100008D
331
10000A6
  5
100008E
331
10000A7
  5
100008F
331
10000A8
  5
1000090
331
10000A9
  5
1000091
331
10000AA
  5
1000092
331
10000AB
  5
1000093
331
10000AC
  5
1000094
331
10000AD
  5
1000095
331
10000AE
  5
1000096
331
10000AF
  5
1000097
331
10000B0
  5
1000098
331
10000B1
  5
1000099
331
10000B2
  5
100009A
331
10000B3
  5
100009B
331
10000B4
  5
100009C
331
10000B5
  5
100009D
331
10000B6
  5
100009E
331
10000B7
  5
100009F
331
10000B8
  5
10000A0
331
10000B9
  5
10000A1
331
10000BA
  5
10000A2
331
10000BB
  5
10000A3
331
10000BC
  5
10000A4
331
10000BD
  5
10000A5
331
10000BE
  5
10000A6
331
10000BF
  5
10000A7
331
10000C0
  5
10000A8
331
10000C1
  5
10000A9
331
10000C2
  5
10000AA
331
10000C3
  5
10000AB
331
10000C4
  5
10000AC
331
10000C5
  5
10000AD
331
10000C6
  5
10000AE
331
10000C7
  5
10000AF
331
10000C8
  5
10000B0
331
10000C9
  5
10000B1
331
10000CA
  5
10000B2
331
10000CB
  5
10000B3
331
10000CC
  5
10000B4
331
10000CD
  5
10000B5
331
10000CE
  5
10000B6
331
10000CF
  5
10000B7
331
10000D0
  5
10000B8
331
10000D1
  5
10000B9
331
10000D2
  5
10000BA
331
10000D3
  5
10000BB
331
10000D4
  5
10000BC
331
10000D5
  5
10000BD
331
10000D6
  5
10000BE
331
10000D7
  5
10000BF
331
10000D8
  5
10000C0
331
10000D9
  5
10000C1
331
10000DA
  5
10000C2
331
10000DB
  5
10000C3
331
10000DC
  5
10000C4
331
10000DD
  5
10000C5
331
10000DE
  5
10000C6
331
10000DF
  5
10000C7
331
10000E0
  5
10000C8
331
10000E1
  5
10000C9
331
10000E2
  5
10000CA
331
10000E3
  5
10000CB
331
10000E4
  5
10000CC
331
10000E5
  5
10000CD
331
10000E6
  5
10000CE
331
10000E7
  5
10000CF
331
10000E8
  5
10000D0
331
10000E9
  5
10000D1
331
10000EA
  5
10000D2
331
10000EB
  5
10000D3
331
10000EC
  5
10000D4
331
10000ED
  5
10000D5
331
10000EE
  5
10000D6
331
10000EF
  5
10000D7
331
10000F0
  5
10000D8
331
10000F1
  5
10000D9
331
10000F2
  5
10000DA
331
10000F3
  5
10000DB
331
10000F4
  5
10000DC
331
10000F5
  5
10000DD
331
10000F6
  5
10000DE
331
10000F7
  5
10000DF
331
10000F8
  5
10000E0
331
10000F9
  5
10000E1
331
10000FA
  5
10000E2
331
10000FB
  5
10000E3
331
10000FC
  5
10000E4
331
10000FD
  5
10000E5
331
10000FE
  5
10000E6
331
10000FF
  5
10000E7
331
1000100
  5
10000E8
331
1000101
  5
10000E9
331
1000102
  5
10000EA
331
1000103
  5
10000EB
331
1000104
  5
10000EC
331
1000105
  5
10000ED
331
1000106
  5
10000EE
331
1000107
  5
10000EF
331
1000108
  5
10000F0
331
1000109
  5
10000F1
331
100010A
  5
10000F2
331
100010B
  5
10000F3
331
100010C
  5
10000F4
331
100010D
  5
10000F5
331
100010E
  5
10000F6
331
100010F
  5
10000F7
331
1000110
  5
10000F8
331
1000111
  5
10000F9
331
1000112
  5
10000FA
331
1000113
  5
10000FB
331
1000114
  5
10000FC
331
1000115
  5
10000FD
331
1000116
  5
10000FE
331
1000117
  5
10000FF
331
1000118
  5
1000100
331
1000119
  5
1000101
331
100011A
  5
1000102
331
100011B
  5
1000103
331
100011C
  5
1000104
331
100011D
  5
1000105
331
100011E
  5
1000106
331
100011F
  5
1000107
331
1000120
  5
1000108
331
1000121
  5
1000109
331
1000122
  5
100010A
331
1000123
  5
100010B
331
1000124
  5
100010C
331
1000125
  5
100010D
331
1000126
  5
100010E
331
1000127
  5
100010F
331
1000128
  5
1000110
331
1000129
  5
1000111
331
100012A
  5
1000112
331
100012B
  5
1000113
331
100012C
  5
1000114
331
100012D
  5
1000115
331
100012E
  5
1000116
331
100012F
  5
1000117
331
1000130
  5
1000118
331
1000131
  5
1000119
331
1000132
  5
100011A
331
1000133
  5
100011B
331
1000134
  5
100011C
331
1000135
  5
100011D
331
1000136
  5
100011E
331
1000137
  5
100011F
331
1000138
  5
1000120
331
1000139
  5
1000121
331
100013A
  5
1000122
331
100013B
  5
1000123
331
100013C
  5
1000124
331
100013D
  5
1000125
331
100013E
  5
1000126
331
100013F
  5
1000127
331
1000140
  5
1000128
331
1000141
  5
1000129
331
1000142
  5
100012A
331
1000143
  5
100012B
331
1000144
  5
100012C
331
1000145
  5
100012D
331
1000146
  5
100012E
331
1000147
  5
100012F
331
1000148
  5
1000130
331
1000149
  5
1000131
331
100014A
  5
1000132
331
100014B
  5
1000133
331
100014C
  5
1000134
331
100014D
  5
1000135
331
100014E
  5
1000136
331
100014F
  5
1000137
331
1000150
  5
1000138
331
1000151
  5
1000139
331
1000152
  5
100013A
331
1000153
  5
100013B
331
1000154
  5
100013C
331
1000155
  5
100013D
331
1000156
  5
100013E
331
1000157
  5
100013F
331
1000158
  5
1000140
331
1000159
  5
1000141
331
100015A
  5
1000142
331
100015B
  5
1000143
331
100015C
  5
1000144
331
100015D
  5
1000145
331
100015E
  5
1000146
331
100015F
  5
1000147
331
1000160
  5
1000148
331
1000161
  5
1000149
331
1000162
  5
100014A
331
1000163
  5
100014B
331
1000164
  5
100014C
331
1000165
  5
100014D
331
1000166
  5
100014E
331
1000167
  5
100014F
331
1000168
  5
1000150
331
1000169
  5
1000151
331
100016A
  5
1000152
331
100016B
  5
1000153
331
100016C
  5
1000154
331
100016D
  5
1000155
331
100016E
  5
1000156
331
100016F
  5
1000157
331
1000170
  5
1000158
331
1000171
  5
1000159
331
1000172
  5
100015A
331
1000173
  5
100015B
331
1000174
  5
100015C
331
1000175
  5
100015D
331
1000176
  5
100015E
331
1000177
  5
100015F
331
1000178
  5
1000160
331
1000179
  5
1000161
331
100017A
  5
1000162
331
100017B
  5
1000163
331
100017C
  5
1000164
331
100017D
  5
1000165
331
100017E
  5
1000166
331
100017F
  5
1000167
331
1000180
  5
1000168
331
1000181
  5
1000169
331
1000182
  5
100016A
331
1000183
  5
100016B
331
1000184
  5
100016C
331
1000185
  5
100016D
331
1000186
  5
100016E
331
1000187
  5
100016F
331
1000188
  5
1000170
331
1000189
  5
1000171
331
100018A
  5
1000172
331
100018B
  5
1000173
331
100018C
  5
1000174
331
100018D
  5
1000175
331
100018E
  5
1000176
331
100018F
  5
1000177
331
1000190
  5
1000178
331
1000191
  5
1000179
331
1000192
  5
100017A
331
1000193
  5
100017B
331
1000194
  5
100017C
331
1000195
  5
100017D
331
1000196
  5
100017E
331
1000197
  5
100017F
331
1000198
  5
1000180
331
1000199
  5
1000181
331
100019A
  5
1000182
331
100019B
  5
1000183
331
100019C
  5
1000184
331
100019D
  5
1000185
331
100019E
  5
1000186
331
100019F
  5
1000187
331
10001A0
  5
1000188
331
10001A1
  5
1000189
331
10001A2
  5
100018A
331
10001A3
  5
100018B
331
10001A4
  5
100018C
331
10001A5
  5
100018D
331
10001A6
  5
100018E
331
10001A7
  5
100018F
331
10001A8
  5
1000190
331
10001A9
  5
1000191
331
10001AA
  5
1000192
331
10001AB
  5
1000193
331
10001AC
  5
1000194
331
10001AD
  5
1000195
331
10001AE
  5
1000196
331
10001AF
  5
1000197
331
10001B0
  5
1000198
331
10001B1
  5
1000199
331
10001B2
  5
100019A
331
10001B3
  5
100019B
331
10001B4
  5
100019C
331
10001B5
  5
100019D
331
10001B6
  5
100019E
331
10001B7
  5
100019F
331
10001B8
  5
10001A0
331
10001B9
  5
10001A1
331
10001BA
  5
10001A2
331
10001BB
  5
10001A3
331
10001BC
  5
10001A4
331
10001BD
  5
10001A5
331
10001BE
  5
10001A6
331
10001BF
  5
10001A7
331
10001C0
  5
10001A8
331
10001C1
  5
10001A9
331
10001C2
  5
10001AA
331
10001C3
  5
10001AB
331
10001C4
  5
10001AC
331
10001C5
  5
10001AD
331
10001C6
  5
10001AE
331
10001C7
  5
10001AF
331
10001C8
  5
10001B0
331
10001C9
  5
10001B1
331
10001CA
  5
10001B2
331
10001CB
  5
10001B3
331
10001CC
  5
10001B4
331
10001CD
  5
10001B5
331
10001CE
  5
10001B6
331
10001CF
  5
10001B7
331
10001D0
  5
10001B8
331
10001D1
  5
10001B9
331
10001D2
  5
10001BA
331
10001D3
  5
10001BB
331
10001D4
  5
10001BC
331
10001D5
  5
10001BD
331
10001D6
  5
10001BE
331
10001D7
  5
10001BF
331
10001D8
  5
10001C0
331
10001D9
  5
10001C1
331
10001DA
  5
10001C2
331
10001DB
  5
10001C3
331
10001DC
  5
10001C4
331
10001DD
  5
10001C5
331
10001DE
  5
10001C6
331
10001DF
  5
10001C7
331
10001E0
  5
10001C8
331
10001E1
  5
10001C9
331
10001E2
  5
10001CA
331
10001E3
  5
10001CB
331
10001E4
  5
10001CC
331
10001E5
  5
10001CD
331
10001E6
  5
10001CE
331
10001E7
  5
10001CF
331
10001E8
  5
10001D0
331
10001E9
  5
10001D1
331
10001EA
  5
10001D2
331
10001EB
  5
10001D3
331
10001EC
  5
10001D4
331
10001ED
  5
10001D5
331
10001EE
  5
10001D6
331
10001EF
  5
10001D7
331
10001F0
  5
10001D8
331
10001F1
  5
10001D9
331
10001F2
  5
10001DA
331
10001F3
  5
10001DB
331
10001F4
  5
10001DC
331
10001F5
  5
10001DD
331
10001F6
  5
10001DE
331
10001F7
  5
10001DF
331
10001F8
  5
10001E0
331
10001F9
  5
10001E1
331
10001FA
  5
10001E2
331
10001FB
  5
10001E3
331
10001FC
  5
10001E4
331
10001FD
  5
10001E5
331
10001FE
  5
10001E6
331
10001FF
  5
10001E7
331
1000200
  5
10001E8
331
1000201
  5
10001E9
331
1000202
  5
10001EA
331
1000203
  5
10001EB
331
1000204
  5
10001EC
331
1000205
  5
10001ED
331
1000206
  5
10001EE
331
1000207
  5
10001EF
331
1000208
  5
10001F0
331
1000209
  5
10001F1
331
100020A
  5
10001F2
331
100020B
  5
10001F3
331
100020C
  5
10001F4
331
100020D
  5
10001F5
331
100020E
  5
10001F6
331
100020F
  5
10001F7
331
1000210
  5
10001F8
331
1000211
  5
10001F9
331
1000212
  5
10001FA
331
1000213
  5
10001FB
331
1000214
  5
10001FC
331
1000215
  5
10001FD
331
1000216
  5
10001FE
331
1000217
  5
10001FF
331
1000218
  5
1000200
331
1000219
  5
1000201
331
100021A
  5
1000202
331
100021B
  5
1000203
331
100021C
  5
1000204
331
100021D
  5
1000205
331
100021E
  5
1000206
331
100021F
  5
1000207
331
1000220
  5
1000208
  0
LAYOUT
  5
13A
330
3DB
100
AcDbPlotSettings
  1

  2

  4

  6

 40
0.0
 41
0.0
 42
0.0
 43
0.0
 44
0.0
 45
0.0
 46
0.0
 47
0.0
 48
0.0
 49
0.0
140
0.0
141
0.0
142
1.0
143
1.0
 70
   688
 72
     1
 73
     0
 74
     5
  7

 75
     0
 76
     0
 77
     2
 78
   300
147
1.0
148
0.0
149
0.0
100
AcDbLayout
  1
Layout
 70
     1
 71
     1
 10
0.0
 20
0.0
 11
420.0
 21
297.0
 12
0.0
 22
0.0
 32
0.0
 14
1.000000000000000E+20
 24
1.000000000000000E+20
 34
1.000000000000000E+20
 15
-1.000000000000000E+20
 25
-1.000000000000000E+20
 35
-1.000000000000000E+20
146
0.0
 13
0.0
 23
0.0
 33
0.0
 16
1.0
 26
0.0
 36
0.0
 17
0.0
 27
1.0
 37
0.0
 76
     0
330
139
  0
LAYOUT
  5
138
330
3DB
100
AcDbPlotSettings
  1

  2

  4

  6

 40
0.0
 41
0.0
 42
0.0
 43
0.0
 44
0.0
 45
0.0
 46
0.0
 47
0.0
 48
0.0
 49
0.0
140
0.0
141
0.0
142
1.0
143
1.0
 70
  1712
 72
     1
 73
     0
 74
     0
  7

 75
     0
 76
     0
 77
     2
 78
   300
147
1.0
148
0.0
149
0.0
100
AcDbLayout
  1
Model
 70
     1
 71
     0
 10
0.0
 20
0.0
 11
12.0
 21
9.0
 12
0.0
 22
0.0
 32
0.0
 14
0.0
 24
0.0
 34
0.0
 15
0.0
 25
0.0
 35
0.0
146
0.0
 13
0.0
 23
0.0
 33
0.0
 16
1.0
 26
0.0
 36
0.0
 17
0.0
 27
1.0
 37
0.0
 76
     0
330
137
331
2
  0
MATERIAL
  5
1000001
102
{ACAD_REACTORS
330
FFFFFF
102
}
330
FFFFFF
100
AcDbMaterial
  1
ByBlock
 72
     0
 73
     2
 77
     0
 78
     2
171
     0
172
     2
175
     0
176
     2
179
     0
270
     2
274
     2
 94
      127
  0
MATERIAL
  5
1000000
102
{ACAD_REACTORS
330
FFFFFF
102
}
330
FFFFFF
100
AcDbMaterial
  1
ByLayer
 72
     0
 73
     2
 77
     0
 78
     2
171
     0
172
     2
175
     0
176
     2
179
     0
270
     2
274
     2
 94
      127
  0
MATERIAL
  5
1000002
102
{ACAD_REACTORS
330
FFFFFF
102
}
330
FFFFFF
100
AcDbMaterial
  1
Global
 72
     0
 73
     2
 77
     0
 78
     2
171
     0
172
     2
175
     0
176
     2
179
     0
270
     2
274
     2
 94
      127
  0
MLEADERSTYLE
  5
1000020
102
{ACAD_REACTORS
330
100001F
102
}
330
100001F
100
AcDbMLeaderStyle
179
     2
170
     2
171
     1
172
     0
 90
        2
 40
0.0
 41
0.0
173
     1
 91
-1056964608
340
4
 92
       -2
290
     1
 42
0.4
291
     1
 43
2.0
  3
Standard
 44
0.18
300

342
12E
174
     1
178
     1
175
     1
176
     0
 93
-1056964608
 45
0.2
292
     0
297
     0
 46
5.0
 94
-1056964608
 47
1.0
 49
1.0
140
1.0
293
     1
141
0.0
294
     1
177
     0
142
1.0
295
     0
296
     0
143
0.125
271
     0
272
     9
273
     9
298
     0
  0
MLINESTYLE
  5
7
330
3DC
100
AcDbMlineStyle
  2
L_0_02
 70
     0
  3

 62
   256
 51
90.0
 52
90.0
 71
     1
 49
0.0
 62
   256
  6
CONTINUOUS
  0
MLINESTYLE
  5
3DF
102
{ACAD_REACTORS
330
3DC
102
}
330
3DC
100
AcDbMlineStyle
  2
Standard
 70
     0
  3

 62
   256
 51
90.0
 52
90.0
 71
     2
 49
0.5
 62
   256
  6
BYLAYER
 49
-0.5
 62
   256
  6
BYLAYER
  0
ACDBPLACEHOLDER
  5
E
330
3DE
  0
SCALE
  5
1000022
102
{ACAD_REACTORS
330
1000021
102
}
330
1000021
100
AcDbScale
 70
     0
300
1:1
140
1.0
141
1.0
290
     1
  0
SCALE
  5
1000023
102
{ACAD_REACTORS
330
1000021
102
}
330
1000021
100
AcDbScale
 70
     0
300
1:2
140
1.0
141
2.0
290
     0
  0
SCALE
  5
1000024
102
{ACAD_REACTORS
330
1000021
102
}
330
1000021
100
AcDbScale
 70
     0
300
1:4
140
1.0
141
4.0
290
     0
  0
SCALE
  5
1000025
102
{ACAD_REACTORS
330
1000021
102
}
330
1000021
100
AcDbScale
 70
     0
300
1:5
140
1.0
141
5.0
290
     0
  0
SCALE
  5
1000026
102
{ACAD_REACTORS
330
1000021
102
}
330
1000021
100
AcDbScale
 70
     0
300
1:8
140
1.0
141
8.0
290
     0
  0
SCALE
  5
1000027
102
{ACAD_REACTORS
330
1000021
102
}
330
1000021
100
AcDbScale
 70
     0
300
1:10
140
1.0
141
10.0
290
     0
  0
SCALE
  5
1000028
102
{ACAD_REACTORS
330
1000021
102
}
330
1000021
100
AcDbScale
 70
     0
300
1:16
140
1.0
141
16.0
290
     0
  0
SCALE
  5
1000029
102
{ACAD_REACTORS
330
1000021
102
}
330
1000021
100
AcDbScale
 70
     0
300
1:20
140
1.0
141
20.0
290
     0
  0
SCALE
  5
100002A
102
{ACAD_REACTORS
330
1000021
102
}
330
1000021
100
AcDbScale
 70
     0
300
1:30
140
1.0
141
30.0
290
     0
  0
SCALE
  5
100002B
102
{ACAD_REACTORS
330
1000021
102
}
330
1000021
100
AcDbScale
 70
     0
300
1:40
140
1.0
141
40.0
290
     0
  0
SCALE
  5
100002C
102
{ACAD_REACTORS
330
1000021
102
}
330
1000021
100
AcDbScale
 70
     0
300
1:50
140
1.0
141
50.0
290
     0
  0
SCALE
  5
100002D
102
{ACAD_REACTORS
330
1000021
102
}
330
1000021
100
AcDbScale
 70
     0
300
1:100
140
1.0
141
100.0
290
     0
  0
SCALE
  5
100002E
102
{ACAD_REACTORS
330
1000021
102
}
330
1000021
100
AcDbScale
 70
     0
300
2:1
140
2.0
141
1.0
290
     0
  0
SCALE
  5
100002F
102
{ACAD_REACTORS
330
1000021
102
}
330
1000021
100
AcDbScale
 70
     0
300
4:1
140
4.0
141
1.0
290
     0
  0
SCALE
  5
1000030
102
{ACAD_REACTORS
330
1000021
102
}
330
1000021
100
AcDbScale
 70
     0
300
8:1
140
8.0
141
1.0
290
     0
  0
SCALE
  5
1000031
102
{ACAD_REACTORS
330
1000021
102
}
330
1000021
100
AcDbScale
 70
     0
300
10:1
140
10.0
141
1.0
290
     0
  0
SCALE
  5
1000032
102
{ACAD_REACTORS
330
1000021
102
}
330
1000021
100
AcDbScale
 70
     0
300
100:1
140
100.0
141
1.0
290
     0
  0
TABLESTYLE
  5
100001E
102
{ACAD_REACTORS
330
100001D
102
}
330
100001D
100
AcDbTableStyle
  3
Standard
 70
     0
 71
     0
 40
1.5
 41
1.5
280
     0
281
     0
  7
STANDARD
140
4.5
170
     2
 62
     7
 63
   257
283
     0
 90
        4
 91
        0
  1

274
    -2
284
     1
 64
     0
275
    -2
285
     1
 65
     0
276
    -2
286
     1
 66
     0
277
    -2
287
     1
 67
     0
278
    -2
288
     1
 68
     0
279
    -2
289
     1
 69
     0
  7
STANDARD
140
6.0
170
     5
 62
     7
 63
   257
283
     0
 90
        4
 91
        0
  1

274
    -2
284
     1
 64
     0
275
    -2
285
     1
 65
     0
276
    -2
286
     1
 66
     0
277
    -2
287
     1
 67
     0
278
    -2
288
     1
 68
     0
279
    -2
289
     1
 69
     0
  7
STANDARD
140
4.5
170
     5
 62
     7
 63
   257
283
     0
 90
        4
 91
        0
  1

274
    -2
284
     1
 64
     0
275
    -2
285
     1
 65
     0
276
    -2
286
     1
 66
     0
277
    -2
287
     1
 67
     0
278
    -2
288
     1
 68
     0
279
    -2
289
     1
 69
     0
  0
VISUALSTYLE
  5
1000008
102
{ACAD_REACTORS
330
1000003
102
}
330
1000003
100
AcDbVisualStyle
  2
2dWireframe
 70
     4
177
     3
291
     0
 70
    58
 90
        0
176
     1
 90
        2
176
     1
 90
        0
176
     1
 90
        0
176
     1
 40
0.6
176
     1
 40
30.0
176
     1
 62
     7
420
 16777215
176
     1
 90
        1
176
     1
 90
        4
176
     1
 62
     7
176
     1
 62
   257
176
     1
 90
        1
176
     1
 90
        1
176
     1
 40
1.0
176
     1
 90
        0
176
     1
 62
   257
176
     1
 40
1.0
176
     1
 90
        1
176
     1
 90
        6
176
     1
 90
        2
176
     1
 62
     7
176
     1
 90
        5
176
     1
 90
        0
176
     1
 90
        0
176
     1
290
     0
176
     1
 90
        1
176
     1
 40
0.0
176
     1
 90
        0
176
     1
290
     1
176
     1
290
     1
176
     1
290
     0
176
     1
290
     0
176
     1
290
     0
176
     1
290
     0
176
     1
290
     0
176
     1
290
     0
176
     1
290
     0
176
     1
 90
       50
176
     1
 40
0.0
176
     1
 40
1.0
176
     1
 90
        0
176
     1
 62
    18
420
        0
176
     1
 90
       50
176
     1
 90
        3
176
     1
 62
     5
420
      255
176
     1
290
     0
176
     1
 90
       50
176
     1
 90
       50
176
     1
 90
       50
176
     1
290
     0
176
     1
 90
       50
176
     1
 62
   256
176
     0
 40
1.0
176
     0
 90
        2
176
     1
  1
strokes_ogs.tif
176
     1
290
     0
176
     1
 40
1.0
176
     1
 40
1.0
176
     1
  0
VISUALSTYLE
  5
100000B
102
{ACAD_REACTORS
330
1000003
102
}
330
1000003
100
AcDbVisualStyle
  2
Basic
 70
     7
177
     3
291
     1
 70
    58
 90
        1
176
     1
 90
        0
176
     1
 90
        1
176
     1
 90
        0
176
     1
 40
0.6
176
     1
 40
30.0
176
     1
 62
     7
420
 16777215
176
     1
 90
        0
176
     1
 90
        4
176
     1
 62
     7
176
     1
 62
   257
176
     1
 90
        1
176
     1
 90
        1
176
     1
 40
1.0
176
     1
 90
        8
176
     1
 62
     7
176
     1
 40
1.0
176
     1
 90
        1
176
     1
 90
        6
176
     1
 90
        2
176
     1
 62
     7
176
     1
 90
        5
176
     1
 90
        0
176
     1
 90
        0
176
     1
290
     0
176
     1
 90
        1
176
     1
 40
0.0
176
     1
 90
        0
176
     1
290
     0
176
     1
290
     1
176
     1
290
     1
176
     1
290
     0
176
     1
290
     0
176
     1
290
     0
176
     1
290
     0
176
     1
290
     0
176
     1
290
     0
176
     1
 90
       50
176
     1
 40
0.0
176
     1
 40
1.0
176
     1
 90
        0
176
     1
 62
    18
420
        0
176
     1
 90
       50
176
     1
 90
        3
176
     1
 62
     5
420
      255
176
     1
290
     0
176
     1
 90
       50
176
     1
 90
       50
176
     1
 90
       50
176
     1
290
     0
176
     1
 90
       50
176
     1
 62
   256
176
     0
 40
1.0
176
     0
 90
        2
176
     1
  1
strokes_ogs.tif
176
     1
290
     0
176
     1
 40
1.0
176
     1
 40
1.0
176
     1
  0
VISUALSTYLE
  5
100000F
102
{ACAD_REACTORS
330
1000003
102
}
330
1000003
100
AcDbVisualStyle
  2
Brighten
 70
    12
177
     3
291
     1
 70
    58
 90
        2
176
     1
 90
        2
176
     1
 90
        0
176
     1
 90
        0
176
     1
 40
0.6
176
     1
 40
30.0
176
     1
 62
     7
420
 16777215
176
     1
 90
        1
176
     1
 90
        4
176
     1
 62
     7
176
     1
 62
   257
176
     1
 90
        1
176
     1
 90
        1
176
     1
 40
1.0
176
     1
 90
        8
176
     1
 62
     7
176
     1
 40
1.0
176
     1
 90
        1
176
     1
 90
        6
176
     1
 90
        2
176
     1
 62
     7
176
     1
 90
        5
176
     1
 90
        0
176
     1
 90
        0
176
     1
290
     0
176
     1
 90
        1
176
     1
 40
50.0
176
     1
 90
        0
176
     1
290
     0
176
     1
290
     1
176
     1
290
     1
176
     1
290
     0
176
     1
290
     0
176
     1
290
     0
176
     1
290
     0
176
     1
290
     0
176
     1
290
     0
176
     1
 90
       50
176
     1
 40
0.0
176
     1
 40
1.0
176
     1
 90
        0
176
     1
 62
    18
420
        0
176
     1
 90
       50
176
     1
 90
        3
176
     1
 62
     5
420
      255
176
     1
290
     0
176
     1
 90
       50
176
     1
 90
       50
176
     1
 90
       50
176
     1
290
     0
176
     1
 90
       50
176
     1
 62
   256
176
     0
 40
1.0
176
     0
 90
        2
176
     1
  1
strokes_ogs.tif
176
     1
290
     0
176
     1
 40
1.0
176
     1
 40
1.0
176
     1
  0
VISUALSTYLE
  5
1000013
102
{ACAD_REACTORS
330
1000003
102
}
330
1000003
100
AcDbVisualStyle
  2
ColorChange
 70
    16
177
     3
291
     1
 70
    58
 90
        2
176
     1
 90
        2
176
     1
 90
        3
176
     1
 90
        0
176
     1
 40
0.6
176
     1
 40
30.0
176
     1
 62
     8
420
  8421504
176
     1
 90
        1
176
     1
 90
        4
176
     1
 62
     7
176
     1
 62
   257
176
     1
 90
        1
176
     1
 90
        1
176
     1
 40
1.0
176
     1
 90
        8
176
     1
 62
     8
420
  8421504
176
     1
 40
1.0
176
     1
 90
        1
176
     1
 90
        6
176
     1
 90
        2
176
     1
 62
     7
176
     1
 90
        5
176
     1
 90
        0
176
     1
 90
        0
176
     1
290
     0
176
     1
 90
        1
176
     1
 40
0.0
176
     1
 90
        0
176
     1
290
     0
176
     1
290
     1
176
     1
290
     1
176
     1
290
     0
176
     1
290
     0
176
     1
290
     0
176
     1
290
     0
176
     1
290
     0
176
     1
290
     0
176
     1
 90
       50
176
     1
 40
0.0
176
     1
 40
1.0
176
     1
 90
        0
176
     1
 62
    18
420
        0
176
     1
 90
       50
176
     1
 90
        3
176
     1
 62
     5
420
      255
176
     1
290
     0
176
     1
 90
       50
176
     1
 90
       50
176
     1
 90
       50
176
     1
290
     0
176
     1
 90
       50
176
     1
 62
   256
176
     0
 40
1.0
176
     0
 90
        2
176
     1
  1
strokes_ogs.tif
176
     1
290
     0
176
     1
 40
1.0
176
     1
 40
1.0
176
     1
  0
VISUALSTYLE
  5
100000D
102
{ACAD_REACTORS
330
1000003
102
}
330
1000003
100
AcDbVisualStyle
  2
Conceptual
 70
     9
177
     3
291
     0
 70
    58
 90
        3
176
     1
 90
        2
176
     1
 90
        0
176
     1
 90
        0
176
     1
 40
0.6
176
     1
 40
30.0
176
     1
 62
     7
420
 16777215
176
     1
 90
        2
176
     1
 90
        2
176
     1
 62
     7
176
     1
 62
   257
176
     1
 90
        1
176
     1
 90
        1
176
     1
 40
179.0
176
     1
 90
        8
176
     1
 62
     7
176
     1
 40
1.0
176
     1
 90
        1
176
     1
 90
        6
176
     1
 90
        2
176
     1
 62
     7
176
     1
 90
        3
176
     1
 90
        0
176
     1
 90
        0
176
     1
290
     0
176
     1
 90
        1
176
     1
 40
0.0
176
     1
 90
        0
176
     1
290
     0
176
     1
290
     1
176
     1
290
     1
176
     1
290
     0
176
     1
290
     0
176
     1
290
     0
176
     1
290
     0
176
     1
290
     0
176
     1
290
     0
176
     1
 90
       50
176
     1
 40
0.0
176
     1
 40
1.0
176
     1
 90
        0
176
     1
 62
    18
420
        0
176
     1
 90
       50
176
     1
 90
        3
176
     1
 62
     5
420
      255
176
     1
290
     0
176
     1
 90
       50
176
     1
 90
       50
176
     1
 90
       50
176
     1
290
     0
176
     1
 90
       50
176
     1
 62
   256
176
     0
 40
1.0
176
     0
 90
        2
176
     1
  1
strokes_ogs.tif
176
     1
290
     0
176
     1
 40
1.0
176
     1
 40
1.0
176
     1
  0
VISUALSTYLE
  5
100000E
102
{ACAD_REACTORS
330
1000003
102
}
330
1000003
100
AcDbVisualStyle
  2
Dim
 70
    11
177
     3
291
     1
 70
    58
 90
        2
176
     1
 90
        2
176
     1
 90
        0
176
     1
 90
        0
176
     1
 40
0.6
176
     1
 40
30.0
176
     1
 62
     7
420
 16777215
176
     1
 90
        1
176
     1
 90
        4
176
     1
 62
     7
176
     1
 62
   257
176
     1
 90
        1
176
     1
 90
        1
176
     1
 40
1.0
176
     1
 90
        8
176
     1
 62
     7
176
     1
 40
1.0
176
     1
 90
        1
176
     1
 90
        6
176
     1
 90
        2
176
     1
 62
     7
176
     1
 90
        5
176
     1
 90
        0
176
     1
 90
        0
176
     1
290
     0
176
     1
 90
        1
176
     1
 40
-50.0
176
     1
 90
        0
176
     1
290
     0
176
     1
290
     1
176
     1
290
     1
176
     1
290
     0
176
     1
290
     0
176
     1
290
     0
176
     1
290
     0
176
     1
290
     0
176
     1
290
     0
176
     1
 90
       50
176
     1
 40
0.0
176
     1
 40
1.0
176
     1
 90
        0
176
     1
 62
    18
420
        0
176
     1
 90
       50
176
     1
 90
        3
176
     1
 62
     5
420
      255
176
     1
290
     0
176
     1
 90
       50
176
     1
 90
       50
176
     1
 90
       50
176
     1
290
     0
176
     1
 90
       50
176
     1
 62
   256
176
     0
 40
1.0
176
     0
 90
        2
176
     1
  1
strokes_ogs.tif
176
     1
290
     0
176
     1
 40
1.0
176
     1
 40
1.0
176
     1
  0
VISUALSTYLE
  5
1000016
102
{ACAD_REACTORS
330
1000003
102
}
330
1000003
100
AcDbVisualStyle
  2
EdgeColorOff
 70
    22
177
     3
291
     1
 70
    58
 90
        2
176
     0
 90
        2
176
     0
 90
        0
176
     0
 90
        0
176
     0
 40
0.6
176
     0
 40
30.0
176
     0
 62
     7
420
 16777215
176
     0
 90
        1
176
     0
 90
        4
176
     0
 62
     7
176
     0
 62
   257
176
     0
 90
        1
176
     0
 90
        1
176
     0
 40
1.0
176
     0
 90
        8
176
     2
 62
     7
176
     0
 40
1.0
176
     0
 90
        1
176
     0
 90
        6
176
     0
 90
        2
176
     0
 62
     7
176
     0
 90
        5
176
     0
 90
        0
176
     0
 90
        0
176
     0
290
     0
176
     0
 90
        1
176
     0
 40
0.0
176
     0
 90
        0
176
     0
290
     0
176
     0
290
     1
176
     0
290
     1
176
     0
290
     0
176
     0
290
     0
176
     0
290
     0
176
     0
290
     0
176
     0
290
     0
176
     0
290
     0
176
     0
 90
       50
176
     0
 40
0.0
176
     0
 40
1.0
176
     0
 90
        0
176
     0
 62
    18
420
        0
176
     0
 90
       50
176
     0
 90
        3
176
     0
 62
     5
420
      255
176
     0
290
     0
176
     0
 90
       50
176
     0
 90
       50
176
     0
 90
       50
176
     0
290
     0
176
     0
 90
       50
176
     0
 62
   256
176
     0
 40
1.0
176
     0
 90
        2
176
     0
  1
strokes_ogs.tif
176
     0
290
     0
176
     0
 40
1.0
176
     0
 40
1.0
176
     0
  0
VISUALSTYLE
  5
1000012
102
{ACAD_REACTORS
330
1000003
102
}
330
1000003
100
AcDbVisualStyle
  2
Facepattern
 70
    15
177
     3
291
     1
 70
    58
 90
        2
176
     1
 90
        2
176
     1
 90
        0
176
     1
 90
        0
176
     1
 40
0.6
176
     1
 40
30.0
176
     1
 62
     7
420
 16777215
176
     1
 90
        1
176
     1
 90
        4
176
     1
 62
     7
176
     1
 62
   257
176
     1
 90
        1
176
     1
 90
        1
176
     1
 40
1.0
176
     1
 90
        8
176
     1
 62
     7
176
     1
 40
1.0
176
     1
 90
        1
176
     1
 90
        6
176
     1
 90
        2
176
     1
 62
     7
176
     1
 90
        5
176
     1
 90
        0
176
     1
 90
        0
176
     1
290
     0
176
     1
 90
        1
176
     1
 40
0.0
176
     1
 90
        0
176
     1
290
     0
176
     1
290
     1
176
     1
290
     1
176
     1
290
     0
176
     1
290
     0
176
     1
290
     0
176
     1
290
     0
176
     1
290
     0
176
     1
290
     0
176
     1
 90
       50
176
     1
 40
0.0
176
     1
 40
1.0
176
     1
 90
        0
176
     1
 62
    18
420
        0
176
     1
 90
       50
176
     1
 90
        3
176
     1
 62
     5
420
      255
176
     1
290
     0
176
     1
 90
       50
176
     1
 90
       50
176
     1
 90
       50
176
     1
290
     0
176
     1
 90
       50
176
     1
 62
   256
176
     0
 40
1.0
176
     0
 90
        2
176
     1
  1
strokes_ogs.tif
176
     1
290
     0
176
     1
 40
1.0
176
     1
 40
1.0
176
     1
  0
VISUALSTYLE
  5
1000004
102
{ACAD_REACTORS
330
1000003
102
}
330
1000003
100
AcDbVisualStyle
  2
Flat
 70
     0
177
     3
291
     1
 70
    58
 90
        2
176
     1
 90
        1
176
     1
 90
        1
176
     1
 90
        2
176
     1
 40
0.6
176
     1
 40
30.0
176
     1
 62
     7
420
 16777215
176
     1
 90
        0
176
     1
 90
        0
176
     1
 62
     7
176
     1
 62
   257
176
     1
 90
        1
176
     1
 90
        1
176
     1
 40
1.0
176
     1
 90
        8
176
     1
 62
     7
176
     1
 40
1.0
176
     1
 90
        1
176
     1
 90
        6
176
     1
 90
        2
176
     1
 62
     7
176
     1
 90
        5
176
     1
 90
        0
176
     1
 90
        0
176
     1
290
     0
176
     1
 90
       13
176
     1
 40
0.0
176
     1
 90
        0
176
     1
290
     0
176
     1
290
     1
176
     1
290
     1
176
     1
290
     0
176
     1
290
     0
176
     1
290
     0
176
     1
290
     0
176
     1
290
     0
176
     1
290
     0
176
     1
 90
       50
176
     1
 40
0.0
176
     1
 40
1.0
176
     1
 90
        0
176
     1
 62
    18
420
        0
176
     1
 90
       50
176
     1
 90
        3
176
     1
 62
     5
420
      255
176
     1
290
     0
176
     1
 90
       50
176
     1
 90
       50
176
     1
 90
       50
176
     1
290
     0
176
     1
 90
       50
176
     1
 62
   256
176
     0
 40
1.0
176
     0
 90
        2
176
     1
  1
strokes_ogs.tif
176
     1
290
     0
176
     1
 40
1.0
176
     1
 40
1.0
176
     1
  0
VISUALSTYLE
  5
1000005
102
{ACAD_REACTORS
330
1000003
102
}
330
1000003
100
AcDbVisualStyle
  2
FlatWithEdges
 70
     1
177
     3
291
     1
 70
    58
 90
        2
176
     1
 90
        1
176
     1
 90
        1
176
     1
 90
        2
176
     1
 40
0.6
176
     1
 40
30.0
176
     1
 62
     7
420
 16777215
176
     1
 90
        1
176
     1
 90
        0
176
     1
 62
     7
176
     1
 62
   257
176
     1
 90
        1
176
     1
 90
        1
176
     1
 40
1.0
176
     1
 90
        0
176
     1
 62
   257
176
     1
 40
1.0
176
     1
 90
        1
176
     1
 90
        6
176
     1
 90
        2
176
     1
 62
     7
176
     1
 90
        5
176
     1
 90
        0
176
     1
 90
        0
176
     1
290
     0
176
     1
 90
       13
176
     1
 40
0.0
176
     1
 90
        0
176
     1
290
     0
176
     1
290
     1
176
     1
290
     1
176
     1
290
     0
176
     1
290
     0
176
     1
290
     0
176
     1
290
     0
176
     1
290
     0
176
     1
290
     0
176
     1
 90
       50
176
     1
 40
0.0
176
     1
 40
1.0
176
     1
 90
        0
176
     1
 62
    18
420
        0
176
     1
 90
       50
176
     1
 90
        3
176
     1
 62
     5
420
      255
176
     1
290
     0
176
     1
 90
       50
176
     1
 90
       50
176
     1
 90
       50
176
     1
290
     0
176
     1
 90
       50
176
     1
 62
   256
176
     0
 40
1.0
176
     0
 90
        2
176
     1
  1
strokes_ogs.tif
176
     1
290
     0
176
     1
 40
1.0
176
     1
 40
1.0
176
     1
  0
VISUALSTYLE
  5
1000006
102
{ACAD_REACTORS
330
1000003
102
}
330
1000003
100
AcDbVisualStyle
  2
Gouraud
 70
     2
177
     3
291
     1
 70
    58
 90
        2
176
     1
 90
        2
176
     1
 90
        1
176
     1
 90
        2
176
     1
 40
0.6
176
     1
 40
30.0
176
     1
 62
     7
420
 16777215
176
     1
 90
        0
176
     1
 90
        0
176
     1
 62
     7
176
     1
 62
   257
176
     1
 90
        1
176
     1
 90
        1
176
     1
 40
1.0
176
     1
 90
        0
176
     1
 62
     7
176
     1
 40
1.0
176
     1
 90
        1
176
     1
 90
        6
176
     1
 90
        2
176
     1
 62
     7
176
     1
 90
        5
176
     1
 90
        0
176
     1
 90
        0
176
     1
290
     0
176
     1
 90
       13
176
     1
 40
0.0
176
     1
 90
        0
176
     1
290
     0
176
     1
290
     1
176
     1
290
     1
176
     1
290
     0
176
     1
290
     0
176
     1
290
     0
176
     1
290
     0
176
     1
290
     0
176
     1
290
     0
176
     1
 90
       50
176
     1
 40
0.0
176
     1
 40
1.0
176
     1
 90
        0
176
     1
 62
    18
420
        0
176
     1
 90
       50
176
     1
 90
        3
176
     1
 62
     5
420
      255
176
     1
290
     0
176
     1
 90
       50
176
     1
 90
       50
176
     1
 90
       50
176
     1
290
     0
176
     1
 90
       50
176
     1
 62
   256
176
     0
 40
1.0
176
     0
 90
        2
176
     1
  1
strokes_ogs.tif
176
     1
290
     0
176
     1
 40
1.0
176
     1
 40
1.0
176
     1
  0
VISUALSTYLE
  5
1000007
102
{ACAD_REACTORS
330
1000003
102
}
330
1000003
100
AcDbVisualStyle
  2
GouraudWithEdges
 70
     3
177
     3
291
     1
 70
    58
 90
        2
176
     1
 90
        2
176
     1
 90
        1
176
     1
 90
        2
176
     1
 40
0.6
176
     1
 40
30.0
176
     1
 62
     7
420
 16777215
176
     1
 90
        1
176
     1
 90
        0
176
     1
 62
     7
176
     1
 62
   257
176
     1
 90
        1
176
     1
 90
        1
176
     1
 40
1.0
176
     1
 90
        0
176
     1
 62
   257
176
     1
 40
1.0
176
     1
 90
        1
176
     1
 90
        6
176
     1
 90
        2
176
     1
 62
     7
176
     1
 90
        5
176
     1
 90
        0
176
     1
 90
        0
176
     1
290
     0
176
     1
 90
       13
176
     1
 40
0.0
176
     1
 90
        0
176
     1
290
     0
176
     1
290
     1
176
     1
290
     1
176
     1
290
     0
176
     1
290
     0
176
     1
290
     0
176
     1
290
     0
176
     1
290
     0
176
     1
290
     0
176
     1
 90
       50
176
     1
 40
0.0
176
     1
 40
1.0
176
     1
 90
        0
176
     1
 62
    18
420
        0
176
     1
 90
       50
176
     1
 90
        3
176
     1
 62
     5
420
      255
176
     1
290
     0
176
     1
 90
       50
176
     1
 90
       50
176
     1
 90
       50
176
     1
290
     0
176
     1
 90
       50
176
     1
 62
   256
176
     0
 40
1.0
176
     0
 90
        2
176
     1
  1
strokes_ogs.tif
176
     1
290
     0
176
     1
 40
1.0
176
     1
 40
1.0
176
     1
  0
VISUALSTYLE
  5
100000A
102
{ACAD_REACTORS
330
1000003
102
}
330
1000003
100
AcDbVisualStyle
  2
Hidden
 70
     6
177
     3
291
     0
 70
    58
 90
        1
176
     1
 90
        2
176
     1
 90
        2
176
     1
 90
        0
176
     1
 40
0.6
176
     1
 40
30.0
176
     1
 62
     7
420
 16777215
176
     1
 90
        2
176
     1
 90
        2
176
     1
 62
     7
176
     1
 62
   257
176
     1
 90
        2
176
     1
 90
        1
176
     1
 40
40.0
176
     1
 90
        0
176
     1
 62
   257
176
     1
 40
1.0
176
     1
 90
        1
176
     1
 90
        6
176
     1
 90
        2
176
     1
 62
     7
176
     1
 90
        3
176
     1
 90
        0
176
     1
 90
        0
176
     1
290
     0
176
     1
 90
        1
176
     1
 40
0.0
176
     1
 90
        0
176
     1
290
     0
176
     1
290
     1
176
     1
290
     1
176
     1
290
     0
176
     1
290
     0
176
     1
290
     0
176
     1
290
     0
176
     1
290
     0
176
     1
290
     0
176
     1
 90
       50
176
     1
 40
0.0
176
     1
 40
1.0
176
     1
 90
        0
176
     1
 62
    18
420
        0
176
     1
 90
       50
176
     1
 90
        3
176
     1
 62
     5
420
      255
176
     1
290
     0
176
     1
 90
       50
176
     1
 90
       50
176
     1
 90
       50
176
     1
290
     0
176
     1
 90
       50
176
     1
 62
   256
176
     0
 40
1.0
176
     0
 90
        2
176
     1
  1
strokes_ogs.tif
176
     1
290
     0
176
     1
 40
1.0
176
     1
 40
1.0
176
     1
  0
VISUALSTYLE
  5
1000014
102
{ACAD_REACTORS
330
1000003
102
}
330
1000003
100
AcDbVisualStyle
  2
JitterOff
 70
    20
177
     3
291
     1
 70
    58
 90
        2
176
     0
 90
        2
176
     0
 90
        0
176
     0
 90
        0
176
     0
 40
0.6
176
     0
 40
30.0
176
     0
 62
     7
420
 16777215
176
     0
 90
        1
176
     0
 90
        4
176
     0
 62
     7
176
     0
 62
   257
176
     0
 90
        1
176
     0
 90
        1
176
     0
 40
1.0
176
     0
 90
       10
176
     2
 62
     7
176
     0
 40
1.0
176
     0
 90
        1
176
     0
 90
        6
176
     0
 90
        2
176
     0
 62
     7
176
     0
 90
        5
176
     0
 90
        0
176
     0
 90
        0
176
     0
290
     0
176
     0
 90
        1
176
     0
 40
0.0
176
     0
 90
        0
176
     0
290
     0
176
     0
290
     1
176
     0
290
     1
176
     0
290
     0
176
     0
290
     0
176
     0
290
     0
176
     0
290
     0
176
     0
290
     0
176
     0
290
     0
176
     0
 90
       50
176
     0
 40
0.0
176
     0
 40
1.0
176
     0
 90
        0
176
     0
 62
    18
420
        0
176
     0
 90
       50
176
     0
 90
        3
176
     0
 62
     5
420
      255
176
     0
290
     0
176
     0
 90
       50
176
     0
 90
       50
176
     0
 90
       50
176
     0
290
     0
176
     0
 90
       50
176
     0
 62
   256
176
     0
 40
1.0
176
     0
 90
        2
176
     0
  1
strokes_ogs.tif
176
     0
290
     0
176
     0
 40
1.0
176
     0
 40
1.0
176
     0
  0
VISUALSTYLE
  5
1000011
102
{ACAD_REACTORS
330
1000003
102
}
330
1000003
100
AcDbVisualStyle
  2
Linepattern
 70
    14
177
     3
291
     1
 70
    58
 90
        2
176
     1
 90
        2
176
     1
 90
        0
176
     1
 90
        0
176
     1
 40
0.6
176
     1
 40
30.0
176
     1
 62
     7
420
 16777215
176
     1
 90
        1
176
     1
 90
        4
176
     1
 62
     7
176
     1
 62
   257
176
     1
 90
        7
176
     1
 90
        7
176
     1
 40
1.0
176
     1
 90
        8
176
     1
 62
     7
176
     1
 40
1.0
176
     1
 90
        1
176
     1
 90
        6
176
     1
 90
        2
176
     1
 62
     7
176
     1
 90
        5
176
     1
 90
        0
176
     1
 90
        0
176
     1
290
     0
176
     1
 90
        1
176
     1
 40
0.0
176
     1
 90
        0
176
     1
290
     0
176
     1
290
     1
176
     1
290
     1
176
     1
290
     0
176
     1
290
     0
176
     1
290
     0
176
     1
290
     0
176
     1
290
     0
176
     1
290
     0
176
     1
 90
       50
176
     1
 40
0.0
176
     1
 40
1.0
176
     1
 90
        0
176
     1
 62
    18
420
        0
176
     1
 90
       50
176
     1
 90
        3
176
     1
 62
     5
420
      255
176
     1
290
     0
176
     1
 90
       50
176
     1
 90
       50
176
     1
 90
       50
176
     1
290
     0
176
     1
 90
       50
176
     1
 62
   256
176
     0
 40
1.0
176
     0
 90
        2
176
     1
  1
strokes_ogs.tif
176
     1
290
     0
176
     1
 40
1.0
176
     1
 40
1.0
176
     1
  0
VISUALSTYLE
  5
1000015
102
{ACAD_REACTORS
330
1000003
102
}
330
1000003
100
AcDbVisualStyle
  2
OverhangOff
 70
    21
177
     3
291
     1
 70
    58
 90
        2
176
     0
 90
        2
176
     0
 90
        0
176
     0
 90
        0
176
     0
 40
0.6
176
     0
 40
30.0
176
     0
 62
     7
420
 16777215
176
     0
 90
        1
176
     0
 90
        4
176
     0
 62
     7
176
     0
 62
   257
176
     0
 90
        1
176
     0
 90
        1
176
     0
 40
1.0
176
     0
 90
        9
176
     2
 62
     7
176
     0
 40
1.0
176
     0
 90
        1
176
     0
 90
        6
176
     0
 90
        2
176
     0
 62
     7
176
     0
 90
        5
176
     0
 90
        0
176
     0
 90
        0
176
     0
290
     0
176
     0
 90
        1
176
     0
 40
0.0
176
     0
 90
        0
176
     0
290
     0
176
     0
290
     1
176
     0
290
     1
176
     0
290
     0
176
     0
290
     0
176
     0
290
     0
176
     0
290
     0
176
     0
290
     0
176
     0
290
     0
176
     0
 90
       50
176
     0
 40
0.0
176
     0
 40
1.0
176
     0
 90
        0
176
     0
 62
    18
420
        0
176
     0
 90
       50
176
     0
 90
        3
176
     0
 62
     5
420
      255
176
     0
290
     0
176
     0
 90
       50
176
     0
 90
       50
176
     0
 90
       50
176
     0
290
     0
176
     0
 90
       50
176
     0
 62
   256
176
     0
 40
1.0
176
     0
 90
        2
176
     0
  1
strokes_ogs.tif
176
     0
290
     0
176
     0
 40
1.0
176
     0
 40
1.0
176
     0
  0
VISUALSTYLE
  5
100000C
102
{ACAD_REACTORS
330
1000003
102
}
330
1000003
100
AcDbVisualStyle
  2
Realistic
 70
     8
177
     3
291
     0
 70
    58
 90
        2
176
     1
 90
        3
176
     1
 90
        0
176
     1
 90
        2
176
     1
 40
0.6
176
     1
 40
30.0
176
     1
 62
     7
420
 16777215
176
     1
 90
        0
176
     1
 90
        0
176
     1
 62
     7
176
     1
 62
   257
176
     1
 90
        1
176
     1
 90
        1
176
     1
 40
1.0
176
     1
 90
        8
176
     1
 62
   257
176
     1
 40
1.0
176
     1
 90
        1
176
     1
 90
        6
176
     1
 90
        2
176
     1
 62
     7
176
     1
 90
        3
176
     1
 90
        0
176
     1
 90
        0
176
     1
290
     0
176
     1
 90
       13
176
     1
 40
0.0
176
     1
 90
        0
176
     1
290
     0
176
     1
290
     1
176
     1
290
     1
176
     1
290
     0
176
     1
290
     0
176
     1
290
     0
176
     1
290
     0
176
     1
290
     0
176
     1
290
     0
176
     1
 90
       50
176
     1
 40
0.0
176
     1
 40
1.0
176
     1
 90
        0
176
     1
 62
    18
420
        0
176
     1
 90
       50
176
     1
 90
        3
176
     1
 62
     5
420
      255
176
     1
290
     0
176
     1
 90
       50
176
     1
 90
       50
176
     1
 90
       50
176
     1
290
     0
176
     1
 90
       50
176
     1
 62
   256
176
     0
 40
1.0
176
     0
 90
        2
176
     1
  1
strokes_ogs.tif
176
     1
290
     0
176
     1
 40
1.0
176
     1
 40
1.0
176
     1
  0
VISUALSTYLE
  5
100001B
102
{ACAD_REACTORS
330
1000003
102
}
330
1000003
100
AcDbVisualStyle
  2
Shaded
 70
    27
177
     3
291
     0
 70
    58
 90
        2
176
     1
 90
        2
176
     1
 90
        1
176
     1
 90
        2
176
     1
 40
0.6
176
     1
 40
30.0
176
     1
 62
     7
420
 16777215
176
     1
 90
        0
176
     1
 90
        4
176
     1
 62
     7
176
     1
 62
   257
176
     1
 90
        1
176
     1
 90
        1
176
     1
 40
1.0
176
     1
 90
        8
176
     1
 62
   257
176
     1
 40
1.0
176
     1
 90
        1
176
     1
 90
        6
176
     1
 90
        2
176
     1
 62
     8
420
  7895160
176
     1
 90
        3
176
     1
 90
        0
176
     1
 90
        0
176
     1
290
     0
176
     1
 90
        5
176
     1
 40
0.0
176
     1
 90
        0
176
     1
290
     0
176
     1
290
     1
176
     1
290
     1
176
     1
290
     0
176
     1
290
     0
176
     1
290
     0
176
     1
290
     0
176
     1
290
     0
176
     1
290
     0
176
     1
 90
       50
176
     1
 40
0.0
176
     1
 40
1.0
176
     1
 90
        0
176
     1
 62
    18
420
        0
176
     1
 90
       50
176
     1
 90
        3
176
     1
 62
     5
420
      255
176
     1
290
     0
176
     1
 90
       50
176
     1
 90
       50
176
     1
 90
       50
176
     1
290
     0
176
     1
 90
       50
176
     1
 62
   256
176
     0
 40
1.0
176
     0
 90
        2
176
     1
  1
strokes_ogs.tif
176
     1
290
     0
176
     1
 40
1.0
176
     1
 40
1.0
176
     1
  0
VISUALSTYLE
  5
100001A
102
{ACAD_REACTORS
330
1000003
102
}
330
1000003
100
AcDbVisualStyle
  2
Shaded with edges
 70
    26
177
     3
291
     0
 70
    58
 90
        2
176
     1
 90
        2
176
     1
 90
        1
176
     1
 90
        2
176
     1
 40
0.6
176
     1
 40
30.0
176
     1
 62
     7
420
 16777215
176
     1
 90
        1
176
     1
 90
       10
176
     1
 62
     7
176
     1
 62
   257
176
     1
 90
        2
176
     1
 90
        1
176
     1
 40
1.0
176
     1
 90
        8
176
     1
 62
   257
176
     1
 40
1.0
176
     1
 90
        1
176
     1
 90
        6
176
     1
 90
        2
176
     1
 62
     7
176
     1
 90
        3
176
     1
 90
        0
176
     1
 90
        0
176
     1
290
     0
176
     1
 90
        5
176
     1
 40
0.0
176
     1
 90
        0
176
     1
290
     0
176
     1
290
     1
176
     1
290
     1
176
     1
290
     0
176
     1
290
     0
176
     1
290
     0
176
     1
290
     0
176
     1
290
     0
176
     1
290
     0
176
     1
 90
       50
176
     1
 40
0.0
176
     1
 40
1.0
176
     1
 90
        0
176
     1
 62
    18
420
        0
176
     1
 90
       50
176
     1
 90
        3
176
     1
 62
     5
420
      255
176
     1
290
     0
176
     1
 90
       50
176
     1
 90
       50
176
     1
 90
       50
176
     1
290
     0
176
     1
 90
       50
176
     1
 62
   256
176
     0
 40
1.0
176
     0
 90
        2
176
     1
  1
strokes_ogs.tif
176
     1
290
     0
176
     1
 40
1.0
176
     1
 40
1.0
176
     1
  0
VISUALSTYLE
  5
1000017
102
{ACAD_REACTORS
330
1000003
102
}
330
1000003
100
AcDbVisualStyle
  2
Shades of Gray
 70
    23
177
     3
291
     0
 70
    58
 90
        2
176
     1
 90
        2
176
     1
 90
        3
176
     1
 90
        0
176
     1
 40
0.6
176
     1
 40
30.0
176
     1
 62
     7
420
 16777215
176
     1
 90
        2
176
     1
 90
        2
176
     1
 62
     7
176
     1
 62
     7
176
     1
 90
        1
176
     1
 90
        1
176
     1
 40
40.0
176
     1
 90
        8
176
     1
 62
     7
176
     1
 40
1.0
176
     1
 90
        1
176
     1
 90
        6
176
     1
 90
        2
176
     1
 62
     7
176
     1
 90
        3
176
     1
 90
        0
176
     1
 90
        0
176
     1
290
     0
176
     1
 90
        1
176
     1
 40
0.0
176
     1
 90
        0
176
     1
290
     0
176
     1
290
     1
176
     1
290
     1
176
     1
290
     0
176
     1
290
     0
176
     1
290
     0
176
     1
290
     0
176
     1
290
     0
176
     1
290
     0
176
     1
 90
       50
176
     1
 40
0.0
176
     1
 40
1.0
176
     1
 90
        0
176
     1
 62
    18
420
        0
176
     1
 90
       50
176
     1
 90
        3
176
     1
 62
     5
420
      255
176
     1
290
     0
176
     1
 90
       50
176
     1
 90
       50
176
     1
 90
       50
176
     1
290
     0
176
     1
 90
       50
176
     1
 62
   256
176
     0
 40
1.0
176
     0
 90
        2
176
     1
  1
strokes_ogs.tif
176
     1
290
     0
176
     1
 40
1.0
176
     1
 40
1.0
176
     1
  0
VISUALSTYLE
  5
1000018
102
{ACAD_REACTORS
330
1000003
102
}
330
1000003
100
AcDbVisualStyle
  2
Sketchy
 70
    24
177
     3
291
     0
 70
    58
 90
        1
176
     1
 90
        2
176
     1
 90
        2
176
     1
 90
        0
176
     1
 40
0.6
176
     1
 40
30.0
176
     1
 62
     7
420
 16777215
176
     1
 90
        2
176
     1
 90
        2
176
     1
 62
     7
176
     1
 62
     7
176
     1
 90
        1
176
     1
 90
        1
176
     1
 40
40.0
176
     1
 90
       11
176
     1
 62
     7
176
     1
 40
1.0
176
     1
 90
        1
176
     1
 90
        6
176
     1
 90
        2
176
     1
 62
     7
176
     1
 90
        6
176
     1
 90
        0
176
     1
 90
        0
176
     1
290
     0
176
     1
 90
        1
176
     1
 40
0.0
176
     1
 90
        0
176
     1
290
     0
176
     1
290
     1
176
     1
290
     1
176
     1
290
     0
176
     1
290
     0
176
     1
290
     0
176
     1
290
     0
176
     1
290
     0
176
     1
290
     0
176
     1
 90
       50
176
     1
 40
0.0
176
     1
 40
1.0
176
     1
 90
        0
176
     1
 62
    18
420
        0
176
     1
 90
       50
176
     1
 90
        3
176
     1
 62
     5
420
      255
176
     1
290
     0
176
     1
 90
       50
176
     1
 90
       50
176
     1
 90
       50
176
     1
290
     0
176
     1
 90
       50
176
     1
 62
   256
176
     0
 40
1.0
176
     0
 90
        2
176
     1
  1
strokes_ogs.tif
176
     1
290
     0
176
     1
 40
1.0
176
     1
 40
1.0
176
     1
  0
VISUALSTYLE
  5
1000010
102
{ACAD_REACTORS
330
1000003
102
}
330
1000003
100
AcDbVisualStyle
  2
Thicken
 70
    13
177
     3
291
     1
 70
    58
 90
        2
176
     1
 90
        2
176
     1
 90
        0
176
     1
 90
        0
176
     1
 40
0.6
176
     1
 40
30.0
176
     1
 62
     7
420
 16777215
176
     1
 90
        1
176
     1
 90
        4
176
     1
 62
     7
176
     1
 62
   257
176
     1
 90
        1
176
     1
 90
        1
176
     1
 40
1.0
176
     1
 90
       12
176
     1
 62
     7
176
     1
 40
1.0
176
     1
 90
        1
176
     1
 90
        6
176
     1
 90
        2
176
     1
 62
     7
176
     1
 90
        5
176
     1
 90
        0
176
     1
 90
        0
176
     1
290
     0
176
     1
 90
        1
176
     1
 40
0.0
176
     1
 90
        0
176
     1
290
     0
176
     1
290
     1
176
     1
290
     1
176
     1
290
     0
176
     1
290
     0
176
     1
290
     0
176
     1
290
     0
176
     1
290
     0
176
     1
290
     0
176
     1
 90
       50
176
     1
 40
0.0
176
     1
 40
1.0
176
     1
 90
        0
176
     1
 62
    18
420
        0
176
     1
 90
       50
176
     1
 90
        3
176
     1
 62
     5
420
      255
176
     1
290
     0
176
     1
 90
       50
176
     1
 90
       50
176
     1
 90
       50
176
     1
290
     0
176
     1
 90
       50
176
     1
 62
   256
176
     0
 40
1.0
176
     0
 90
        2
176
     1
  1
strokes_ogs.tif
176
     1
290
     0
176
     1
 40
1.0
176
     1
 40
1.0
176
     1
  0
VISUALSTYLE
  5
1000009
102
{ACAD_REACTORS
330
1000003
102
}
330
1000003
100
AcDbVisualStyle
  2
Wireframe
 70
     5
177
     3
291
     0
 70
    58
 90
        0
176
     1
 90
        2
176
     1
 90
        0
176
     1
 90
        0
176
     1
 40
0.6
176
     1
 40
30.0
176
     1
 62
     7
420
 16777215
176
     1
 90
        1
176
     1
 90
        4
176
     1
 62
     7
176
     1
 62
   257
176
     1
 90
        1
176
     1
 90
        1
176
     1
 40
1.0
176
     1
 90
        0
176
     1
 62
   257
176
     1
 40
1.0
176
     1
 90
        1
176
     1
 90
        6
176
     1
 90
        2
176
     1
 62
     7
176
     1
 90
        3
176
     1
 90
        0
176
     1
 90
        0
176
     1
290
     0
176
     1
 90
        1
176
     1
 40
0.0
176
     1
 90
        0
176
     1
290
     0
176
     1
290
     1
176
     1
290
     1
176
     1
290
     0
176
     1
290
     0
176
     1
290
     0
176
     1
290
     0
176
     1
290
     0
176
     1
290
     0
176
     1
 90
       50
176
     1
 40
0.0
176
     1
 40
1.0
176
     1
 90
        0
176
     1
 62
    18
420
        0
176
     1
 90
       50
176
     1
 90
        3
176
     1
 62
     5
420
      255
176
     1
290
     0
176
     1
 90
       50
176
     1
 90
       50
176
     1
 90
       50
176
     1
290
     0
176
     1
 90
       50
176
     1
 62
   256
176
     0
 40
1.0
176
     0
 90
        2
176
     1
  1
strokes_ogs.tif
176
     1
290
     0
176
     1
 40
1.0
176
     1
 40
1.0
176
     1
  0
VISUALSTYLE
  5
1000019
102
{ACAD_REACTORS
330
1000003
102
}
330
1000003
100
AcDbVisualStyle
  2
X-Ray
 70
    25
177
     3
291
     0
 70
    58
 90
        2
176
     1
 90
        2
176
     1
 90
        1
176
     1
 90
        1
176
     1
 40
0.5
176
     1
 40
30.0
176
     1
 62
     7
420
 16777215
176
     1
 90
        1
176
     1
 90
        0
176
     1
 62
     7
176
     1
 62
   257
176
     1
 90
        1
176
     1
 90
        1
176
     1
 40
1.0
176
     1
 90
        8
176
     1
 62
     7
176
     1
 40
1.0
176
     1
 90
        1
176
     1
 90
        6
176
     1
 90
        2
176
     1
 62
     7
176
     1
 90
        3
176
     1
 90
        0
176
     1
 90
        0
176
     1
290
     0
176
     1
 90
       13
176
     1
 40
0.0
176
     1
 90
        0
176
     1
290
     0
176
     1
290
     1
176
     1
290
     1
176
     1
290
     0
176
     1
290
     0
176
     1
290
     0
176
     1
290
     0
176
     1
290
     0
176
     1
290
     0
176
     1
 90
       50
176
     1
 40
0.0
176
     1
 40
1.0
176
     1
 90
        0
176
     1
 62
    18
420
        0
176
     1
 90
       50
176
     1
 90
        3
176
     1
 62
     5
420
      255
176
     1
290
     0
176
     1
 90
       50
176
     1
 90
       50
176
     1
 90
       50
176
     1
290
     0
176
     1
 90
       50
176
     1
 62
   256
176
     0
 40
1.0
176
     0
 90
        2
176
     1
  1
strokes_ogs.tif
176
     1
290
     0
176
     1
 40
1.0
176
     1
 40
1.0
176
     1
  0
DICTIONARYVAR
  5
1000227
102
{ACAD_REACTORS
330
1000223
102
}
330
1000223
100
DictionaryVariables
280
     0
  1
1:1
  0
DICTIONARYVAR
  5
1000225
102
{ACAD_REACTORS
330
1000223
102
}
330
1000223
100
DictionaryVariables
280
     0
  1
Standard
  0
DICTIONARYVAR
  5
1000224
102
{ACAD_REACTORS
330
1000223
102
}
330
1000223
100
DictionaryVariables
280
     0
  1
Standard
  0
DICTIONARYVAR
  5
1000226
102
{ACAD_REACTORS
330
1000223
102
}
330
1000223
100
DictionaryVariables
280
     0
  1
0
  0
ENDSEC
  0
SECTION
  2
ACDSDATA
 70
     2
 71
     2
  0
ACDSSCHEMA
 90
        0
  1
AcDb3DSolid_ASM_Data
  2
AcDbDs::ID
280
    10
 91
        0
  2
ASM_Data
280
    15
 91
        0
101
ACDSRECORD
 95
        0
 90
        1
  2
AcDbDs::TreatedAsObjectData
280
     1
291
     1
101
ACDSRECORD
 95
        0
 90
        2
  2
AcDbDs::Legacy
280
     1
291
     1
101
ACDSRECORD
  1
AcDbDs::ID
 90
        3
  2
AcDs:Indexable
280
     1
291
     1
101
ACDSRECORD
  1
AcDbDs::ID
 90
        4
  2
AcDbDs::HandleAttribute
280
     7
282
     1
  0
ACDSSCHEMA
 90
        1
  1
AcDbDs::TreatedAsObjectDataSchema
  2
AcDbDs::TreatedAsObjectData
280
     1
 91
        0
  0
ACDSSCHEMA
 90
        2
  1
AcDbDs::LegacySchema
  2
AcDbDs::Legacy
280
     1
 91
        0
  0
ACDSSCHEMA
 90
        3
  1
AcDbDs::IndexedPropertySchema
  2
AcDs:Indexable
280
     1
 91
        0
  0
ACDSSCHEMA
 90
        4
  1
AcDbDs::HandleAttributeSchema
  2
AcDbDs::HandleAttribute
280
     7
 91
        8
  0
ENDSEC
  0
EOF
