  0
SECTION
  2
HEADER
  9
$ACADVER
  1
AC1018
  9
$HANDSEED
  5
FFFFFF
  9
$EXTMAX
 10
8382231.4299999997
 20
5694674.05999999959
 30
1000000.00
  9
$EXTMIN
 10
8382045.41000000015
 20
5694488.37000000011
 30
0.00
  9
$LIMMIN
 10
8382045.41000000015
 20
5694488.37000000011
  9
$LIMMAX
 10
8382231.4299999997
 20
5694674.05999999959
  9
$DIMASZ
 40
2.5
  9
$DIMGAP
 40
0.625
  9
$INSUNITS
 70
6
  9
$MEASUREMENT
 70
1
  9
$DIMEXO
 40
0.625
  9
$DIMTXT
 40
2.5
  9
$DIMSTYLE
  2
Standard
  9
$PLIMMIN
 10
0.0
 20
0.0
  9
$PLIMMAX
 10
210.0
 20
297.0
  9
$DIMEXE
 40
1.25
  9
$TEXTSIZE
 40
2.5
  9
$TEXTSTYLE
  7
Standard
  9
$LWDISPLAY
290
1
  9
$TDCREATE
 40
45860.475912222
  9
$TDUCREATE
 40
45860.392578889
  9
$TDUPDATE
 40
45860.475912234
  9
$TDUUPDATE
 40
45860.392578900
  9
$TDINDWG
 40
0.0
  9
$TDUSRTIMER
 40
0.0
  9
$USRTIMER
 70
1
  0
ENDSEC
  0
SECTION
  2
CLASSES
  0
CLASS
  1
WIPEOUT
  2
AcDbWipeout
  3
WipeOut
 90
127
 91
1
280
0
281
1
  0
CLASS
  1
WIPEOUTVARIABLES
  2
AcDbWipeoutVariables
  3
WipeOut
 90
0
 91
1
280
0
281
0
  0
ENDSEC
  0
SECTION
  2
TABLES
  0
TABLE
  2
VPORT
  5
1
100
AcDbSymbolTable
 70
1
  0
VPORT
  5
2
100
AcDbSymbolTableRecord
100
AcDbViewportTableRecord
  2
*ACTIVE
 70
0
 10
0.0
 20
0.0
 11
1.0
 21
1.0
 12
8382138.42
 22
5694581.21
 13
0.0
 23
0.0
 14
1.0
 24
1.0
 15
0.0
 25
0.0
 16
0.0
 26
0.0
 36
1.0
 17
0.0
 27
0.0
 37
0.0
 40
185.69
 41
1.00
 42
50.0
 43
0.0
 44
0.0
 50
0.0
 51
0.0
 71
0
 72
100
 73
1
 74
1
 75
0
 76
0
 77
0
 78
0
  0
ENDTAB
  0
TABLE
  2
LTYPE
  5
3
100
AcDbSymbolTable
 70
3
  0
LTYPE
  5
4
100
AcDbSymbolTableRecord
100
AcDbLinetypeTableRecord
  2
ByBlock
 70
0
  3

 72
65
 73
0
 40
0.0
  0
LTYPE
  5
5
100
AcDbSymbolTableRecord
100
AcDbLinetypeTableRecord
  2
ByLayer
 70
0
  3

 72
65
 73
0
 40
0.0
  0
LTYPE
  5
6
100
AcDbSymbolTableRecord
100
AcDbLinetypeTableRecord
  2
CONTINUOUS
 70
0
  3
Solid line
 72
65
 73
0
 40
0.0
  0
LTYPE
  5
8
100
AcDbSymbolTableRecord
100
AcDbLinetypeTableRecord
  2
L_0_02
 70
0
  3
Dzialka_ewidencyjna (MLineStyle)
 72
65
 73
0
 40
0.0
  0
LTYPE
  5
9
100
AcDbSymbolTableRecord
100
AcDbLinetypeTableRecord
  2
L_0_03
 70
0
  3
Uzytek_gruntowy
 72
65
 73
2
 40
1.0
 49
0.5
 74
0
 49
-0.5
 74
0
  0
LTYPE
  5
A
100
AcDbSymbolTableRecord
100
AcDbLinetypeTableRecord
  2
L_0_04
 70
0
  3
Budynek_projektowany
 72
65
 73
2
 40
1.5
 49
1.0
 74
0
 49
-0.5
 74
0
  0
LTYPE
  5
B
100
AcDbSymbolTableRecord
100
AcDbLinetypeTableRecord
  2
L_0_06
 70
0
  3
Granica_konturu_klasyfikacyjnego_Krawedz_chodnika
 72
65
 73
2
 40
2.0
 49
1.5
 74
0
 49
-0.5
 74
0
  0
ENDTAB
  0
TABLE
  2
LAYER
  5
C
100
AcDbSymbolTable
 70
4
  0
LAYER
  5
D
100
AcDbSymbolTableRecord
100
AcDbLayerTableRecord
  2
0
 70
0
 62
7
  6
CONTINUOUS
370
18
390
E
  0
LAYER
  5
F
100
AcDbSymbolTableRecord
100
AcDbLayerTableRecord
  2
Dzialki
 70
0
 62
7
  6
CONTINUOUS
370
18
390
E
  0
LAYER
  5
10
100
AcDbSymbolTableRecord
100
AcDbLayerTableRecord
  2
Numery_dzialek
 70
0
 62
7
  6
CONTINUOUS
370
13
390
E
  0
LAYER
  5
11
100
AcDbSymbolTableRecord
100
AcDbLayerTableRecord
  2
Numery_punktow
 70
0
 62
7
  6
CONTINUOUS
370
13
390
E
  0
ENDTAB
  0
TABLE
  2
STYLE
  5
12
100
AcDbSymbolTable
 70
2
  0
STYLE
  5
13
100
AcDbSymbolTableRecord
100
AcDbTextStyleTableRecord
  2
STANDARD
 70
0
 40
0.0
 41
1.0
 50
0.0
 71
0
  3
simplex.shx
  4

  0
STYLE
  5
14
100
AcDbSymbolTableRecord
100
AcDbTextStyleTableRecord
  2
STANDARD_ITALIC
 70
0
 40
0.0
 41
1.0
 50
15.0
 71
0
  3
simplex.shx
  4

  0
ENDTAB
  0
TABLE
  2
VIEW
  5
15
100
AcDbSymbolTable
 70
0
  0
ENDTAB
  0
TABLE
  2
UCS
  5
16
100
AcDbSymbolTable
 70
0
  0
ENDTAB
  0
TABLE
  2
APPID
  5
17
100
AcDbSymbolTable
 70
1
  0
APPID
  5
18
100
AcDbSymbolTableRecord
100
AcDbRegAppTableRecord
  2
ACAD
 70
0
  0
ENDTAB
  0
TABLE
  2
DIMSTYLE
  5
19
100
AcDbSymbolTable
 70
1
100
AcDbDimStyleTable
  0
DIMSTYLE
105
1A
100
AcDbSymbolTableRecord
100
AcDbDimStyleTableRecord
  2
Standard
 70
0
340
13
  0
ENDTAB
  0
TABLE
  2
BLOCK_RECORD
  5
1B
100
AcDbSymbolTable
 70
8
  0
BLOCK_RECORD
  5
1C
100
AcDbSymbolTableRecord
100
AcDbBlockTableRecord
  2
*Model_Space
340
1D
  0
BLOCK_RECORD
  5
1E
100
AcDbSymbolTableRecord
100
AcDbBlockTableRecord
  2
*Paper_Space
340
1F
  0
BLOCK_RECORD
  5
20
100
AcDbSymbolTableRecord
100
AcDbBlockTableRecord
  2
OSPB
340
21
  0
BLOCK_RECORD
  5
22
100
AcDbSymbolTableRecord
100
AcDbBlockTableRecord
  2
OSHF
340
23
  0
BLOCK_RECORD
  5
24
100
AcDbSymbolTableRecord
100
AcDbBlockTableRecord
  2
SUEO_PROJ
340
25
  0
BLOCK_RECORD
  5
26
100
AcDbSymbolTableRecord
100
AcDbBlockTableRecord
  2
KRZYZ
340
27
  0
BLOCK_RECORD
  5
28
100
AcDbSymbolTableRecord
100
AcDbBlockTableRecord
  2
L_0_02_1
340
29
  0
BLOCK_RECORD
  5
2A
100
AcDbSymbolTableRecord
100
AcDbBlockTableRecord
  2
L_0_02_2
340
2B
  0
ENDTAB
  0
ENDSEC
  0
SECTION
  2
BLOCKS
  0
BLOCK
  5
2C
100
AcDbEntity
  8
0
100
AcDbBlockBegin
  2
*Model_Space
 70
0
 10
0.0
 20
0.0
 30
0.0
  3
*Model_Space
  1

  0
ENDBLK
  5
2D
100
AcDbEntity
  8
0
100
AcDbBlockEnd
  0
BLOCK
  5
2E
100
AcDbEntity
 67
1
  8
0
100
AcDbBlockBegin
  2
*Paper_Space
 70
0
 10
0.0
 20
0.0
 30
0.0
  3
*Paper_Space
  1

  0
ENDBLK
  5
2F
100
AcDbEntity
 67
1
  8
0
100
AcDbBlockEnd
  0
BLOCK
  5
21
100
AcDbEntity
  8
0
100
AcDbBlockBegin
 62
0
370
13
  2
OSPB
 70
0
 10
0
 20
0
 30
0
  3
OSPB
  0
WIPEOUT
  5
30
100
AcDbEntity
  8
0
  6
CONTINUOUS
 62
0
370
18
100
AcDbWipeout
 90
0
 10
-2.0
 20
-1.1
 30
0.0
 11
4.0
 21
0.0
 31
0.0
 12
0.0
 22
3.2
 32
0.0
 13
1.0
 23
1.0
 70
7
280
1
281
100
282
100
283
0
 71
2
 91
5
 14
-0.5
 24
0.5
 14
0.5
 24
0.5
 14
0.025
 24
-0.5
 14
-0.5
 24
0.5
 14
-0.5
 24
0.5
  0
POLYLINE
  5
31
100
AcDbEntity
  8
0
  6
CONTINUOUS
 62
0
370
18
100
AcDb2dPolyline
 66
1
 70
129
  0
VERTEX
  5
32
100
AcDbEntity
  8
0
100
AcDbVertex
100
AcDb2dVertex
 10
-2.0
 20
-1.1
  0
VERTEX
  5
33
100
AcDbEntity
  8
0
100
AcDbVertex
100
AcDb2dVertex
 10
2.0
 20
-1.1
  0
VERTEX
  5
34
100
AcDbEntity
  8
0
100
AcDbVertex
100
AcDb2dVertex
 10
0.1
 20
2.1
  0
VERTEX
  5
35
100
AcDbEntity
  8
0
100
AcDbVertex
100
AcDb2dVertex
 10
-2.0
 20
-1.1
  0
SEQEND
  5
36
100
AcDbEntity
  8
0
  0
HATCH
  5
37
100
AcDbEntity
  8
0
  6
CONTINUOUS
 62
0
370
25
100
AcDbHatch
 10
0.0
 20
0.0
 30
0.0
210
0.0
220
0.0
230
1.0
  2
SOLID
 70
1
 71
1
 91
1
 92
3
 72
1
 73
1
 93
2
 10
0.0
 20
-0.22360679775
 42
1.0
 10
0.0
 20
0.22360679775
 42
1.0
 97
0
 75
0
 76
1
 98
0
  0
CIRCLE
  5
38
100
AcDbEntity
  8
0
  6
CONTINUOUS
 62
0
370
25
100
AcDbCircle
 10
0.0
 20
-0.0
 40
0.22360679775
  0
ENDBLK
  5
39
100
AcDbEntity
  8
0
100
AcDbBlockEnd
  0
BLOCK
  5
23
100
AcDbEntity
  8
0
100
AcDbBlockBegin
 62
0
370
13
  2
OSHF
 70
0
 10
0
 20
0
 30
0
  3
OSHF
  0
WIPEOUT
  5
3A
100
AcDbEntity
  8
0
  6
CONTINUOUS
 62
0
370
18
100
AcDbWipeout
 90
0
 10
-2.0
 20
-2.0
 30
0.0
 11
4.0
 21
0.0
 31
0.0
 12
0.0
 22
4.0
 32
0.0
 13
1.0
 23
1.0
 70
7
280
1
281
100
282
100
283
0
 71
2
 91
13
 14
0.0
 24
0.5
 14
0.25
 24
0.433012701892
 14
0.433012701892
 24
0.25
 14
0.5
 24
0.0
 14
0.433012701892
 24
-0.25
 14
0.25
 24
-0.433012701892
 14
0.0
 24
-0.5
 14
-0.25
 24
-0.433012701892
 14
-0.433012701892
 24
-0.25
 14
-0.5
 24
0.0
 14
-0.433012701892
 24
0.25
 14
-0.25
 24
0.433012701892
 14
0.0
 24
0.5
  0
CIRCLE
  5
3B
100
AcDbEntity
  8
0
  6
CONTINUOUS
 62
0
370
18
100
AcDbCircle
 10
0.0
 20
-0.0
 40
2.0
  0
HATCH
  5
3C
100
AcDbEntity
  8
0
  6
CONTINUOUS
 62
0
370
18
100
AcDbHatch
 10
0.0
 20
0.0
 30
0.0
210
0.0
220
0.0
230
1.0
  2
SOLID
 70
1
 71
1
 91
1
 92
3
 72
0
 73
1
 93
4
 10
-1.7
 20
1.0
 10
1.7
 20
1.0
 10
0.0
 20
-2.0
 10
-1.7
 20
0.9
 97
0
 75
0
 76
1
 98
0
  0
POLYLINE
  5
3D
100
AcDbEntity
  8
0
  6
CONTINUOUS
 62
0
370
18
100
AcDb2dPolyline
 66
1
 70
129
  0
VERTEX
  5
3E
100
AcDbEntity
  8
0
100
AcDbVertex
100
AcDb2dVertex
 10
-1.7
 20
1.0
  0
VERTEX
  5
3F
100
AcDbEntity
  8
0
100
AcDbVertex
100
AcDb2dVertex
 10
1.7
 20
1.0
  0
VERTEX
  5
40
100
AcDbEntity
  8
0
100
AcDbVertex
100
AcDb2dVertex
 10
0.0
 20
-2.0
  0
VERTEX
  5
41
100
AcDbEntity
  8
0
100
AcDbVertex
100
AcDb2dVertex
 10
-1.7
 20
0.9
  0
SEQEND
  5
42
100
AcDbEntity
  8
0
  0
WIPEOUT
  5
43
100
AcDbEntity
  8
0
  6
CONTINUOUS
 62
0
370
18
100
AcDbWipeout
 90
0
 10
-0.22360679775
 20
-0.22360679775
 30
0.0
 11
0.4472135955
 21
0.0
 31
0.0
 12
0.0
 22
0.4472135955
 32
0.0
 13
1.0
 23
1.0
 70
7
280
1
281
100
282
100
283
0
 71
2
 91
13
 14
0.0
 24
0.5
 14
0.25
 24
0.433012701892
 14
0.433012701892
 24
0.25
 14
0.5
 24
0.0
 14
0.433012701892
 24
-0.25
 14
0.25
 24
-0.433012701892
 14
0.0
 24
-0.5
 14
-0.25
 24
-0.433012701892
 14
-0.433012701892
 24
-0.25
 14
-0.5
 24
0.0
 14
-0.433012701892
 24
0.25
 14
-0.25
 24
0.433012701892
 14
0.0
 24
0.5
  0
ENDBLK
  5
44
100
AcDbEntity
  8
0
100
AcDbBlockEnd
  0
BLOCK
  5
25
100
AcDbEntity
  8
0
100
AcDbBlockBegin
 62
0
370
13
  2
SUEO_PROJ
 70
0
 10
0
 20
0
 30
0
  3
SUEO.PROJ
  0
WIPEOUT
  5
45
100
AcDbEntity
  8
0
  6
CONTINUOUS
 62
0
370
18
100
AcDbWipeout
 90
0
 10
-0.5
 20
-0.5
 30
0.0
 11
1.0
 21
0.0
 31
0.0
 12
0.0
 22
1.0
 32
0.0
 13
1.0
 23
1.0
 70
7
280
1
281
100
282
100
283
0
 71
2
 91
13
 14
0.0
 24
0.5
 14
0.25
 24
0.433012701892
 14
0.433012701892
 24
0.25
 14
0.5
 24
0.0
 14
0.433012701892
 24
-0.25
 14
0.25
 24
-0.433012701892
 14
0.0
 24
-0.5
 14
-0.25
 24
-0.433012701892
 14
-0.433012701892
 24
-0.25
 14
-0.5
 24
0.0
 14
-0.433012701892
 24
0.25
 14
-0.25
 24
0.433012701892
 14
0.0
 24
0.5
  0
CIRCLE
  5
46
100
AcDbEntity
  8
0
  6
CONTINUOUS
 62
0
370
18
100
AcDbCircle
 10
0.0
 20
-0.0
 40
0.5
  0
POLYLINE
  5
47
100
AcDbEntity
  8
0
  6
CONTINUOUS
 62
0
370
18
100
AcDb2dPolyline
 66
1
 70
128
  0
VERTEX
  5
48
100
AcDbEntity
  8
0
100
AcDbVertex
100
AcDb2dVertex
 10
1.76
 20
1.76
  0
VERTEX
  5
49
100
AcDbEntity
  8
0
100
AcDbVertex
100
AcDb2dVertex
 10
1.06
 20
1.06
  0
SEQEND
  5
4A
100
AcDbEntity
  8
0
  0
POLYLINE
  5
4B
100
AcDbEntity
  8
0
  6
CONTINUOUS
 62
0
370
18
100
AcDb2dPolyline
 66
1
 70
128
  0
VERTEX
  5
4C
100
AcDbEntity
  8
0
100
AcDbVertex
100
AcDb2dVertex
 10
1.06
 20
-1.06
  0
VERTEX
  5
4D
100
AcDbEntity
  8
0
100
AcDbVertex
100
AcDb2dVertex
 10
1.76
 20
-1.76
  0
SEQEND
  5
4E
100
AcDbEntity
  8
0
  0
POLYLINE
  5
4F
100
AcDbEntity
  8
0
  6
CONTINUOUS
 62
0
370
18
100
AcDb2dPolyline
 66
1
 70
128
  0
VERTEX
  5
50
100
AcDbEntity
  8
0
100
AcDbVertex
100
AcDb2dVertex
 10
-1.74
 20
-1.74
  0
VERTEX
  5
51
100
AcDbEntity
  8
0
100
AcDbVertex
100
AcDb2dVertex
 10
-1.06
 20
-1.06
  0
SEQEND
  5
52
100
AcDbEntity
  8
0
  0
POLYLINE
  5
53
100
AcDbEntity
  8
0
  6
CONTINUOUS
 62
0
370
18
100
AcDb2dPolyline
 66
1
 70
128
  0
VERTEX
  5
54
100
AcDbEntity
  8
0
100
AcDbVertex
100
AcDb2dVertex
 10
-1.06
 20
1.06
  0
VERTEX
  5
55
100
AcDbEntity
  8
0
100
AcDbVertex
100
AcDb2dVertex
 10
-1.76
 20
1.76
  0
SEQEND
  5
56
100
AcDbEntity
  8
0
  0
ENDBLK
  5
57
100
AcDbEntity
  8
0
100
AcDbBlockEnd
  0
BLOCK
  5
27
100
AcDbEntity
  8
0
100
AcDbBlockBegin
 62
0
370
13
  2
KRZYZ
 70
0
 10
0
 20
0
 30
0
  3
KRZYZ
  0
POLYLINE
  5
58
100
AcDbEntity
  8
0
  6
CONTINUOUS
 62
0
370
13
100
AcDb2dPolyline
 66
1
 70
128
  0
VERTEX
  5
59
100
AcDbEntity
  8
0
100
AcDbVertex
100
AcDb2dVertex
 10
0.5
 20
-0.0
  0
VERTEX
  5
5A
100
AcDbEntity
  8
0
100
AcDbVertex
100
AcDb2dVertex
 10
-0.5
 20
-0.0
  0
SEQEND
  5
5B
100
AcDbEntity
  8
0
  0
POLYLINE
  5
5C
100
AcDbEntity
  8
0
  6
CONTINUOUS
 62
0
370
13
100
AcDb2dPolyline
 66
1
 70
128
  0
VERTEX
  5
5D
100
AcDbEntity
  8
0
100
AcDbVertex
100
AcDb2dVertex
 10
0.0
 20
0.5
  0
VERTEX
  5
5E
100
AcDbEntity
  8
0
100
AcDbVertex
100
AcDb2dVertex
 10
0.0
 20
-0.5
  0
SEQEND
  5
5F
100
AcDbEntity
  8
0
  0
POLYLINE
  5
60
100
AcDbEntity
  8
0
  6
CONTINUOUS
 62
0
370
13
100
AcDb2dPolyline
 66
1
 70
128
  0
VERTEX
  5
61
100
AcDbEntity
  8
0
100
AcDbVertex
100
AcDb2dVertex
 10
0.0
 20
0.5
  0
VERTEX
  5
62
100
AcDbEntity
  8
0
100
AcDbVertex
100
AcDb2dVertex
 10
0.0
 20
4.9
  0
SEQEND
  5
63
100
AcDbEntity
  8
0
  0
POLYLINE
  5
64
100
AcDbEntity
  8
0
  6
CONTINUOUS
 62
0
370
13
100
AcDb2dPolyline
 66
1
 70
128
  0
VERTEX
  5
65
100
AcDbEntity
  8
0
100
AcDbVertex
100
AcDb2dVertex
 10
0.5
 20
-0.0
  0
VERTEX
  5
66
100
AcDbEntity
  8
0
100
AcDbVertex
100
AcDb2dVertex
 10
5.0
 20
-0.0
  0
VERTEX
  5
67
100
AcDbEntity
  8
0
100
AcDbVertex
100
AcDb2dVertex
 10
5.0
 20
-0.0
  0
SEQEND
  5
68
100
AcDbEntity
  8
0
  0
POLYLINE
  5
69
100
AcDbEntity
  8
0
  6
CONTINUOUS
 62
0
370
13
100
AcDb2dPolyline
 66
1
 70
128
  0
VERTEX
  5
6A
100
AcDbEntity
  8
0
100
AcDbVertex
100
AcDb2dVertex
 10
0.0
 20
-0.5
  0
VERTEX
  5
6B
100
AcDbEntity
  8
0
100
AcDbVertex
100
AcDb2dVertex
 10
0.0
 20
-5.0
  0
SEQEND
  5
6C
100
AcDbEntity
  8
0
  0
POLYLINE
  5
6D
100
AcDbEntity
  8
0
  6
CONTINUOUS
 62
0
370
13
100
AcDb2dPolyline
 66
1
 70
128
  0
VERTEX
  5
6E
100
AcDbEntity
  8
0
100
AcDbVertex
100
AcDb2dVertex
 10
-0.5
 20
-0.0
  0
VERTEX
  5
6F
100
AcDbEntity
  8
0
100
AcDbVertex
100
AcDb2dVertex
 10
-5.0
 20
-0.0
  0
SEQEND
  5
70
100
AcDbEntity
  8
0
  0
ENDBLK
  5
71
100
AcDbEntity
  8
0
100
AcDbBlockEnd
  0
BLOCK
  5
29
100
AcDbEntity
  8
0
100
AcDbBlockBegin
 62
0
370
13
  2
L_0_02_1
 70
0
 10
0
 20
0
 30
0
  3
L_0_02_1
  0
POINT
  5
72
100
AcDbEntity
  8
0
100
AcDbPoint
 62
0
 10
0.0
 20
0.0
 30
0.00
  0
ENDBLK
  5
73
100
AcDbEntity
  8
0
100
AcDbBlockEnd
  0
BLOCK
  5
2B
100
AcDbEntity
  8
0
100
AcDbBlockBegin
 62
0
370
13
  2
L_0_02_2
 70
0
 10
0
 20
0
 30
0
  3
L_0_02_2
  0
POINT
  5
74
100
AcDbEntity
  8
0
100
AcDbPoint
 62
0
 10
-0.0
 20
-0.0
 30
0.00
  0
ENDBLK
  5
75
100
AcDbEntity
  8
0
100
AcDbBlockEnd
  0
ENDSEC
  0
SECTION
  2
ENTITIES
  0
POLYLINE
  5
76
100
AcDbEntity
  8
Dzialki
  6
CONTINUOUS
370
18
100
AcDb2dPolyline
 66
1
 70
128
  0
VERTEX
  5
77
100
AcDbEntity
  8
Dzialki
100
AcDbVertex
100
AcDb2dVertex
 10
8382176.44000000041
 20
5694584.03000000026
  0
VERTEX
  5
78
100
AcDbEntity
  8
Dzialki
100
AcDbVertex
100
AcDb2dVertex
 10
8382197.71999999974
 20
5694617.3200000003
  0
SEQEND
  5
79
100
AcDbEntity
  8
Dzialki
  0
POLYLINE
  5
7A
100
AcDbEntity
  8
Dzialki
  6
CONTINUOUS
370
18
100
AcDb2dPolyline
 66
1
 70
128
  0
VERTEX
  5
7B
100
AcDbEntity
  8
Dzialki
100
AcDbVertex
100
AcDb2dVertex
 10
8382197.71999999974
 20
5694617.3200000003
  0
VERTEX
  5
7C
100
AcDbEntity
  8
Dzialki
100
AcDbVertex
100
AcDb2dVertex
 10
8382168.20000000019
 20
5694636.12999999989
  0
SEQEND
  5
7D
100
AcDbEntity
  8
Dzialki
  0
POLYLINE
  5
7E
100
AcDbEntity
  8
Dzialki
  6
CONTINUOUS
370
18
100
AcDb2dPolyline
 66
1
 70
128
  0
VERTEX
  5
7F
100
AcDbEntity
  8
Dzialki
100
AcDbVertex
100
AcDb2dVertex
 10
8382168.20000000019
 20
5694636.12999999989
  0
VERTEX
  5
80
100
AcDbEntity
  8
Dzialki
100
AcDbVertex
100
AcDb2dVertex
 10
8382146.9299999997
 20
5694602.84999999963
  0
SEQEND
  5
81
100
AcDbEntity
  8
Dzialki
  0
POLYLINE
  5
82
100
AcDbEntity
  8
Dzialki
  6
CONTINUOUS
370
18
100
AcDb2dPolyline
 66
1
 70
128
  0
VERTEX
  5
83
100
AcDbEntity
  8
Dzialki
100
AcDbVertex
100
AcDb2dVertex
 10
8382146.9299999997
 20
5694602.84999999963
  0
VERTEX
  5
84
100
AcDbEntity
  8
Dzialki
100
AcDbVertex
100
AcDb2dVertex
 10
8382176.44000000041
 20
5694584.03000000026
  0
SEQEND
  5
85
100
AcDbEntity
  8
Dzialki
  0
POLYLINE
  5
86
100
AcDbEntity
  8
Dzialki
  6
CONTINUOUS
370
18
100
AcDb2dPolyline
 66
1
 70
128
  0
VERTEX
  5
87
100
AcDbEntity
  8
Dzialki
100
AcDbVertex
100
AcDb2dVertex
 10
8382205.95000000019
 20
5694565.21999999974
  0
VERTEX
  5
88
100
AcDbEntity
  8
Dzialki
100
AcDbVertex
100
AcDb2dVertex
 10
8382227.23000000045
 20
5694598.5
  0
SEQEND
  5
89
100
AcDbEntity
  8
Dzialki
  0
POLYLINE
  5
8A
100
AcDbEntity
  8
Dzialki
  6
CONTINUOUS
370
18
100
AcDb2dPolyline
 66
1
 70
128
  0
VERTEX
  5
8B
100
AcDbEntity
  8
Dzialki
100
AcDbVertex
100
AcDb2dVertex
 10
8382227.23000000045
 20
5694598.5
  0
VERTEX
  5
8C
100
AcDbEntity
  8
Dzialki
100
AcDbVertex
100
AcDb2dVertex
 10
8382197.71999999974
 20
5694617.3200000003
  0
SEQEND
  5
8D
100
AcDbEntity
  8
Dzialki
  0
POLYLINE
  5
8E
100
AcDbEntity
  8
Dzialki
  6
CONTINUOUS
370
18
100
AcDb2dPolyline
 66
1
 70
128
  0
VERTEX
  5
8F
100
AcDbEntity
  8
Dzialki
100
AcDbVertex
100
AcDb2dVertex
 10
8382176.44000000041
 20
5694584.03000000026
  0
VERTEX
  5
90
100
AcDbEntity
  8
Dzialki
100
AcDbVertex
100
AcDb2dVertex
 10
8382205.95000000019
 20
5694565.21999999974
  0
SEQEND
  5
91
100
AcDbEntity
  8
Dzialki
  0
POLYLINE
  5
92
100
AcDbEntity
  8
Dzialki
  6
CONTINUOUS
370
18
100
AcDb2dPolyline
 66
1
 70
128
  0
VERTEX
  5
93
100
AcDbEntity
  8
Dzialki
100
AcDbVertex
100
AcDb2dVertex
 10
8382159.62000000011
 20
5694500.38999999966
  0
VERTEX
  5
94
100
AcDbEntity
  8
Dzialki
100
AcDbVertex
100
AcDb2dVertex
 10
8382117.48000000045
 20
5694527.33000000007
  0
SEQEND
  5
95
100
AcDbEntity
  8
Dzialki
  0
POLYLINE
  5
96
100
AcDbEntity
  8
Dzialki
  6
CONTINUOUS
370
18
100
AcDb2dPolyline
 66
1
 70
128
  0
VERTEX
  5
97
100
AcDbEntity
  8
Dzialki
100
AcDbVertex
100
AcDb2dVertex
 10
8382117.48000000045
 20
5694527.33000000007
  0
VERTEX
  5
98
100
AcDbEntity
  8
Dzialki
100
AcDbVertex
100
AcDb2dVertex
 10
8382113.20999999996
 20
5694533.63999999966
  0
SEQEND
  5
99
100
AcDbEntity
  8
Dzialki
  0
POLYLINE
  5
9A
100
AcDbEntity
  8
Dzialki
  6
CONTINUOUS
370
18
100
AcDb2dPolyline
 66
1
 70
128
  0
VERTEX
  5
9B
100
AcDbEntity
  8
Dzialki
100
AcDbVertex
100
AcDb2dVertex
 10
8382113.20999999996
 20
5694533.63999999966
  0
VERTEX
  5
9C
100
AcDbEntity
  8
Dzialki
100
AcDbVertex
100
AcDb2dVertex
 10
8382110.24000000022
 20
5694529.00999999978
  0
SEQEND
  5
9D
100
AcDbEntity
  8
Dzialki
  0
POLYLINE
  5
9E
100
AcDbEntity
  8
Dzialki
  6
CONTINUOUS
370
18
100
AcDb2dPolyline
 66
1
 70
128
  0
VERTEX
  5
9F
100
AcDbEntity
  8
Dzialki
100
AcDbVertex
100
AcDb2dVertex
 10
8382110.24000000022
 20
5694529.00999999978
  0
VERTEX
  5
A0
100
AcDbEntity
  8
Dzialki
100
AcDbVertex
100
AcDb2dVertex
 10
8382107.25999999978
 20
5694524.37999999989
  0
SEQEND
  5
A1
100
AcDbEntity
  8
Dzialki
  0
POLYLINE
  5
A2
100
AcDbEntity
  8
Dzialki
  6
CONTINUOUS
370
18
100
AcDb2dPolyline
 66
1
 70
128
  0
VERTEX
  5
A3
100
AcDbEntity
  8
Dzialki
100
AcDbVertex
100
AcDb2dVertex
 10
8382107.25999999978
 20
5694524.37999999989
  0
VERTEX
  5
A4
100
AcDbEntity
  8
Dzialki
100
AcDbVertex
100
AcDb2dVertex
 10
8382114.78000000026
 20
5694523.12000000011
  0
SEQEND
  5
A5
100
AcDbEntity
  8
Dzialki
  0
POLYLINE
  5
A6
100
AcDbEntity
  8
Dzialki
  6
CONTINUOUS
370
18
100
AcDb2dPolyline
 66
1
 70
128
  0
VERTEX
  5
A7
100
AcDbEntity
  8
Dzialki
100
AcDbVertex
100
AcDb2dVertex
 10
8382114.78000000026
 20
5694523.12000000011
  0
VERTEX
  5
A8
100
AcDbEntity
  8
Dzialki
100
AcDbVertex
100
AcDb2dVertex
 10
8382156.91999999992
 20
5694496.19000000041
  0
SEQEND
  5
A9
100
AcDbEntity
  8
Dzialki
  0
POLYLINE
  5
AA
100
AcDbEntity
  8
Dzialki
  6
CONTINUOUS
370
18
100
AcDb2dPolyline
 66
1
 70
128
  0
VERTEX
  5
AB
100
AcDbEntity
  8
Dzialki
100
AcDbVertex
100
AcDb2dVertex
 10
8382156.91999999992
 20
5694496.19000000041
  0
VERTEX
  5
AC
100
AcDbEntity
  8
Dzialki
100
AcDbVertex
100
AcDb2dVertex
 10
8382157.83999999985
 20
5694492.03000000026
  0
SEQEND
  5
AD
100
AcDbEntity
  8
Dzialki
  0
POLYLINE
  5
AE
100
AcDbEntity
  8
Dzialki
  6
CONTINUOUS
370
18
100
AcDb2dPolyline
 66
1
 70
128
  0
VERTEX
  5
AF
100
AcDbEntity
  8
Dzialki
100
AcDbVertex
100
AcDb2dVertex
 10
8382157.83999999985
 20
5694492.03000000026
  0
VERTEX
  5
B0
100
AcDbEntity
  8
Dzialki
100
AcDbVertex
100
AcDb2dVertex
 10
8382163.79000000004
 20
5694501.28000000026
  0
SEQEND
  5
B1
100
AcDbEntity
  8
Dzialki
  0
POLYLINE
  5
B2
100
AcDbEntity
  8
Dzialki
  6
CONTINUOUS
370
18
100
AcDb2dPolyline
 66
1
 70
128
  0
VERTEX
  5
B3
100
AcDbEntity
  8
Dzialki
100
AcDbVertex
100
AcDb2dVertex
 10
8382163.79000000004
 20
5694501.28000000026
  0
VERTEX
  5
B4
100
AcDbEntity
  8
Dzialki
100
AcDbVertex
100
AcDb2dVertex
 10
8382159.62000000011
 20
5694500.38999999966
  0
SEQEND
  5
B5
100
AcDbEntity
  8
Dzialki
  0
POLYLINE
  5
B6
100
AcDbEntity
  8
Dzialki
  6
CONTINUOUS
370
18
100
AcDb2dPolyline
 66
1
 70
128
  0
VERTEX
  5
B7
100
AcDbEntity
  8
Dzialki
100
AcDbVertex
100
AcDb2dVertex
 10
8382168.20000000019
 20
5694636.12999999989
  0
VERTEX
  5
B8
100
AcDbEntity
  8
Dzialki
100
AcDbVertex
100
AcDb2dVertex
 10
8382115.28000000026
 20
5694669.86000000034
  0
SEQEND
  5
B9
100
AcDbEntity
  8
Dzialki
  0
POLYLINE
  5
BA
100
AcDbEntity
  8
Dzialki
  6
CONTINUOUS
370
18
100
AcDb2dPolyline
 66
1
 70
128
  0
VERTEX
  5
BB
100
AcDbEntity
  8
Dzialki
100
AcDbVertex
100
AcDb2dVertex
 10
8382115.28000000026
 20
5694669.86000000034
  0
VERTEX
  5
BC
100
AcDbEntity
  8
Dzialki
100
AcDbVertex
100
AcDb2dVertex
 10
8382089.79999999981
 20
5694630.37999999989
  0
SEQEND
  5
BD
100
AcDbEntity
  8
Dzialki
  0
POLYLINE
  5
BE
100
AcDbEntity
  8
Dzialki
  6
CONTINUOUS
370
18
100
AcDb2dPolyline
 66
1
 70
128
  0
VERTEX
  5
BF
100
AcDbEntity
  8
Dzialki
100
AcDbVertex
100
AcDb2dVertex
 10
8382089.79999999981
 20
5694630.37999999989
  0
VERTEX
  5
C0
100
AcDbEntity
  8
Dzialki
100
AcDbVertex
100
AcDb2dVertex
 10
8382122.86000000034
 20
5694609.29999999981
  0
SEQEND
  5
C1
100
AcDbEntity
  8
Dzialki
  0
POLYLINE
  5
C2
100
AcDbEntity
  8
Dzialki
  6
CONTINUOUS
370
18
100
AcDb2dPolyline
 66
1
 70
128
  0
VERTEX
  5
C3
100
AcDbEntity
  8
Dzialki
100
AcDbVertex
100
AcDb2dVertex
 10
8382122.86000000034
 20
5694609.29999999981
  0
VERTEX
  5
C4
100
AcDbEntity
  8
Dzialki
100
AcDbVertex
100
AcDb2dVertex
 10
8382142.87999999989
 20
5694596.54000000004
  0
SEQEND
  5
C5
100
AcDbEntity
  8
Dzialki
  0
POLYLINE
  5
C6
100
AcDbEntity
  8
Dzialki
  6
CONTINUOUS
370
18
100
AcDb2dPolyline
 66
1
 70
128
  0
VERTEX
  5
C7
100
AcDbEntity
  8
Dzialki
100
AcDbVertex
100
AcDb2dVertex
 10
8382142.87999999989
 20
5694596.54000000004
  0
VERTEX
  5
C8
100
AcDbEntity
  8
Dzialki
100
AcDbVertex
100
AcDb2dVertex
 10
8382146.9299999997
 20
5694602.84999999963
  0
SEQEND
  5
C9
100
AcDbEntity
  8
Dzialki
  0
POLYLINE
  5
CA
100
AcDbEntity
  8
Dzialki
  6
CONTINUOUS
370
18
100
AcDb2dPolyline
 66
1
 70
128
  0
VERTEX
  5
CB
100
AcDbEntity
  8
Dzialki
100
AcDbVertex
100
AcDb2dVertex
 10
8382142.87999999989
 20
5694596.54000000004
  0
VERTEX
  5
CC
100
AcDbEntity
  8
Dzialki
100
AcDbVertex
100
AcDb2dVertex
 10
8382159.79000000004
 20
5694585.75999999978
  0
SEQEND
  5
CD
100
AcDbEntity
  8
Dzialki
  0
POLYLINE
  5
CE
100
AcDbEntity
  8
Dzialki
  6
CONTINUOUS
370
18
100
AcDb2dPolyline
 66
1
 70
128
  0
VERTEX
  5
CF
100
AcDbEntity
  8
Dzialki
100
AcDbVertex
100
AcDb2dVertex
 10
8382159.79000000004
 20
5694585.75999999978
  0
VERTEX
  5
D0
100
AcDbEntity
  8
Dzialki
100
AcDbVertex
100
AcDb2dVertex
 10
8382201.91999999992
 20
5694558.90000000037
  0
SEQEND
  5
D1
100
AcDbEntity
  8
Dzialki
  0
POLYLINE
  5
D2
100
AcDbEntity
  8
Dzialki
  6
CONTINUOUS
370
18
100
AcDb2dPolyline
 66
1
 70
128
  0
VERTEX
  5
D3
100
AcDbEntity
  8
Dzialki
100
AcDbVertex
100
AcDb2dVertex
 10
8382201.91999999992
 20
5694558.90000000037
  0
VERTEX
  5
D4
100
AcDbEntity
  8
Dzialki
100
AcDbVertex
100
AcDb2dVertex
 10
8382205.95000000019
 20
5694565.21999999974
  0
SEQEND
  5
D5
100
AcDbEntity
  8
Dzialki
  0
POLYLINE
  5
D6
100
AcDbEntity
  8
Dzialki
  6
CONTINUOUS
370
18
100
AcDb2dPolyline
 66
1
 70
128
  0
VERTEX
  5
D7
100
AcDbEntity
  8
Dzialki
100
AcDbVertex
100
AcDb2dVertex
 10
8382125.24000000022
 20
5694552.36000000034
  0
VERTEX
  5
D8
100
AcDbEntity
  8
Dzialki
100
AcDbVertex
100
AcDb2dVertex
 10
8382097.74000000022
 20
5694569.95999999996
  0
SEQEND
  5
D9
100
AcDbEntity
  8
Dzialki
  0
POLYLINE
  5
DA
100
AcDbEntity
  8
Dzialki
  6
CONTINUOUS
370
18
100
AcDb2dPolyline
 66
1
 70
128
  0
VERTEX
  5
DB
100
AcDbEntity
  8
Dzialki
100
AcDbVertex
100
AcDb2dVertex
 10
8382097.74000000022
 20
5694569.95999999996
  0
VERTEX
  5
DC
100
AcDbEntity
  8
Dzialki
100
AcDbVertex
100
AcDb2dVertex
 10
8382064.03000000026
 20
5694591.51999999862
  0
SEQEND
  5
DD
100
AcDbEntity
  8
Dzialki
  0
POLYLINE
  5
DE
100
AcDbEntity
  8
Dzialki
  6
CONTINUOUS
370
18
100
AcDb2dPolyline
 66
1
 70
128
  0
VERTEX
  5
DF
100
AcDbEntity
  8
Dzialki
100
AcDbVertex
100
AcDb2dVertex
 10
8382064.03000000026
 20
5694591.51999999862
  0
VERTEX
  5
E0
100
AcDbEntity
  8
Dzialki
100
AcDbVertex
100
AcDb2dVertex
 10
8382049.0700000003
 20
5694568.15000000037
  0
SEQEND
  5
E1
100
AcDbEntity
  8
Dzialki
  0
POLYLINE
  5
E2
100
AcDbEntity
  8
Dzialki
  6
CONTINUOUS
370
18
100
AcDb2dPolyline
 66
1
 70
128
  0
VERTEX
  5
E3
100
AcDbEntity
  8
Dzialki
100
AcDbVertex
100
AcDb2dVertex
 10
8382049.0700000003
 20
5694568.15000000037
  0
VERTEX
  5
E4
100
AcDbEntity
  8
Dzialki
100
AcDbVertex
100
AcDb2dVertex
 10
8382110.24000000022
 20
5694529.00999999978
  0
SEQEND
  5
E5
100
AcDbEntity
  8
Dzialki
  0
POLYLINE
  5
E6
100
AcDbEntity
  8
Dzialki
  6
CONTINUOUS
370
18
100
AcDb2dPolyline
 66
1
 70
128
  0
VERTEX
  5
E7
100
AcDbEntity
  8
Dzialki
100
AcDbVertex
100
AcDb2dVertex
 10
8382113.20999999996
 20
5694533.63999999966
  0
VERTEX
  5
E8
100
AcDbEntity
  8
Dzialki
100
AcDbVertex
100
AcDb2dVertex
 10
8382125.24000000022
 20
5694552.36000000034
  0
SEQEND
  5
E9
100
AcDbEntity
  8
Dzialki
  0
POLYLINE
  5
EA
100
AcDbEntity
  8
Dzialki
  6
CONTINUOUS
370
18
100
AcDb2dPolyline
 66
1
 70
128
  0
VERTEX
  5
EB
100
AcDbEntity
  8
Dzialki
100
AcDbVertex
100
AcDb2dVertex
 10
8382175.8200000003
 20
5694520.0
  0
VERTEX
  5
EC
100
AcDbEntity
  8
Dzialki
100
AcDbVertex
100
AcDb2dVertex
 10
8382134.37000000011
 20
5694546.51999999862
  0
SEQEND
  5
ED
100
AcDbEntity
  8
Dzialki
  0
POLYLINE
  5
EE
100
AcDbEntity
  8
Dzialki
  6
CONTINUOUS
370
18
100
AcDb2dPolyline
 66
1
 70
128
  0
VERTEX
  5
EF
100
AcDbEntity
  8
Dzialki
100
AcDbVertex
100
AcDb2dVertex
 10
8382134.37000000011
 20
5694546.51999999862
  0
VERTEX
  5
F0
100
AcDbEntity
  8
Dzialki
100
AcDbVertex
100
AcDb2dVertex
 10
8382125.24000000022
 20
5694552.36000000034
  0
SEQEND
  5
F1
100
AcDbEntity
  8
Dzialki
  0
POLYLINE
  5
F2
100
AcDbEntity
  8
Dzialki
  6
CONTINUOUS
370
18
100
AcDb2dPolyline
 66
1
 70
128
  0
VERTEX
  5
F3
100
AcDbEntity
  8
Dzialki
100
AcDbVertex
100
AcDb2dVertex
 10
8382163.79000000004
 20
5694501.28000000026
  0
VERTEX
  5
F4
100
AcDbEntity
  8
Dzialki
100
AcDbVertex
100
AcDb2dVertex
 10
8382175.8200000003
 20
5694520.0
  0
SEQEND
  5
F5
100
AcDbEntity
  8
Dzialki
  0
POLYLINE
  5
F6
100
AcDbEntity
  8
Dzialki
  6
CONTINUOUS
370
18
100
AcDb2dPolyline
 66
1
 70
128
  0
VERTEX
  5
F7
100
AcDbEntity
  8
Dzialki
100
AcDbVertex
100
AcDb2dVertex
 10
8382134.37000000011
 20
5694546.51999999862
  0
VERTEX
  5
F8
100
AcDbEntity
  8
Dzialki
100
AcDbVertex
100
AcDb2dVertex
 10
8382157.13999999966
 20
5694581.62000000011
  0
SEQEND
  5
F9
100
AcDbEntity
  8
Dzialki
  0
POLYLINE
  5
FA
100
AcDbEntity
  8
Dzialki
  6
CONTINUOUS
370
18
100
AcDb2dPolyline
 66
1
 70
128
  0
VERTEX
  5
FB
100
AcDbEntity
  8
Dzialki
100
AcDbVertex
100
AcDb2dVertex
 10
8382157.13999999966
 20
5694581.62000000011
  0
VERTEX
  5
FC
100
AcDbEntity
  8
Dzialki
100
AcDbVertex
100
AcDb2dVertex
 10
8382159.79000000004
 20
5694585.75999999978
  0
SEQEND
  5
FD
100
AcDbEntity
  8
Dzialki
  0
POLYLINE
  5
FE
100
AcDbEntity
  8
Dzialki
  6
CONTINUOUS
370
18
100
AcDb2dPolyline
 66
1
 70
128
  0
VERTEX
  5
FF
100
AcDbEntity
  8
Dzialki
100
AcDbVertex
100
AcDb2dVertex
 10
8382122.86000000034
 20
5694609.29999999981
  0
VERTEX
  5
100
100
AcDbEntity
  8
Dzialki
100
AcDbVertex
100
AcDb2dVertex
 10
8382097.74000000022
 20
5694569.95999999996
  0
SEQEND
  5
101
100
AcDbEntity
  8
Dzialki
  0
POLYLINE
  5
102
100
AcDbEntity
  8
Dzialki
  6
CONTINUOUS
370
18
100
AcDb2dPolyline
 66
1
 70
128
  0
VERTEX
  5
103
100
AcDbEntity
  8
Dzialki
100
AcDbVertex
100
AcDb2dVertex
 10
8382157.13999999966
 20
5694581.62000000011
  0
VERTEX
  5
104
100
AcDbEntity
  8
Dzialki
100
AcDbVertex
100
AcDb2dVertex
 10
8382199.00999999978
 20
5694554.5700000003
  0
SEQEND
  5
105
100
AcDbEntity
  8
Dzialki
  0
POLYLINE
  5
106
100
AcDbEntity
  8
Dzialki
  6
CONTINUOUS
370
18
100
AcDb2dPolyline
 66
1
 70
128
  0
VERTEX
  5
107
100
AcDbEntity
  8
Dzialki
100
AcDbVertex
100
AcDb2dVertex
 10
8382199.00999999978
 20
5694554.5700000003
  0
VERTEX
  5
108
100
AcDbEntity
  8
Dzialki
100
AcDbVertex
100
AcDb2dVertex
 10
8382201.91999999992
 20
5694558.90000000037
  0
SEQEND
  5
109
100
AcDbEntity
  8
Dzialki
  0
POLYLINE
  5
10A
100
AcDbEntity
  8
Dzialki
  6
CONTINUOUS
370
18
100
AcDb2dPolyline
 66
1
 70
128
  0
VERTEX
  5
10B
100
AcDbEntity
  8
Dzialki
100
AcDbVertex
100
AcDb2dVertex
 10
8382175.8200000003
 20
5694520.0
  0
VERTEX
  5
10C
100
AcDbEntity
  8
Dzialki
100
AcDbVertex
100
AcDb2dVertex
 10
8382199.00999999978
 20
5694554.5700000003
  0
SEQEND
  5
10D
100
AcDbEntity
  8
Dzialki
  0
POINT
  5
10E
100
AcDbEntity
  8
Dzialki
100
AcDbPoint
 62
256
 10
8382176.44000000041
 20
5694584.03000000026
  0
POINT
  5
10F
100
AcDbEntity
  8
Dzialki
100
AcDbPoint
 62
256
 10
8382197.71999999974
 20
5694617.3200000003
  0
POINT
  5
110
100
AcDbEntity
  8
Dzialki
100
AcDbPoint
 62
256
 10
8382197.71999999974
 20
5694617.3200000003
  0
POINT
  5
111
100
AcDbEntity
  8
Dzialki
100
AcDbPoint
 62
256
 10
8382168.20000000019
 20
5694636.12999999989
  0
POINT
  5
112
100
AcDbEntity
  8
Dzialki
100
AcDbPoint
 62
256
 10
8382168.20000000019
 20
5694636.12999999989
  0
POINT
  5
113
100
AcDbEntity
  8
Dzialki
100
AcDbPoint
 62
256
 10
8382146.9299999997
 20
5694602.84999999963
  0
POINT
  5
114
100
AcDbEntity
  8
Dzialki
100
AcDbPoint
 62
256
 10
8382146.9299999997
 20
5694602.84999999963
  0
POINT
  5
115
100
AcDbEntity
  8
Dzialki
100
AcDbPoint
 62
256
 10
8382176.44000000041
 20
5694584.03000000026
  0
POINT
  5
116
100
AcDbEntity
  8
Dzialki
100
AcDbPoint
 62
256
 10
8382205.95000000019
 20
5694565.21999999974
  0
POINT
  5
117
100
AcDbEntity
  8
Dzialki
100
AcDbPoint
 62
256
 10
8382227.23000000045
 20
5694598.5
  0
POINT
  5
118
100
AcDbEntity
  8
Dzialki
100
AcDbPoint
 62
256
 10
8382227.23000000045
 20
5694598.5
  0
POINT
  5
119
100
AcDbEntity
  8
Dzialki
100
AcDbPoint
 62
256
 10
8382197.71999999974
 20
5694617.3200000003
  0
POINT
  5
11A
100
AcDbEntity
  8
Dzialki
100
AcDbPoint
 62
256
 10
8382176.44000000041
 20
5694584.03000000026
  0
POINT
  5
11B
100
AcDbEntity
  8
Dzialki
100
AcDbPoint
 62
256
 10
8382205.95000000019
 20
5694565.21999999974
  0
POINT
  5
11C
100
AcDbEntity
  8
Dzialki
100
AcDbPoint
 62
256
 10
8382159.62000000011
 20
5694500.38999999966
  0
POINT
  5
11D
100
AcDbEntity
  8
Dzialki
100
AcDbPoint
 62
256
 10
8382117.48000000045
 20
5694527.33000000007
  0
POINT
  5
11E
100
AcDbEntity
  8
Dzialki
100
AcDbPoint
 62
256
 10
8382117.48000000045
 20
5694527.33000000007
  0
POINT
  5
11F
100
AcDbEntity
  8
Dzialki
100
AcDbPoint
 62
256
 10
8382113.20999999996
 20
5694533.63999999966
  0
POINT
  5
120
100
AcDbEntity
  8
Dzialki
100
AcDbPoint
 62
256
 10
8382113.20999999996
 20
5694533.63999999966
  0
POINT
  5
121
100
AcDbEntity
  8
Dzialki
100
AcDbPoint
 62
256
 10
8382110.24000000022
 20
5694529.00999999978
  0
POINT
  5
122
100
AcDbEntity
  8
Dzialki
100
AcDbPoint
 62
256
 10
8382110.24000000022
 20
5694529.00999999978
  0
POINT
  5
123
100
AcDbEntity
  8
Dzialki
100
AcDbPoint
 62
256
 10
8382107.25999999978
 20
5694524.37999999989
  0
POINT
  5
124
100
AcDbEntity
  8
Dzialki
100
AcDbPoint
 62
256
 10
8382107.25999999978
 20
5694524.37999999989
  0
POINT
  5
125
100
AcDbEntity
  8
Dzialki
100
AcDbPoint
 62
256
 10
8382114.78000000026
 20
5694523.12000000011
  0
POINT
  5
126
100
AcDbEntity
  8
Dzialki
100
AcDbPoint
 62
256
 10
8382114.78000000026
 20
5694523.12000000011
  0
POINT
  5
127
100
AcDbEntity
  8
Dzialki
100
AcDbPoint
 62
256
 10
8382156.91999999992
 20
5694496.19000000041
  0
POINT
  5
128
100
AcDbEntity
  8
Dzialki
100
AcDbPoint
 62
256
 10
8382156.91999999992
 20
5694496.19000000041
  0
POINT
  5
129
100
AcDbEntity
  8
Dzialki
100
AcDbPoint
 62
256
 10
8382157.83999999985
 20
5694492.03000000026
  0
POINT
  5
12A
100
AcDbEntity
  8
Dzialki
100
AcDbPoint
 62
256
 10
8382157.83999999985
 20
5694492.03000000026
  0
POINT
  5
12B
100
AcDbEntity
  8
Dzialki
100
AcDbPoint
 62
256
 10
8382163.79000000004
 20
5694501.28000000026
  0
POINT
  5
12C
100
AcDbEntity
  8
Dzialki
100
AcDbPoint
 62
256
 10
8382163.79000000004
 20
5694501.28000000026
  0
POINT
  5
12D
100
AcDbEntity
  8
Dzialki
100
AcDbPoint
 62
256
 10
8382159.62000000011
 20
5694500.38999999966
  0
POINT
  5
12E
100
AcDbEntity
  8
Dzialki
100
AcDbPoint
 62
256
 10
8382168.20000000019
 20
5694636.12999999989
  0
POINT
  5
12F
100
AcDbEntity
  8
Dzialki
100
AcDbPoint
 62
256
 10
8382115.28000000026
 20
5694669.86000000034
  0
POINT
  5
130
100
AcDbEntity
  8
Dzialki
100
AcDbPoint
 62
256
 10
8382115.28000000026
 20
5694669.86000000034
  0
POINT
  5
131
100
AcDbEntity
  8
Dzialki
100
AcDbPoint
 62
256
 10
8382089.79999999981
 20
5694630.37999999989
  0
POINT
  5
132
100
AcDbEntity
  8
Dzialki
100
AcDbPoint
 62
256
 10
8382089.79999999981
 20
5694630.37999999989
  0
POINT
  5
133
100
AcDbEntity
  8
Dzialki
100
AcDbPoint
 62
256
 10
8382122.86000000034
 20
5694609.29999999981
  0
POINT
  5
134
100
AcDbEntity
  8
Dzialki
100
AcDbPoint
 62
256
 10
8382122.86000000034
 20
5694609.29999999981
  0
POINT
  5
135
100
AcDbEntity
  8
Dzialki
100
AcDbPoint
 62
256
 10
8382142.87999999989
 20
5694596.54000000004
  0
POINT
  5
136
100
AcDbEntity
  8
Dzialki
100
AcDbPoint
 62
256
 10
8382142.87999999989
 20
5694596.54000000004
  0
POINT
  5
137
100
AcDbEntity
  8
Dzialki
100
AcDbPoint
 62
256
 10
8382146.9299999997
 20
5694602.84999999963
  0
POINT
  5
138
100
AcDbEntity
  8
Dzialki
100
AcDbPoint
 62
256
 10
8382142.87999999989
 20
5694596.54000000004
  0
POINT
  5
139
100
AcDbEntity
  8
Dzialki
100
AcDbPoint
 62
256
 10
8382159.79000000004
 20
5694585.75999999978
  0
POINT
  5
13A
100
AcDbEntity
  8
Dzialki
100
AcDbPoint
 62
256
 10
8382159.79000000004
 20
5694585.75999999978
  0
POINT
  5
13B
100
AcDbEntity
  8
Dzialki
100
AcDbPoint
 62
256
 10
8382201.91999999992
 20
5694558.90000000037
  0
POINT
  5
13C
100
AcDbEntity
  8
Dzialki
100
AcDbPoint
 62
256
 10
8382201.91999999992
 20
5694558.90000000037
  0
POINT
  5
13D
100
AcDbEntity
  8
Dzialki
100
AcDbPoint
 62
256
 10
8382205.95000000019
 20
5694565.21999999974
  0
POINT
  5
13E
100
AcDbEntity
  8
Dzialki
100
AcDbPoint
 62
256
 10
8382125.24000000022
 20
5694552.36000000034
  0
POINT
  5
13F
100
AcDbEntity
  8
Dzialki
100
AcDbPoint
 62
256
 10
8382097.74000000022
 20
5694569.95999999996
  0
POINT
  5
140
100
AcDbEntity
  8
Dzialki
100
AcDbPoint
 62
256
 10
8382097.74000000022
 20
5694569.95999999996
  0
POINT
  5
141
100
AcDbEntity
  8
Dzialki
100
AcDbPoint
 62
256
 10
8382064.03000000026
 20
5694591.51999999862
  0
POINT
  5
142
100
AcDbEntity
  8
Dzialki
100
AcDbPoint
 62
256
 10
8382064.03000000026
 20
5694591.51999999862
  0
POINT
  5
143
100
AcDbEntity
  8
Dzialki
100
AcDbPoint
 62
256
 10
8382049.0700000003
 20
5694568.15000000037
  0
POINT
  5
144
100
AcDbEntity
  8
Dzialki
100
AcDbPoint
 62
256
 10
8382049.0700000003
 20
5694568.15000000037
  0
POINT
  5
145
100
AcDbEntity
  8
Dzialki
100
AcDbPoint
 62
256
 10
8382110.24000000022
 20
5694529.00999999978
  0
POINT
  5
146
100
AcDbEntity
  8
Dzialki
100
AcDbPoint
 62
256
 10
8382113.20999999996
 20
5694533.63999999966
  0
POINT
  5
147
100
AcDbEntity
  8
Dzialki
100
AcDbPoint
 62
256
 10
8382125.24000000022
 20
5694552.36000000034
  0
POINT
  5
148
100
AcDbEntity
  8
Dzialki
100
AcDbPoint
 62
256
 10
8382175.8200000003
 20
5694520.0
  0
POINT
  5
149
100
AcDbEntity
  8
Dzialki
100
AcDbPoint
 62
256
 10
8382134.37000000011
 20
5694546.51999999862
  0
POINT
  5
14A
100
AcDbEntity
  8
Dzialki
100
AcDbPoint
 62
256
 10
8382134.37000000011
 20
5694546.51999999862
  0
POINT
  5
14B
100
AcDbEntity
  8
Dzialki
100
AcDbPoint
 62
256
 10
8382125.24000000022
 20
5694552.36000000034
  0
POINT
  5
14C
100
AcDbEntity
  8
Dzialki
100
AcDbPoint
 62
256
 10
8382163.79000000004
 20
5694501.28000000026
  0
POINT
  5
14D
100
AcDbEntity
  8
Dzialki
100
AcDbPoint
 62
256
 10
8382175.8200000003
 20
5694520.0
  0
POINT
  5
14E
100
AcDbEntity
  8
Dzialki
100
AcDbPoint
 62
256
 10
8382134.37000000011
 20
5694546.51999999862
  0
POINT
  5
14F
100
AcDbEntity
  8
Dzialki
100
AcDbPoint
 62
256
 10
8382157.13999999966
 20
5694581.62000000011
  0
POINT
  5
150
100
AcDbEntity
  8
Dzialki
100
AcDbPoint
 62
256
 10
8382157.13999999966
 20
5694581.62000000011
  0
POINT
  5
151
100
AcDbEntity
  8
Dzialki
100
AcDbPoint
 62
256
 10
8382159.79000000004
 20
5694585.75999999978
  0
POINT
  5
152
100
AcDbEntity
  8
Dzialki
100
AcDbPoint
 62
256
 10
8382122.86000000034
 20
5694609.29999999981
  0
POINT
  5
153
100
AcDbEntity
  8
Dzialki
100
AcDbPoint
 62
256
 10
8382097.74000000022
 20
5694569.95999999996
  0
POINT
  5
154
100
AcDbEntity
  8
Dzialki
100
AcDbPoint
 62
256
 10
8382157.13999999966
 20
5694581.62000000011
  0
POINT
  5
155
100
AcDbEntity
  8
Dzialki
100
AcDbPoint
 62
256
 10
8382199.00999999978
 20
5694554.5700000003
  0
POINT
  5
156
100
AcDbEntity
  8
Dzialki
100
AcDbPoint
 62
256
 10
8382199.00999999978
 20
5694554.5700000003
  0
POINT
  5
157
100
AcDbEntity
  8
Dzialki
100
AcDbPoint
 62
256
 10
8382201.91999999992
 20
5694558.90000000037
  0
POINT
  5
158
100
AcDbEntity
  8
Dzialki
100
AcDbPoint
 62
256
 10
8382175.8200000003
 20
5694520.0
  0
POINT
  5
159
100
AcDbEntity
  8
Dzialki
100
AcDbPoint
 62
256
 10
8382199.00999999978
 20
5694554.5700000003
  0
POINT
  5
15A
100
AcDbEntity
  8
0
100
AcDbPoint
 62
256
 10
8382199.00999999978
 20
5694554.5700000003
  0
POINT
  5
15B
100
AcDbEntity
  8
0
100
AcDbPoint
 62
256
 10
8382157.13999999966
 20
5694581.62000000011
  0
POINT
  5
15C
100
AcDbEntity
  8
0
100
AcDbPoint
 62
256
 10
8382134.37000000011
 20
5694546.51999999955
  0
POINT
  5
15D
100
AcDbEntity
  8
0
100
AcDbPoint
 62
256
 10
8382175.8200000003
 20
5694520.0
  0
TEXT
  5
15E
100
AcDbEntity
  8
Numery_dzialek
 62
7
370
25
100
AcDbText
 10
8382169.3663117392
 20
5694612.32678831928
 40
1.26
  1
92/2
 50
0.00
 41
0.66
  7
STANDARD
 72
0
 11
8382169.3663117392
 21
5694613.58678830974
100
AcDbText
 73
3
  0
TEXT
  5
15F
100
AcDbEntity
  8
Numery_dzialek
 62
7
370
25
100
AcDbText
 10
8382202.76249679737
 20
5694590.85412782151
 40
1.26
  1
92/3
 50
0.00
 41
0.66
  7
STANDARD
 72
0
 11
8382202.76249679737
 21
5694592.11412781198
100
AcDbText
 73
3
  0
TEXT
  5
160
100
AcDbEntity
  8
Numery_dzialek
 62
7
370
25
100
AcDbText
 10
8382137.32431978174
 20
5694510.40819519851
 40
1.26
  1
94/16
 50
0.00
 41
0.66
  7
STANDARD
 72
0
 11
8382137.32431978174
 21
5694511.66819518898
100
AcDbText
 73
3
  0
TEXT
  5
161
100
AcDbEntity
  8
Numery_dzialek
 62
7
370
25
100
AcDbText
 10
8382128.25506296474
 20
5694632.29211325757
 40
1.26
  1
92/1
 50
0.00
 41
0.66
  7
STANDARD
 72
0
 11
8382128.25506296474
 21
5694633.55211324804
100
AcDbText
 73
3
  0
TEXT
  5
162
100
AcDbEntity
  8
Numery_dzialek
 62
7
370
25
100
AcDbText
 10
8382163.7259287294
 20
5694586.9658739185
 40
1.26
  1
92/4
 50
0.00
 41
0.66
  7
STANDARD
 72
0
 11
8382163.7259287294
 21
5694588.22587390896
100
AcDbText
 73
3
  0
TEXT
  5
163
100
AcDbEntity
  8
Numery_dzialek
 62
7
370
25
100
AcDbText
 10
8382081.89892619103
 20
5694559.89770438895
 40
1.26
  1
94/13
 50
0.00
 41
0.66
  7
STANDARD
 72
0
 11
8382081.89892619103
 21
5694561.15770437941
100
AcDbText
 73
3
  0
TEXT
  5
164
100
AcDbEntity
  8
Numery_dzialek
 62
7
370
25
100
AcDbText
 10
8382141.19624855462
 20
5694522.72146522347
 40
1.26
  1
94/15
 50
0.00
 41
0.66
  7
STANDARD
 72
0
 11
8382141.19624855462
 21
5694523.98146521393
100
AcDbText
 73
3
  0
TEXT
  5
165
100
AcDbEntity
  8
Numery_dzialek
 62
7
370
25
100
AcDbText
 10
8382128.8083395781
 20
5694577.49664641358
 40
1.26
  1
93/5
 50
0.00
 41
0.66
  7
STANDARD
 72
0
 11
8382128.8083395781
 21
5694578.75664640404
100
AcDbText
 73
3
  0
TEXT
  5
166
100
AcDbEntity
  8
Numery_dzialek
 62
7
370
25
100
AcDbText
 10
8382174.87576920725
 20
5694571.92570143472
 40
1.26
  1
93/7
 50
0.00
 41
0.66
  7
STANDARD
 72
0
 11
8382174.87576920725
 21
5694573.18570142519
100
AcDbText
 73
3
  0
TEXT
  5
167
100
AcDbEntity
  8
Numery_dzialek
 62
7
370
25
100
AcDbText
 10
8382163.94814636838
 20
5694554.78433226515
 40
1.26
  1
93/6
 50
0.00
 41
0.66
  7
STANDARD
 72
0
 11
8382163.94814636838
 21
5694556.04433225561
100
AcDbText
 73
3
  0
TEXT
  5
168
100
AcDbEntity
  8
Numery_punktow
 62
7
370
18
100
AcDbText
 10
8382176.44000000041
 20
5694583.1300000241
 40
0.90
  1
13-7902
 50
0.00
 41
0.66
  7
STANDARD
 72
0
 11
8382176.44000000041
 21
5694584.03000000026
100
AcDbText
 73
3
  0
TEXT
  5
169
100
AcDbEntity
  8
Numery_punktow
 62
7
370
18
100
AcDbText
 10
8382197.71999999974
 20
5694616.42000002414
 40
0.90
  1
13-7900
 50
0.00
 41
0.66
  7
STANDARD
 72
0
 11
8382197.71999999974
 21
5694617.3200000003
100
AcDbText
 73
3
  0
TEXT
  5
16A
100
AcDbEntity
  8
Numery_punktow
 62
7
370
18
100
AcDbText
 10
8382168.20000000019
 20
5694635.23000002373
 40
0.90
  1
13-7899
 50
0.00
 41
0.66
  7
STANDARD
 72
0
 11
8382168.20000000019
 21
5694636.12999999989
100
AcDbText
 73
3
  0
TEXT
  5
16B
100
AcDbEntity
  8
Numery_punktow
 62
7
370
18
100
AcDbText
 10
8382146.9299999997
 20
5694601.95000002347
 40
0.90
  1
13-7901
 50
0.00
 41
0.66
  7
STANDARD
 72
0
 11
8382146.9299999997
 21
5694602.84999999963
100
AcDbText
 73
3
  0
TEXT
  5
16C
100
AcDbEntity
  8
Numery_punktow
 62
7
370
18
100
AcDbText
 10
8382205.95000000019
 20
5694564.32000002358
 40
0.90
  1
13-7903
 50
0.00
 41
0.66
  7
STANDARD
 72
0
 11
8382205.95000000019
 21
5694565.21999999974
100
AcDbText
 73
3
  0
TEXT
  5
16D
100
AcDbEntity
  8
Numery_punktow
 62
7
370
18
100
AcDbText
 10
8382227.23000000045
 20
5694597.60000002384
 40
0.90
  1
13-1423
 50
0.00
 41
0.66
  7
STANDARD
 72
0
 11
8382227.23000000045
 21
5694598.5
100
AcDbText
 73
3
  0
TEXT
  5
16E
100
AcDbEntity
  8
Numery_punktow
 62
7
370
18
100
AcDbText
 10
8382159.62000000011
 20
5694499.49000002351
 40
0.90
  1
13-720
 50
0.00
 41
0.66
  7
STANDARD
 72
0
 11
8382159.62000000011
 21
5694500.38999999966
100
AcDbText
 73
3
  0
TEXT
  5
16F
100
AcDbEntity
  8
Numery_punktow
 62
7
370
18
100
AcDbText
 10
8382117.48000000045
 20
5694526.43000002392
 40
0.90
  1
13-723
 50
0.00
 41
0.66
  7
STANDARD
 72
0
 11
8382117.48000000045
 21
5694527.33000000007
100
AcDbText
 73
3
  0
TEXT
  5
170
100
AcDbEntity
  8
Numery_punktow
 62
7
370
18
100
AcDbText
 10
8382113.20999999996
 20
5694532.74000002351
 40
0.90
  1
13-715
 50
0.00
 41
0.66
  7
STANDARD
 72
0
 11
8382113.20999999996
 21
5694533.63999999966
100
AcDbText
 73
3
  0
TEXT
  5
171
100
AcDbEntity
  8
Numery_punktow
 62
7
370
18
100
AcDbText
 10
8382110.24000000022
 20
5694528.11000002362
 40
0.90
  1
13-716
 50
0.00
 41
0.66
  7
STANDARD
 72
0
 11
8382110.24000000022
 21
5694529.00999999978
100
AcDbText
 73
3
  0
TEXT
  5
172
100
AcDbEntity
  8
Numery_punktow
 62
7
370
18
100
AcDbText
 10
8382107.25999999978
 20
5694523.48000002373
 40
0.90
  1
13-717
 50
0.00
 41
0.66
  7
STANDARD
 72
0
 11
8382107.25999999978
 21
5694524.37999999989
100
AcDbText
 73
3
  0
TEXT
  5
173
100
AcDbEntity
  8
Numery_punktow
 62
7
370
18
100
AcDbText
 10
8382114.78000000026
 20
5694522.22000002395
 40
0.90
  1
13-724
 50
0.00
 41
0.66
  7
STANDARD
 72
0
 11
8382114.78000000026
 21
5694523.12000000011
100
AcDbText
 73
3
  0
TEXT
  5
174
100
AcDbEntity
  8
Numery_punktow
 62
7
370
18
100
AcDbText
 10
8382156.91999999992
 20
5694495.29000002425
 40
0.90
  1
13-721
 50
0.00
 41
0.66
  7
STANDARD
 72
0
 11
8382156.91999999992
 21
5694496.19000000041
100
AcDbText
 73
3
  0
TEXT
  5
175
100
AcDbEntity
  8
Numery_punktow
 62
7
370
18
100
AcDbText
 10
8382157.83999999985
 20
5694491.1300000241
 40
0.90
  1
13-722
 50
0.00
 41
0.66
  7
STANDARD
 72
0
 11
8382157.83999999985
 21
5694492.03000000026
100
AcDbText
 73
3
  0
TEXT
  5
176
100
AcDbEntity
  8
Numery_punktow
 62
7
370
18
100
AcDbText
 10
8382163.79000000004
 20
5694500.3800000241
 40
0.90
  1
13-719
 50
0.00
 41
0.66
  7
STANDARD
 72
0
 11
8382163.79000000004
 21
5694501.28000000026
100
AcDbText
 73
3
  0
TEXT
  5
177
100
AcDbEntity
  8
Numery_punktow
 62
7
370
18
100
AcDbText
 10
8382115.28000000026
 20
5694668.96000002418
 40
0.90
  1
13-1424
 50
0.00
 41
0.66
  7
STANDARD
 72
0
 11
8382115.28000000026
 21
5694669.86000000034
100
AcDbText
 73
3
  0
TEXT
  5
178
100
AcDbEntity
  8
Numery_punktow
 62
7
370
18
100
AcDbText
 10
8382089.79999999981
 20
5694629.48000002373
 40
0.90
  1
13-7904
 50
0.00
 41
0.66
  7
STANDARD
 72
0
 11
8382089.79999999981
 21
5694630.37999999989
100
AcDbText
 73
3
  0
TEXT
  5
179
100
AcDbEntity
  8
Numery_punktow
 62
7
370
18
100
AcDbText
 10
8382122.86000000034
 20
5694608.40000002366
 40
0.90
  1
13-880
 50
0.00
 41
0.66
  7
STANDARD
 72
0
 11
8382122.86000000034
 21
5694609.29999999981
100
AcDbText
 73
3
  0
TEXT
  5
17A
100
AcDbEntity
  8
Numery_punktow
 62
7
370
18
100
AcDbText
 10
8382142.87999999989
 20
5694595.64000002388
 40
0.90
  1
13-7906
 50
0.00
 41
0.66
  7
STANDARD
 72
0
 11
8382142.87999999989
 21
5694596.54000000004
100
AcDbText
 73
3
  0
TEXT
  5
17B
100
AcDbEntity
  8
Numery_punktow
 62
7
370
18
100
AcDbText
 10
8382159.79000000004
 20
5694584.86000002362
 40
0.90
  1
13-884
 50
0.00
 41
0.66
  7
STANDARD
 72
0
 11
8382159.79000000004
 21
5694585.75999999978
100
AcDbText
 73
3
  0
TEXT
  5
17C
100
AcDbEntity
  8
Numery_punktow
 62
7
370
18
100
AcDbText
 10
8382201.91999999992
 20
5694558.00000002421
 40
0.90
  1
13-7905
 50
0.00
 41
0.66
  7
STANDARD
 72
0
 11
8382201.91999999992
 21
5694558.90000000037
100
AcDbText
 73
3
  0
TEXT
  5
17D
100
AcDbEntity
  8
Numery_punktow
 62
7
370
18
100
AcDbText
 10
8382125.24000000022
 20
5694551.46000002418
 40
0.90
  1
13-714
 50
0.00
 41
0.66
  7
STANDARD
 72
0
 11
8382125.24000000022
 21
5694552.36000000034
100
AcDbText
 73
3
  0
TEXT
  5
17E
100
AcDbEntity
  8
Numery_punktow
 62
7
370
18
100
AcDbText
 10
8382097.74000000022
 20
5694569.0600000238
 40
0.90
  1
13-881
 50
0.00
 41
0.66
  7
STANDARD
 72
0
 11
8382097.74000000022
 21
5694569.95999999996
100
AcDbText
 73
3
  0
TEXT
  5
17F
100
AcDbEntity
  8
Numery_punktow
 62
7
370
18
100
AcDbText
 10
8382064.03000000026
 20
5694590.62000002246
 40
0.90
  1
13-613
 50
0.00
 41
0.66
  7
STANDARD
 72
0
 11
8382064.03000000026
 21
5694591.51999999862
100
AcDbText
 73
3
  0
TEXT
  5
180
100
AcDbEntity
  8
Numery_punktow
 62
7
370
18
100
AcDbText
 10
8382049.0700000003
 20
5694567.25000002421
 40
0.90
  1
13-614
 50
0.00
 41
0.66
  7
STANDARD
 72
0
 11
8382049.0700000003
 21
5694568.15000000037
100
AcDbText
 73
3
  0
TEXT
  5
181
100
AcDbEntity
  8
Numery_punktow
 62
7
370
18
100
AcDbText
 10
8382175.8200000003
 20
5694519.10000002384
 40
0.90
  1
13-24
 50
0.00
 41
0.66
  7
STANDARD
 72
0
 11
8382175.8200000003
 21
5694520.0
100
AcDbText
 73
3
  0
TEXT
  5
182
100
AcDbEntity
  8
Numery_punktow
 62
7
370
18
100
AcDbText
 10
8382134.37000000011
 20
5694545.62000002246
 40
0.90
  1
13-882
 50
0.00
 41
0.66
  7
STANDARD
 72
0
 11
8382134.37000000011
 21
5694546.51999999862
100
AcDbText
 73
3
  0
TEXT
  5
183
100
AcDbEntity
  8
Numery_punktow
 62
7
370
18
100
AcDbText
 10
8382157.13999999966
 20
5694580.72000002395
 40
0.90
  1
13-883
 50
0.00
 41
0.66
  7
STANDARD
 72
0
 11
8382157.13999999966
 21
5694581.62000000011
100
AcDbText
 73
3
  0
TEXT
  5
184
100
AcDbEntity
  8
Numery_punktow
 62
7
370
18
100
AcDbText
 10
8382199.00999999978
 20
5694553.67000002414
 40
0.90
  1
13-913
 50
0.00
 41
0.66
  7
STANDARD
 72
0
 11
8382199.00999999978
 21
5694554.5700000003
100
AcDbText
 73
3
  0
TEXT
  5
185
100
AcDbEntity
  8
Numery_punktow
 62
7
370
18
100
AcDbText
 10
8382164.29999999981
 20
5694501.27000002377
 40
0.90
  1
13-420a
 50
0.00
 41
0.66
  7
STANDARD
 72
0
 11
8382164.29999999981
 21
5694502.16999999993
100
AcDbText
 73
3
  0
TEXT
  5
186
100
AcDbEntity
  8
Numery_punktow
 62
7
370
18
100
AcDbText
 10
8382169.80999999959
 20
5694498.54000002425
 40
0.90
  1
13-546
 50
0.00
 41
0.66
  7
STANDARD
 72
0
 11
8382169.80999999959
 21
5694499.44000000041
100
AcDbText
 73
3
  0
TEXT
  5
187
100
AcDbEntity
  8
Numery_punktow
370
18
100
AcDbText
 10
8382134.31999999564
 20
5694544.34999999683
 40
0.90
  1
stb
 50
0.00
 41
0.66
  7
STANDARD
 72
0
 11
8382134.31999999564
 21
5694545.24999999721
100
AcDbText
 73
3
  0
TEXT
  5
188
100
AcDbEntity
  8
Numery_punktow
370
18
100
AcDbText
 10
8382200.44999999553
 20
5694552.38999999687
 40
0.90
  1
stb
 50
0.00
 41
0.66
  7
STANDARD
 72
0
 11
8382200.44999999553
 21
5694553.28999999724
100
AcDbText
 73
3
  0
TEXT
  5
189
100
AcDbEntity
  8
Numery_punktow
370
18
100
AcDbText
 10
8382176.00999999605
 20
5694517.83999999706
 40
0.90
  1
stb
 50
0.00
 41
0.66
  7
STANDARD
 72
0
 11
8382176.00999999605
 21
5694518.73999999743
100
AcDbText
 73
3
  0
ENDSEC
  0
SECTION
  2
OBJECTS
  0
DICTIONARY
  5
18A
330
0
100
AcDbDictionary
280
0
281
1
  3
ACAD_GROUP
350
18B
  3
ACAD_LAYOUT
350
18C
  3
ACAD_MLINESTYLE
350
18D
  3
ACAD_PLOTSETTINGS
350
18E
  3
ACAD_PLOTSTYLENAME
350
18F
  3
ACAD_WIPEOUT_VARS
350
190
  0
DICTIONARY
  5
18B
102
{ACAD_REACTORS
330
18A
102
}
330
18A
100
AcDbDictionary
280
0
281
1
  0
DICTIONARY
  5
18C
102
{ACAD_REACTORS
330
18A
102
}
330
18A
100
AcDbDictionary
280
0
281
1
  3
Layout
350
1F
  3
Model
350
1D
  0
DICTIONARY
  5
18D
102
{ACAD_REACTORS
330
18A
102
}
330
18A
100
AcDbDictionary
280
0
281
1
  3
Standard
350
191
  3
L_0_02
350
7
  0
DICTIONARY
  5
18E
102
{ACAD_REACTORS
330
18A
102
}
330
18A
100
AcDbDictionary
280
0
281
1
  0
ACDBDICTIONARYWDFLT
  5
18F
102
{ACAD_REACTORS
330
18A
102
}
330
18A
100
AcDbDictionary
281
1
  3
Normal
350
E
100
AcDbDictionaryWithDefault
340
E
  0
WIPEOUTVARIABLES
  5
190
102
{ACAD_REACTORS
330
18A
102
}
330
18A
100
AcDbWipeoutVariables
 70
0
  0
LAYOUT
  5
1F
100
AcDbPlotSettings
  1

  2

  4

  6

 40
0.0
 41
0.0
 42
0.0
 43
0.0
 44
0.0
 45
0.0
 46
0.0
 47
0.0
 48
0.0
 49
0.0
140
0.0
141
0.0
142
1.0
143
1.0
 70
688
 72
1
 73
0
 74
5
  7

 75
0
147
1.0
148
0.0
149
0.0
100
AcDbLayout
  1
Layout
 70
1
 71
1
 10
0.0
 20
0.0
 11
420.0
 21
297.0
 12
0.0
 22
0.0
 32
0.0
 14
100000000000000000000.0
 24
100000000000000000000.0
 34
100000000000000000000.0
 15
-100000000000000000000.0
 25
-100000000000000000000.0
 35
-100000000000000000000.0
146
0.0
 13
0.0
 23
0.0
 33
0.0
 16
1.0
 26
0.0
 36
0.0
 17
0.0
 27
1.0
 37
0.0
 76
0
330
1E
  0
LAYOUT
  5
1D
100
AcDbPlotSettings
  1

  2

  4

  6

 40
0.0
 41
0.0
 42
0.0
 43
0.0
 44
0.0
 45
0.0
 46
0.0
 47
0.0
 48
0.0
 49
0.0
140
0.0
141
0.0
142
1.0
143
1.0
 70
1712
 72
1
 73
0
 74
0
  7

 75
0
147
1.0
148
0.0
149
0.0
100
AcDbLayout
  1
Model
 70
1
 71
0
 10
0.0
 20
0.0
 11
12.0
 21
9.0
 12
0.0
 22
0.0
 32
0.0
 14
0.0
 24
0.0
 34
0.0
 15
0.0
 25
0.0
 35
0.0
146
0.0
 13
0.0
 23
0.0
 33
0.0
 16
1.0
 26
0.0
 36
0.0
 17
0.0
 27
1.0
 37
0.0
 76
0
330
1C
  0
MLINESTYLE
  5
191
102
{ACAD_REACTORS
330
18D
102
}
330
18D
100
AcDbMlineStyle
  2
Standard
 70
0
  3

 62
256
 51
90.0
 52
90.0
  2
Standard
 71
2
 49
0.5
 62
256
  6
ByLayer
 49
-0.5
 62
256
  6
ByLayer
  0
MLINESTYLE
  5
7
100
AcDbMlineStyle
  2
L_0_02
 70
0
  3

 51
90.0
 52
90.0
 71
1
 49
0.0
 62
256
  6
CONTINUOUS
  0
ACDBPLACEHOLDER
  5
E
  0
ENDSEC
  0
EOF
