  0
SECTION
  2
HEADER
  9
$ACADVER
  1
AC1027
  9
$ACADMAINTVER
 70
     8
  9
$DWGCODEPAGE
  3
ANSI_1250
  9
$REQUIREDVERSIONS
160
                 0
  9
$INSBASE
 10
0.0
 20
0.0
 30
0.0
  9
$EXTMIN
 10
7507735.48
 20
5713450.15
 30
0.0
  9
$EXTMAX
 10
7508315.759999999
 20
5714231.63
 30
0.0
  9
$LIMMIN
 10
7507735.48
 20
5713450.15
  9
$LIMMAX
 10
7508315.759999999
 20
5714231.63
  9
$ORTHOMODE
 70
     0
  9
$REGENMODE
 70
     1
  9
$FILLMODE
 70
     1
  9
$QTEXTMODE
 70
     0
  9
$MIRRTEXT
 70
     0
  9
$LTSCALE
 40
1.0
  9
$ATTMODE
 70
     1
  9
$TEXTSIZE
 40
0.2
  9
$TRACEWID
 40
0.05
  9
$TEXTSTYLE
  7
STANDARD
  9
$CLAYER
  8
0
  9
$CELTYPE
  6
CONTINUOUS
  9
$CECOLOR
 62
   256
  9
$CELTSCALE
 40
1.0
  9
$DISPSILH
 70
     0
  9
$DIMSCALE
 40
1.0
  9
$DIMASZ
 40
2.5
  9
$DIMEXO
 40
0.625
  9
$DIMDLI
 40
0.38
  9
$DIMRND
 40
0.0
  9
$DIMDLE
 40
0.0
  9
$DIMEXE
 40
1.25
  9
$DIMTP
 40
0.0
  9
$DIMTM
 40
0.0
  9
$DIMTXT
 40
2.5
  9
$DIMCEN
 40
0.09
  9
$DIMTSZ
 40
0.0
  9
$DIMTOL
 70
     0
  9
$DIMLIM
 70
     0
  9
$DIMTIH
 70
     1
  9
$DIMTOH
 70
     1
  9
$DIMSE1
 70
     0
  9
$DIMSE2
 70
     0
  9
$DIMTAD
 70
     0
  9
$DIMZIN
 70
     0
  9
$DIMBLK
  1

  9
$DIMASO
 70
     1
  9
$DIMSHO
 70
     1
  9
$DIMPOST
  1

  9
$DIMAPOST
  1

  9
$DIMALT
 70
     0
  9
$DIMALTD
 70
     2
  9
$DIMALTF
 40
25.4
  9
$DIMLFAC
 40
1.0
  9
$DIMTOFL
 70
     0
  9
$DIMTVP
 40
0.0
  9
$DIMTIX
 70
     0
  9
$DIMSOXD
 70
     0
  9
$DIMSAH
 70
     0
  9
$DIMBLK1
  1

  9
$DIMBLK2
  1

  9
$DIMSTYLE
  2
Standard
  9
$DIMCLRD
 70
     0
  9
$DIMCLRE
 70
     0
  9
$DIMCLRT
 70
     0
  9
$DIMTFAC
 40
1.0
  9
$DIMGAP
 40
0.625
  9
$DIMJUST
 70
     0
  9
$DIMSD1
 70
     0
  9
$DIMSD2
 70
     0
  9
$DIMTOLJ
 70
     1
  9
$DIMTZIN
 70
     0
  9
$DIMALTZ
 70
     0
  9
$DIMALTTZ
 70
     0
  9
$DIMUPT
 70
     0
  9
$DIMDEC
 70
     4
  9
$DIMTDEC
 70
     4
  9
$DIMALTU
 70
     2
  9
$DIMALTTD
 70
     2
  9
$DIMTXSTY
  7
STANDARD
  9
$DIMAUNIT
 70
     0
  9
$DIMADEC
 70
     0
  9
$DIMALTRND
 40
0.0
  9
$DIMAZIN
 70
     0
  9
$DIMDSEP
 70
    46
  9
$DIMATFIT
 70
     3
  9
$DIMFRAC
 70
     0
  9
$DIMLDRBLK
  1

  9
$DIMLUNIT
 70
     2
  9
$DIMLWD
 70
    -2
  9
$DIMLWE
 70
    -2
  9
$DIMTMOVE
 70
     0
  9
$DIMFXL
 40
1.0
  9
$DIMFXLON
 70
     0
  9
$DIMJOGANG
 40
0.7853981633974483
  9
$DIMTFILL
 70
     0
  9
$DIMTFILLCLR
 70
     0
  9
$DIMARCSYM
 70
     0
  9
$DIMLTYPE
  6

  9
$DIMLTEX1
  6

  9
$DIMLTEX2
  6

  9
$DIMTXTDIRECTION
 70
     0
  9
$LUNITS
 70
     2
  9
$LUPREC
 70
     4
  9
$SKETCHINC
 40
0.1
  9
$FILLETRAD
 40
0.0
  9
$AUNITS
 70
     0
  9
$AUPREC
 70
     0
  9
$MENU
  1

  9
$ELEVATION
 40
0.0
  9
$PELEVATION
 40
0.0
  9
$THICKNESS
 40
0.0
  9
$LIMCHECK
 70
     0
  9
$CHAMFERA
 40
0.0
  9
$CHAMFERB
 40
0.0
  9
$CHAMFERC
 40
0.0
  9
$CHAMFERD
 40
0.0
  9
$SKPOLY
 70
     0
  9
$TDCREATE
 40
2305814.358856343
  9
$TDUCREATE
 40
44735.275523009
  9
$TDUPDATE
 40
2459754.363162106
  9
$TDUUPDATE
 40
2459754.279828773
  9
$TDINDWG
 40
0.002248819
  9
$TDUSRTIMER
 40
0.002246528
  9
$USRTIMER
 70
     1
  9
$ANGBASE
 50
0.0
  9
$ANGDIR
 70
     0
  9
$PDMODE
 70
     0
  9
$PDSIZE
 40
0.0
  9
$PLINEWID
 40
0.0
  9
$SPLFRAME
 70
     0
  9
$SPLINETYPE
 70
     6
  9
$SPLINESEGS
 70
     8
  9
$HANDSEED
  5
1000039
  9
$SURFTAB1
 70
     6
  9
$SURFTAB2
 70
     6
  9
$SURFTYPE
 70
     6
  9
$SURFU
 70
     6
  9
$SURFV
 70
     6
  9
$UCSBASE
  2

  9
$UCSNAME
  2

  9
$UCSORG
 10
0.0
 20
0.0
 30
0.0
  9
$UCSXDIR
 10
1.0
 20
0.0
 30
0.0
  9
$UCSYDIR
 10
0.0
 20
1.0
 30
0.0
  9
$UCSORTHOREF
  2

  9
$UCSORTHOVIEW
 70
     0
  9
$UCSORGTOP
 10
0.0
 20
0.0
 30
0.0
  9
$UCSORGBOTTOM
 10
0.0
 20
0.0
 30
0.0
  9
$UCSORGLEFT
 10
0.0
 20
0.0
 30
0.0
  9
$UCSORGRIGHT
 10
0.0
 20
0.0
 30
0.0
  9
$UCSORGFRONT
 10
0.0
 20
0.0
 30
0.0
  9
$UCSORGBACK
 10
0.0
 20
0.0
 30
0.0
  9
$PUCSBASE
  2

  9
$PUCSNAME
  2

  9
$PUCSORG
 10
0.0
 20
0.0
 30
0.0
  9
$PUCSXDIR
 10
1.0
 20
0.0
 30
0.0
  9
$PUCSYDIR
 10
0.0
 20
1.0
 30
0.0
  9
$PUCSORTHOREF
  2

  9
$PUCSORTHOVIEW
 70
     0
  9
$PUCSORGTOP
 10
0.0
 20
0.0
 30
0.0
  9
$PUCSORGBOTTOM
 10
0.0
 20
0.0
 30
0.0
  9
$PUCSORGLEFT
 10
0.0
 20
0.0
 30
0.0
  9
$PUCSORGRIGHT
 10
0.0
 20
0.0
 30
0.0
  9
$PUCSORGFRONT
 10
0.0
 20
0.0
 30
0.0
  9
$PUCSORGBACK
 10
0.0
 20
0.0
 30
0.0
  9
$USERI1
 70
     0
  9
$USERI2
 70
     0
  9
$USERI3
 70
     0
  9
$USERI4
 70
     0
  9
$USERI5
 70
     0
  9
$USERR1
 40
0.0
  9
$USERR2
 40
0.0
  9
$USERR3
 40
0.0
  9
$USERR4
 40
0.0
  9
$USERR5
 40
0.0
  9
$WORLDVIEW
 70
     1
  9
$SHADEDGE
 70
     3
  9
$SHADEDIF
 70
    70
  9
$TILEMODE
 70
     1
  9
$MAXACTVP
 70
    64
  9
$PINSBASE
 10
0.0
 20
0.0
 30
0.0
  9
$PLIMCHECK
 70
     0
  9
$PEXTMIN
 10
1.000000000000000E+20
 20
1.000000000000000E+20
 30
1.000000000000000E+20
  9
$PEXTMAX
 10
-1.000000000000000E+20
 20
-1.000000000000000E+20
 30
-1.000000000000000E+20
  9
$PLIMMIN
 10
0.0
 20
0.0
  9
$PLIMMAX
 10
210.0
 20
297.0
  9
$UNITMODE
 70
     0
  9
$VISRETAIN
 70
     1
  9
$PLINEGEN
 70
     0
  9
$PSLTSCALE
 70
     1
  9
$TREEDEPTH
 70
  3020
  9
$CMLSTYLE
  2
Standard
  9
$CMLJUST
 70
     0
  9
$CMLSCALE
 40
1.0
  9
$PROXYGRAPHICS
 70
     1
  9
$MEASUREMENT
 70
     0
  9
$CELWEIGHT
370
    -1
  9
$ENDCAPS
280
     0
  9
$JOINSTYLE
280
     0
  9
$LWDISPLAY
290
     1
  9
$INSUNITS
 70
     6
  9
$HYPERLINKBASE
  1

  9
$STYLESHEET
  1

  9
$XEDIT
290
     0
  9
$CEPSNTYPE
380
     0
  9
$PSTYLEMODE
290
     1
  9
$FINGERPRINTGUID
  2
{C74C41E1-4EAF-462D-962D-74E3308FF849}
  9
$VERSIONGUID
  2
{E625151B-F7DC-47B0-8BC7-2A0907F55F79}
  9
$EXTNAMES
290
     1
  9
$PSVPSCALE
 40
0.0
  9
$OLESTARTUP
290
     0
  9
$SORTENTS
280
   127
  9
$INDEXCTL
280
     0
  9
$HIDETEXT
280
     1
  9
$XCLIPFRAME
280
     2
  9
$HALOGAP
280
     0
  9
$OBSCOLOR
 70
   257
  9
$OBSLTYPE
280
     0
  9
$INTERSECTIONDISPLAY
280
     0
  9
$INTERSECTIONCOLOR
 70
   257
  9
$DIMASSOC
280
     2
  9
$PROJECTNAME
  1

  9
$CAMERADISPLAY
290
     0
  9
$LENSLENGTH
 40
50.0
  9
$CAMERAHEIGHT
 40
0.0
  9
$STEPSPERSEC
 40
2.0
  9
$STEPSIZE
 40
6.0
  9
$3DDWFPREC
 40
2.0
  9
$PSOLWIDTH
 40
0.25
  9
$PSOLHEIGHT
 40
4.0
  9
$LOFTANG1
 40
1.570796326794896
  9
$LOFTANG2
 40
1.570796326794896
  9
$LOFTMAG1
 40
0.0
  9
$LOFTMAG2
 40
0.0
  9
$LOFTPARAM
 70
     7
  9
$LOFTNORMALS
280
     1
  9
$LATITUDE
 40
0.0
  9
$LONGITUDE
 40
0.0
  9
$NORTHDIRECTION
 40
0.0
  9
$TIMEZONE
 70
 -8000
  9
$LIGHTGLYPHDISPLAY
280
     1
  9
$TILEMODELIGHTSYNCH
280
     1
  9
$CMATERIAL
347
1000000
  9
$SOLIDHIST
280
     1
  9
$SHOWHIST
280
     1
  9
$DWFFRAME
280
     2
  9
$DGNFRAME
280
     0
  9
$REALWORLDSCALE
290
     1
  9
$INTERFERECOLOR
 62
     1
  9
$CSHADOW
280
     0
  9
$SHADOWPLANELOCATION
 40
0.0
  0
ENDSEC
  0
SECTION
  2
CLASSES
  0
CLASS
  1
ACDBDICTIONARYWDFLT
  2
AcDbDictionaryWithDefault
  3
ObjectDBX Classes
 90
    32768
 91
        1
280
     0
281
     0
  0
CLASS
  1
MATERIAL
  2
AcDbMaterial
  3
ObjectDBX Classes
 90
        0
 91
        3
280
     0
281
     0
  0
CLASS
  1
VISUALSTYLE
  2
AcDbVisualStyle
  3
ObjectDBX Classes
 90
     4095
 91
       24
280
     0
281
     0
  0
CLASS
  1
TABLESTYLE
  2
AcDbTableStyle
  3
ObjectDBX Classes
 90
     2047
 91
        1
280
     0
281
     0
  0
CLASS
  1
MLEADERSTYLE
  2
AcDbMLeaderStyle
  3
ACDB_MLEADERSTYLE_CLASS
 90
     4095
 91
        1
280
     0
281
     0
  0
CLASS
  1
SCALE
  2
AcDbScale
  3
ObjectDBX Classes
 90
     1153
 91
       17
280
     0
281
     0
  0
CLASS
  1
DICTIONARYVAR
  2
AcDbDictionaryVar
  3
ObjectDBX Classes
 90
        0
 91
        4
280
     0
281
     0
  0
ENDSEC
  0
SECTION
  2
TABLES
  0
TABLE
  2
VPORT
  5
1
330
0
100
AcDbSymbolTable
 70
     1
  0
VPORT
  5
2
330
1
100
AcDbSymbolTableRecord
100
AcDbViewportTableRecord
  2
*ACTIVE
 70
     0
 10
0.0
 20
0.0
 11
1.0
 21
1.0
 12
7508001.366016836
 22
5713992.494140649
 13
0.0
 23
0.0
 14
1.0
 24
1.0
 15
0.0
 25
0.0
 16
0.0
 26
0.0
 36
1.0
 17
0.0
 27
0.0
 37
0.0
 40
56.68711368582069
 41
1.727659574468084
 42
50.0
 43
0.0
 44
0.0
 50
0.0
 51
0.0
 71
     0
 72
   100
 73
     1
 74
     1
 75
     0
 76
     0
 77
     0
 78
     0
281
     0
 65
     1
110
0.0
120
0.0
130
0.0
111
1.0
121
0.0
131
0.0
112
0.0
122
1.0
132
0.0
 79
     0
146
0.0
348
1000008
 60
     3
 61
     5
292
     1
282
     1
141
0.0
142
0.0
 63
   256
  0
ENDTAB
  0
TABLE
  2
LTYPE
  5
3
330
0
100
AcDbSymbolTable
 70
     8
  0
LTYPE
  5
4
330
3
100
AcDbSymbolTableRecord
100
AcDbLinetypeTableRecord
  2
ByBlock
 70
     0
  3

 72
    65
 73
     0
 40
0.0
  0
LTYPE
  5
5
330
3
100
AcDbSymbolTableRecord
100
AcDbLinetypeTableRecord
  2
ByLayer
 70
     0
  3

 72
    65
 73
     0
 40
0.0
  0
LTYPE
  5
6
330
3
100
AcDbSymbolTableRecord
100
AcDbLinetypeTableRecord
  2
CONTINUOUS
 70
     0
  3
Solid line
 72
    65
 73
     0
 40
0.0
  0
LTYPE
  5
8
330
3
100
AcDbSymbolTableRecord
100
AcDbLinetypeTableRecord
  2
L_0_02
 70
     0
  3
Dzialka_ewidencyjna (MLineStyle)
 72
    65
 73
     0
 40
0.0
  0
LTYPE
  5
9
330
3
100
AcDbSymbolTableRecord
100
AcDbLinetypeTableRecord
  2
L_0_03
 70
     0
  3
Uzytek_gruntowy
 72
    65
 73
     3
 40
1.0
 49
-0.25
 74
     0
 49
0.5
 74
     0
 49
-0.25
 74
     0
  0
LTYPE
  5
A
330
3
100
AcDbSymbolTableRecord
100
AcDbLinetypeTableRecord
  2
L_0_04
 70
     0
  3
Budynek_projektowany
 72
    65
 73
     2
 40
1.5
 49
1.0
 74
     0
 49
-0.5
 74
     0
  0
LTYPE
  5
B
330
3
100
AcDbSymbolTableRecord
100
AcDbLinetypeTableRecord
  2
L_0_06
 70
     0
  3
Granica_konturu_klasyfikacyjnego_Krawedz_chodnika
 72
    65
 73
     3
 40
2.0
 49
-0.25
 74
     0
 49
1.5
 74
     0
 49
-0.25
 74
     0
  0
LTYPE
  5
C
330
3
100
AcDbSymbolTableRecord
100
AcDbLinetypeTableRecord
  2
L_0_4E
 70
     0
  3
L_0_4E
 72
    65
 73
     2
 40
2.5
 49
1.5
 74
     0
 49
-1.0
 74
     0
  0
LTYPE
  5
E
330
3
100
AcDbSymbolTableRecord
100
AcDbLinetypeTableRecord
  2
L_0_E3_00
 70
     0
  3
Budynek_w_budowie_dla_MZ2015_1_500___1_1000
 72
    65
 73
     3
 40
1.5
 49
0.0
 74
     0
 49
1.0
 74
     0
 49
-0.5
 74
     0
  0
LTYPE
  5
F
330
3
100
AcDbSymbolTableRecord
100
AcDbLinetypeTableRecord
  2
L_0_E3
 70
     0
  3
Budynek_w_budowie_dla_MZ2015_1_500___1_1000 (MLineStyle)
 72
    65
 73
     0
 40
0.0
  0
ENDTAB
  0
TABLE
  2
LAYER
  5
10
330
0
100
AcDbSymbolTable
 70
    33
  0
LAYER
  5
11
330
10
100
AcDbSymbolTableRecord
100
AcDbLayerTableRecord
  2
0
 70
     0
 62
    18
420
        0
  6
CONTINUOUS
370
    18
390
12
347
1000002
348
0
  0
LAYER
  5
13
330
10
100
AcDbSymbolTableRecord
100
AcDbLayerTableRecord
  2
DZIALKI_L_0
 70
     0
 62
    96
420
    32768
  6
CONTINUOUS
370
    18
390
12
347
1000002
348
0
  0
LAYER
  5
14
330
10
100
AcDbSymbolTableRecord
100
AcDbLayerTableRecord
  2
EADTD_T_0
 70
     0
 62
     6
420
 16711935
  6
CONTINUOUS
370
    25
390
12
347
1000002
348
0
  0
LAYER
  5
15
330
10
100
AcDbSymbolTableRecord
100
AcDbLayerTableRecord
  2
EBUOA_T_0
 70
     0
 62
    14
420
 10027008
  6
CONTINUOUS
370
    18
390
12
347
1000002
348
0
  0
LAYER
  5
16
330
10
100
AcDbSymbolTableRecord
100
AcDbLayerTableRecord
  2
EBUOA_T_1
 70
     0
 62
    14
420
 10027008
  6
CONTINUOUS
370
    25
390
12
347
1000002
348
0
  0
LAYER
  5
17
330
10
100
AcDbSymbolTableRecord
100
AcDbLayerTableRecord
  2
EBUPP_L_1
 70
     0
 62
    14
420
 10027008
  6
CONTINUOUS
370
    50
390
12
347
1000002
348
0
  0
LAYER
  5
18
330
10
100
AcDbSymbolTableRecord
100
AcDbLayerTableRecord
  2
EBUPP_L_2
 70
     0
 62
    15
420
 10046540
  6
CONTINUOUS
370
    50
390
12
347
1000002
348
0
  0
LAYER
  5
19
330
10
100
AcDbSymbolTableRecord
100
AcDbLayerTableRecord
  2
EPGPO_L_0
 70
     0
 62
    18
420
        0
  6
L_0_4E
370
    35
390
12
347
1000002
348
0
  0
LAYER
  5
1A
330
10
100
AcDbSymbolTableRecord
100
AcDbLayerTableRecord
  2
NR_DZIALKI_T_0
 70
     0
 62
    96
420
    32768
  6
CONTINUOUS
370
    18
390
12
347
1000002
348
0
  0
LAYER
  5
1B
330
10
100
AcDbSymbolTableRecord
100
AcDbLayerTableRecord
  2
przekroje_co_25m
 70
     0
 62
   202
420
  9699539
  6
CONTINUOUS
370
    18
390
12
347
1000002
348
0
  0
LAYER
  5
1C
330
10
100
AcDbSymbolTableRecord
100
AcDbLayerTableRecord
  2
SDROK_T_0
 70
     0
 62
    18
420
        0
  6
CONTINUOUS
370
    25
390
12
347
1000002
348
0
  0
LAYER
  5
1D
330
10
100
AcDbSymbolTableRecord
100
AcDbLayerTableRecord
  2
SDRPK_L_1
 70
     0
 62
    18
420
        0
  6
L_0_04
370
    18
390
12
347
1000002
348
0
  0
LAYER
  5
1E
330
10
100
AcDbSymbolTableRecord
100
AcDbLayerTableRecord
  2
SDRPK_L_4
 70
     0
 62
    18
420
        0
  6
L_0_04
370
    18
390
12
347
1000002
348
0
  0
LAYER
  5
1F
330
10
100
AcDbSymbolTableRecord
100
AcDbLayerTableRecord
  2
SZOPO_L_0
 70
     0
 62
   171
420
  8355839
  6
CONTINUOUS
370
    35
390
12
347
1000002
348
0
  0
LAYER
  5
20
330
10
100
AcDbSymbolTableRecord
100
AcDbLayerTableRecord
  2
SZOPO_T_0
 70
     0
 62
   171
420
  8355839
  6
CONTINUOUS
370
    35
390
12
347
1000002
348
0
  0
LAYER
  5
21
330
10
100
AcDbSymbolTableRecord
100
AcDbLayerTableRecord
  2
UEEOA_T_3
 70
     0
 62
     1
420
 16711680
  6
CONTINUOUS
370
    18
390
12
347
1000002
348
0
  0
LAYER
  5
22
330
10
100
AcDbSymbolTableRecord
100
AcDbLayerTableRecord
  2
UEEOC_T_3
 70
     0
 62
     1
420
 16711680
  6
CONTINUOUS
370
    25
390
12
347
1000002
348
0
  0
LAYER
  5
23
330
10
100
AcDbSymbolTableRecord
100
AcDbLayerTableRecord
  2
UEEOO_T_0
 70
     0
 62
     1
420
 16711680
  6
CONTINUOUS
370
    18
390
12
347
1000002
348
0
  0
LAYER
  5
24
330
10
100
AcDbSymbolTableRecord
100
AcDbLayerTableRecord
  2
UEEPA_L_2
 70
     0
 62
     1
420
 16711680
  6
CONTINUOUS
370
    18
390
12
347
1000002
348
0
  0
LAYER
  5
25
330
10
100
AcDbSymbolTableRecord
100
AcDbLayerTableRecord
  2
UEEPON_L_0
 70
     0
 62
     1
420
 16711680
  6
CONTINUOUS
370
    18
390
12
347
1000002
348
0
  0
LAYER
  5
26
330
10
100
AcDbSymbolTableRecord
100
AcDbLayerTableRecord
  2
UTTPA_T_3
 70
     0
 62
    30
420
 16744192
  6
CONTINUOUS
370
    18
390
12
347
1000002
348
0
  0
LAYER
  5
27
330
10
100
AcDbSymbolTableRecord
100
AcDbLayerTableRecord
  2
UWWOA_T_0
 70
     0
 62
     5
420
      255
  6
CONTINUOUS
370
    18
390
12
347
1000002
348
0
  0
LAYER
  5
28
330
10
100
AcDbSymbolTableRecord
100
AcDbLayerTableRecord
  2
UWWOC_T_0
 70
     0
 62
     5
420
      255
  6
CONTINUOUS
370
    25
390
12
347
1000002
348
0
  0
LAYER
  5
29
330
10
100
AcDbSymbolTableRecord
100
AcDbLayerTableRecord
  2
UWWOO_T_0
 70
     0
 62
     5
420
      255
  6
CONTINUOUS
370
    18
390
12
347
1000002
348
0
  0
LAYER
  5
2A
330
10
100
AcDbSymbolTableRecord
100
AcDbLayerTableRecord
  2
UWWPA_T_0
 70
     0
 62
     5
420
      255
  6
CONTINUOUS
370
    18
390
12
347
1000002
348
0
  0
LAYER
  5
2B
330
10
100
AcDbSymbolTableRecord
100
AcDbLayerTableRecord
  2
UWWPO_L_0
 70
     0
 62
     5
420
      255
  6
CONTINUOUS
370
    18
390
12
347
1000002
348
0
  0
LAYER
  5
2C
330
10
100
AcDbSymbolTableRecord
100
AcDbLayerTableRecord
  2
UWWPO_L_1
 70
     0
 62
     5
420
      255
  6
CONTINUOUS
370
    18
390
12
347
1000002
348
0
  0
LAYER
  5
2D
330
10
100
AcDbSymbolTableRecord
100
AcDbLayerTableRecord
  2
UZYTEK_L_0
 70
     0
 62
    96
420
    32768
  6
L_0_03
370
    18
390
12
347
1000002
348
0
  0
LAYER
  5
2E
330
10
100
AcDbSymbolTableRecord
100
AcDbLayerTableRecord
  2
WUKOS_T_1
 70
     0
 62
    34
420
 10046464
  6
CONTINUOUS
370
    18
390
12
347
1000002
348
0
  0
LAYER
  5
2F
330
10
100
AcDbSymbolTableRecord
100
AcDbLayerTableRecord
  2
WUKOS_T_2
 70
     0
 62
    34
420
 10046464
  6
CONTINUOUS
370
    18
390
12
347
1000002
348
0
  0
LAYER
  5
30
330
10
100
AcDbSymbolTableRecord
100
AcDbLayerTableRecord
  2
WUKOS_T_3
 70
     0
 62
    34
420
 10046464
  6
CONTINUOUS
370
    18
390
12
347
1000002
348
0
  0
LAYER
  5
31
330
10
100
AcDbSymbolTableRecord
100
AcDbLayerTableRecord
  2
WUKOS_T_4
 70
     0
 62
    34
420
 10046464
  6
CONTINUOUS
370
    18
390
12
347
1000002
348
0
  0
LAYER
  5
32
330
10
100
AcDbSymbolTableRecord
100
AcDbLayerTableRecord
  2
ZAKRES_L_0
 70
     0
 62
   150
420
    32767
  6
L_0_04
370
    35
390
12
347
1000002
348
0
  0
ENDTAB
  0
TABLE
  2
STYLE
  5
33
330
0
100
AcDbSymbolTable
 70
     2
  0
STYLE
  5
34
330
33
100
AcDbSymbolTableRecord
100
AcDbTextStyleTableRecord
  2
STANDARD
 70
     0
 40
0.0
 41
1.0
 50
0.0
 71
     0
 42
0.2
  3
simplex.shx
  4

  0
STYLE
  5
35
330
33
100
AcDbSymbolTableRecord
100
AcDbTextStyleTableRecord
  2
STANDARD_ITALIC
 70
     0
 40
0.0
 41
1.0
 50
15.0
 71
     0
 42
0.2
  3
simplex.shx
  4

  0
ENDTAB
  0
TABLE
  2
VIEW
  5
36
330
0
100
AcDbSymbolTable
 70
     0
  0
ENDTAB
  0
TABLE
  2
UCS
  5
37
330
0
100
AcDbSymbolTable
 70
     0
  0
ENDTAB
  0
TABLE
  2
APPID
  5
38
330
0
100
AcDbSymbolTable
 70
     1
  0
APPID
  5
39
330
38
100
AcDbSymbolTableRecord
100
AcDbRegAppTableRecord
  2
ACAD
 70
     0
  0
ENDTAB
  0
TABLE
  2
DIMSTYLE
  5
3A
330
0
100
AcDbSymbolTable
 70
     1
100
AcDbDimStyleTable
 71
     0
  0
DIMSTYLE
105
3B
330
3A
100
AcDbSymbolTableRecord
100
AcDbDimStyleTableRecord
  2
Standard
 70
     0
340
34
  0
ENDTAB
  0
TABLE
  2
BLOCK_RECORD
  5
3C
330
0
100
AcDbSymbolTable
 70
     3
  0
BLOCK_RECORD
  5
3D
330
3C
100
AcDbSymbolTableRecord
100
AcDbBlockTableRecord
  2
*MODEL_SPACE
340
3E
 70
     0
280
     1
281
     0
  0
BLOCK_RECORD
  5
3F
330
3C
100
AcDbSymbolTableRecord
100
AcDbBlockTableRecord
  2
*PAPER_SPACE
340
40
 70
     0
280
     1
281
     0
  0
BLOCK_RECORD
  5
41
330
3C
100
AcDbSymbolTableRecord
100
AcDbBlockTableRecord
  2
RTPW01
340
0
102
{BLKREFS
331
4DE
331
4DF
331
4E0
331
4E1
331
4E2
331
4E3
331
4E4
102
}
 70
     0
280
     1
281
     0
  0
BLOCK_RECORD
  5
43
330
3C
100
AcDbSymbolTableRecord
100
AcDbBlockTableRecord
  2
L_0_02_1
340
0
 70
     0
280
     1
281
     0
  0
BLOCK_RECORD
  5
45
330
3C
100
AcDbSymbolTableRecord
100
AcDbBlockTableRecord
  2
L_0_02_2
340
0
 70
     0
280
     1
281
     0
  0
ENDTAB
  0
ENDSEC
  0
SECTION
  2
BLOCKS
  0
BLOCK
  5
47
330
3D
100
AcDbEntity
  8
0
100
AcDbBlockBegin
  2
*MODEL_SPACE
 70
     0
 10
0.0
 20
0.0
 30
0.0
  3
*MODEL_SPACE
  1

  0
ENDBLK
  5
48
330
3D
100
AcDbEntity
  8
0
100
AcDbBlockEnd
  0
BLOCK
  5
49
330
3F
100
AcDbEntity
 67
     1
  8
0
100
AcDbBlockBegin
  2
*PAPER_SPACE
 70
     0
 10
0.0
 20
0.0
 30
0.0
  3
*PAPER_SPACE
  1

  0
ENDBLK
  5
4A
330
3F
100
AcDbEntity
 67
     1
  8
0
100
AcDbBlockEnd
  0
BLOCK
  5
42
330
41
100
AcDbEntity
  8
0
 62
     0
370
    13
100
AcDbBlockBegin
  2
RTPW01
 70
     0
 10
0.0
 20
0.0
 30
0.0
  3
RTPW01
  1

  0
HATCH
  5
4B
330
41
100
AcDbEntity
  8
0
  6
Continuous
 62
     0
370
    13
100
AcDbHatch
 10
0.0
 20
0.0
 30
0.0
210
0.0
220
0.0
230
1.0
  2
SOLID
 70
     1
 71
     1
 91
        1
 92
        3
 72
     1
 73
     1
 93
        2
 10
0.0
 20
-0.090553851381
 42
1.0
 10
0.0
 20
0.090553851381
 42
1.0
 97
        0
 75
     0
 76
     1
 98
        1
 10
0.0
 20
0.0
  0
CIRCLE
  5
4C
330
41
100
AcDbEntity
  8
0
  6
Continuous
 62
     0
370
    13
100
AcDbCircle
 10
0.0
 20
0.0
 30
0.0
 40
0.090553851381
  0
ENDBLK
  5
4D
330
41
100
AcDbEntity
  8
0
100
AcDbBlockEnd
  0
BLOCK
  5
44
330
43
100
AcDbEntity
  8
0
 62
     0
370
    13
100
AcDbBlockBegin
  2
L_0_02_1
 70
     0
 10
0.0
 20
0.0
 30
0.0
  3
L_0_02_1
  1

  0
POINT
  5
4E
330
43
100
AcDbEntity
  8
0
 62
     0
100
AcDbPoint
 10
0.0
 20
0.0
 30
0.0
  0
ENDBLK
  5
4F
330
43
100
AcDbEntity
  8
0
100
AcDbBlockEnd
  0
BLOCK
  5
46
330
45
100
AcDbEntity
  8
0
 62
     0
370
    13
100
AcDbBlockBegin
  2
L_0_02_2
 70
     0
 10
0.0
 20
0.0
 30
0.0
  3
L_0_02_2
  1

  0
POINT
  5
50
330
45
100
AcDbEntity
  8
0
 62
     0
100
AcDbPoint
 10
0.0
 20
0.0
 30
0.0
  0
ENDBLK
  5
51
330
45
100
AcDbEntity
  8
0
100
AcDbBlockEnd
  0
ENDSEC
  0
SECTION
  2
ENTITIES
  0
POLYLINE
  5
5A
330
3D
100
AcDbEntity
  8
DZIALKI_L_0
  6
Continuous
370
    18
100
AcDb2dPolyline
 66
     1
 10
0.0
 20
0.0
 30
0.0
 70
   128
  0
VERTEX
  5
5B
330
5A
100
AcDbEntity
  8
DZIALKI_L_0
100
AcDbVertex
100
AcDb2dVertex
 10
7507979.230000001
 20
5713985.509999999
 30
0.0
  0
VERTEX
  5
5C
330
5A
100
AcDbEntity
  8
DZIALKI_L_0
100
AcDbVertex
100
AcDb2dVertex
 10
7507913.2
 20
5713988.259999999
 30
0.0
  0
SEQEND
  5
5D
330
0
100
AcDbEntity
  8
DZIALKI_L_0
  0
POLYLINE
  5
76
330
3D
100
AcDbEntity
  8
DZIALKI_L_0
  6
Continuous
370
    18
100
AcDb2dPolyline
 66
     1
 10
0.0
 20
0.0
 30
0.0
 70
   128
  0
VERTEX
  5
77
330
76
100
AcDbEntity
  8
DZIALKI_L_0
100
AcDbVertex
100
AcDb2dVertex
 10
7507904.769999998
 20
5713738.799999999
 30
0.0
  0
VERTEX
  5
78
330
76
100
AcDbEntity
  8
DZIALKI_L_0
100
AcDbVertex
100
AcDb2dVertex
 10
7507898.480000001
 20
5713676.249999999
 30
0.0
  0
SEQEND
  5
79
330
0
100
AcDbEntity
  8
DZIALKI_L_0
  0
POLYLINE
  5
7A
330
3D
100
AcDbEntity
  8
DZIALKI_L_0
  6
Continuous
370
    18
100
AcDb2dPolyline
 66
     1
 10
0.0
 20
0.0
 30
0.0
 70
   128
  0
VERTEX
  5
7B
330
7A
100
AcDbEntity
  8
DZIALKI_L_0
100
AcDbVertex
100
AcDb2dVertex
 10
7507898.480000001
 20
5713676.249999999
 30
0.0
  0
VERTEX
  5
7C
330
7A
100
AcDbEntity
  8
DZIALKI_L_0
100
AcDbVertex
100
AcDb2dVertex
 10
7507946.3
 20
5713673.39
 30
0.0
  0
SEQEND
  5
7D
330
0
100
AcDbEntity
  8
DZIALKI_L_0
  0
POLYLINE
  5
7E
330
3D
100
AcDbEntity
  8
DZIALKI_L_0
  6
Continuous
370
    18
100
AcDb2dPolyline
 66
     1
 10
0.0
 20
0.0
 30
0.0
 70
   128
  0
VERTEX
  5
7F
330
7E
100
AcDbEntity
  8
DZIALKI_L_0
100
AcDbVertex
100
AcDb2dVertex
 10
7507952.110000001
 20
5713728.61
 30
0.0
  0
VERTEX
  5
80
330
7E
100
AcDbEntity
  8
DZIALKI_L_0
100
AcDbVertex
100
AcDb2dVertex
 10
7507952.679999999
 20
5713733.969999999
 30
0.0
  0
SEQEND
  5
81
330
0
100
AcDbEntity
  8
DZIALKI_L_0
  0
POLYLINE
  5
82
330
3D
100
AcDbEntity
  8
DZIALKI_L_0
  6
Continuous
370
    18
100
AcDb2dPolyline
 66
     1
 10
0.0
 20
0.0
 30
0.0
 70
   128
  0
VERTEX
  5
83
330
82
100
AcDbEntity
  8
DZIALKI_L_0
100
AcDbVertex
100
AcDb2dVertex
 10
7507952.679999999
 20
5713733.969999999
 30
0.0
  0
VERTEX
  5
84
330
82
100
AcDbEntity
  8
DZIALKI_L_0
100
AcDbVertex
100
AcDb2dVertex
 10
7507904.769999998
 20
5713738.799999999
 30
0.0
  0
SEQEND
  5
85
330
0
100
AcDbEntity
  8
DZIALKI_L_0
  0
POLYLINE
  5
86
330
3D
100
AcDbEntity
  8
DZIALKI_L_0
  6
Continuous
370
    18
100
AcDb2dPolyline
 66
     1
 10
0.0
 20
0.0
 30
0.0
 70
   128
  0
VERTEX
  5
87
330
86
100
AcDbEntity
  8
DZIALKI_L_0
100
AcDbVertex
100
AcDb2dVertex
 10
7507949.090000001
 20
5713689.87
 30
0.0
  0
VERTEX
  5
88
330
86
100
AcDbEntity
  8
DZIALKI_L_0
100
AcDbVertex
100
AcDb2dVertex
 10
7507946.3
 20
5713673.39
 30
0.0
  0
SEQEND
  5
89
330
0
100
AcDbEntity
  8
DZIALKI_L_0
  0
POLYLINE
  5
8A
330
3D
100
AcDbEntity
  8
DZIALKI_L_0
  6
Continuous
370
    18
100
AcDb2dPolyline
 66
     1
 10
0.0
 20
0.0
 30
0.0
 70
   128
  0
VERTEX
  5
8B
330
8A
100
AcDbEntity
  8
DZIALKI_L_0
100
AcDbVertex
100
AcDb2dVertex
 10
7507904.769999998
 20
5713738.799999999
 30
0.0
  0
VERTEX
  5
8C
330
8A
100
AcDbEntity
  8
DZIALKI_L_0
100
AcDbVertex
100
AcDb2dVertex
 10
7507910.99
 20
5713800.66
 30
0.0
  0
SEQEND
  5
8D
330
0
100
AcDbEntity
  8
DZIALKI_L_0
  0
POLYLINE
  5
8E
330
3D
100
AcDbEntity
  8
DZIALKI_L_0
  6
Continuous
370
    18
100
AcDb2dPolyline
 66
     1
 10
0.0
 20
0.0
 30
0.0
 70
   128
  0
VERTEX
  5
8F
330
8E
100
AcDbEntity
  8
DZIALKI_L_0
100
AcDbVertex
100
AcDb2dVertex
 10
7507959.11
 20
5713795.82
 30
0.0
  0
VERTEX
  5
90
330
8E
100
AcDbEntity
  8
DZIALKI_L_0
100
AcDbVertex
100
AcDb2dVertex
 10
7507979.230000001
 20
5713985.509999999
 30
0.0
  0
SEQEND
  5
91
330
0
100
AcDbEntity
  8
DZIALKI_L_0
  0
POLYLINE
  5
92
330
3D
100
AcDbEntity
  8
DZIALKI_L_0
  6
Continuous
370
    18
100
AcDb2dPolyline
 66
     1
 10
0.0
 20
0.0
 30
0.0
 70
   128
  0
VERTEX
  5
93
330
92
100
AcDbEntity
  8
DZIALKI_L_0
100
AcDbVertex
100
AcDb2dVertex
 10
7507952.679999999
 20
5713733.969999999
 30
0.0
  0
VERTEX
  5
94
330
92
100
AcDbEntity
  8
DZIALKI_L_0
100
AcDbVertex
100
AcDb2dVertex
 10
7507959.11
 20
5713795.82
 30
0.0
  0
SEQEND
  5
95
330
0
100
AcDbEntity
  8
DZIALKI_L_0
  0
POLYLINE
  5
96
330
3D
100
AcDbEntity
  8
DZIALKI_L_0
  6
Continuous
370
    18
100
AcDb2dPolyline
 66
     1
 10
0.0
 20
0.0
 30
0.0
 70
   128
  0
VERTEX
  5
97
330
96
100
AcDbEntity
  8
DZIALKI_L_0
100
AcDbVertex
100
AcDb2dVertex
 10
7507959.11
 20
5713795.82
 30
0.0
  0
VERTEX
  5
98
330
96
100
AcDbEntity
  8
DZIALKI_L_0
100
AcDbVertex
100
AcDb2dVertex
 10
7507910.99
 20
5713800.66
 30
0.0
  0
SEQEND
  5
99
330
0
100
AcDbEntity
  8
DZIALKI_L_0
  0
POLYLINE
  5
9A
330
3D
100
AcDbEntity
  8
DZIALKI_L_0
  6
Continuous
370
    18
100
AcDb2dPolyline
 66
     1
 10
0.0
 20
0.0
 30
0.0
 70
   128
  0
VERTEX
  5
9B
330
9A
100
AcDbEntity
  8
DZIALKI_L_0
100
AcDbVertex
100
AcDb2dVertex
 10
7508083.82
 20
5713647.42
 30
0.0
  0
VERTEX
  5
9C
330
9A
100
AcDbEntity
  8
DZIALKI_L_0
100
AcDbVertex
100
AcDb2dVertex
 10
7508005.139999998
 20
5713657.740000001
 30
0.0
  0
SEQEND
  5
9D
330
0
100
AcDbEntity
  8
DZIALKI_L_0
  0
POLYLINE
  5
9E
330
3D
100
AcDbEntity
  8
DZIALKI_L_0
  6
Continuous
370
    18
100
AcDb2dPolyline
 66
     1
 10
0.0
 20
0.0
 30
0.0
 70
   128
  0
VERTEX
  5
9F
330
9E
100
AcDbEntity
  8
DZIALKI_L_0
100
AcDbVertex
100
AcDb2dVertex
 10
7508005.139999998
 20
5713657.740000001
 30
0.0
  0
VERTEX
  5
A0
330
9E
100
AcDbEntity
  8
DZIALKI_L_0
100
AcDbVertex
100
AcDb2dVertex
 10
7507952.8
 20
5713664.12
 30
0.0
  0
SEQEND
  5
A1
330
0
100
AcDbEntity
  8
DZIALKI_L_0
  0
POLYLINE
  5
A2
330
3D
100
AcDbEntity
  8
DZIALKI_L_0
  6
Continuous
370
    18
100
AcDb2dPolyline
 66
     1
 10
0.0
 20
0.0
 30
0.0
 70
   128
  0
VERTEX
  5
A3
330
A2
100
AcDbEntity
  8
DZIALKI_L_0
100
AcDbVertex
100
AcDb2dVertex
 10
7508129.71
 20
5713641.480000001
 30
0.0
  0
VERTEX
  5
A4
330
A2
100
AcDbEntity
  8
DZIALKI_L_0
100
AcDbVertex
100
AcDb2dVertex
 10
7508099.12
 20
5713645.41
 30
0.0
  0
SEQEND
  5
A5
330
0
100
AcDbEntity
  8
DZIALKI_L_0
  0
POLYLINE
  5
A6
330
3D
100
AcDbEntity
  8
DZIALKI_L_0
  6
Continuous
370
    18
100
AcDb2dPolyline
 66
     1
 10
0.0
 20
0.0
 30
0.0
 70
   128
  0
VERTEX
  5
A7
330
A6
100
AcDbEntity
  8
DZIALKI_L_0
100
AcDbVertex
100
AcDb2dVertex
 10
7508099.12
 20
5713645.41
 30
0.0
  0
VERTEX
  5
A8
330
A6
100
AcDbEntity
  8
DZIALKI_L_0
100
AcDbVertex
100
AcDb2dVertex
 10
7508083.82
 20
5713647.42
 30
0.0
  0
SEQEND
  5
A9
330
0
100
AcDbEntity
  8
DZIALKI_L_0
  0
POLYLINE
  5
AA
330
3D
100
AcDbEntity
  8
DZIALKI_L_0
  6
Continuous
370
    18
100
AcDb2dPolyline
 66
     1
 10
0.0
 20
0.0
 30
0.0
 70
   128
  0
VERTEX
  5
AB
330
AA
100
AcDbEntity
  8
DZIALKI_L_0
100
AcDbVertex
100
AcDb2dVertex
 10
7507952.25
 20
5713662.05
 30
0.0
  0
VERTEX
  5
AC
330
AA
100
AcDbEntity
  8
DZIALKI_L_0
100
AcDbVertex
100
AcDb2dVertex
 10
7507952.8
 20
5713664.12
 30
0.0
  0
SEQEND
  5
AD
330
0
100
AcDbEntity
  8
DZIALKI_L_0
  0
POLYLINE
  5
B6
330
3D
100
AcDbEntity
  8
DZIALKI_L_0
  6
Continuous
370
    18
100
AcDb2dPolyline
 66
     1
 10
0.0
 20
0.0
 30
0.0
 70
   128
  0
VERTEX
  5
B7
330
B6
100
AcDbEntity
  8
DZIALKI_L_0
100
AcDbVertex
100
AcDb2dVertex
 10
7508013.42
 20
5713654.019999999
 30
0.0
  0
VERTEX
  5
B8
330
B6
100
AcDbEntity
  8
DZIALKI_L_0
100
AcDbVertex
100
AcDb2dVertex
 10
7508066.139999998
 20
5713647.319999999
 30
0.0
  0
SEQEND
  5
B9
330
0
100
AcDbEntity
  8
DZIALKI_L_0
  0
POLYLINE
  5
BA
330
3D
100
AcDbEntity
  8
DZIALKI_L_0
  6
Continuous
370
    18
100
AcDb2dPolyline
 66
     1
 10
0.0
 20
0.0
 30
0.0
 70
   128
  0
VERTEX
  5
BB
330
BA
100
AcDbEntity
  8
DZIALKI_L_0
100
AcDbVertex
100
AcDb2dVertex
 10
7508066.139999998
 20
5713647.319999999
 30
0.0
  0
VERTEX
  5
BC
330
BA
100
AcDbEntity
  8
DZIALKI_L_0
100
AcDbVertex
100
AcDb2dVertex
 10
7508124.309999999
 20
5713640.08
 30
0.0
  0
SEQEND
  5
BD
330
0
100
AcDbEntity
  8
DZIALKI_L_0
  0
POLYLINE
  5
CE
330
3D
100
AcDbEntity
  8
DZIALKI_L_0
  6
Continuous
370
    18
100
AcDb2dPolyline
 66
     1
 10
0.0
 20
0.0
 30
0.0
 70
   128
  0
VERTEX
  5
CF
330
CE
100
AcDbEntity
  8
DZIALKI_L_0
100
AcDbVertex
100
AcDb2dVertex
 10
7507931.339999999
 20
5713621.05
 30
0.0
  0
VERTEX
  5
D0
330
CE
100
AcDbEntity
  8
DZIALKI_L_0
100
AcDbVertex
100
AcDb2dVertex
 10
7507943.34
 20
5713658.75
 30
0.0
  0
SEQEND
  5
D1
330
0
100
AcDbEntity
  8
DZIALKI_L_0
  0
POLYLINE
  5
DA
330
3D
100
AcDbEntity
  8
DZIALKI_L_0
  6
Continuous
370
    18
100
AcDb2dPolyline
 66
     1
 10
0.0
 20
0.0
 30
0.0
 70
   128
  0
VERTEX
  5
DB
330
DA
100
AcDbEntity
  8
DZIALKI_L_0
100
AcDbVertex
100
AcDb2dVertex
 10
7507946.3
 20
5713673.39
 30
0.0
  0
VERTEX
  5
DC
330
DA
100
AcDbEntity
  8
DZIALKI_L_0
100
AcDbVertex
100
AcDb2dVertex
 10
7507943.34
 20
5713658.75
 30
0.0
  0
SEQEND
  5
DD
330
0
100
AcDbEntity
  8
DZIALKI_L_0
  0
POLYLINE
  5
E2
330
3D
100
AcDbEntity
  8
DZIALKI_L_0
  6
Continuous
370
    18
100
AcDb2dPolyline
 66
     1
 10
0.0
 20
0.0
 30
0.0
 70
   128
  0
VERTEX
  5
E3
330
E2
100
AcDbEntity
  8
DZIALKI_L_0
100
AcDbVertex
100
AcDb2dVertex
 10
7507949.090000001
 20
5713689.87
 30
0.0
  0
VERTEX
  5
E4
330
E2
100
AcDbEntity
  8
DZIALKI_L_0
100
AcDbVertex
100
AcDb2dVertex
 10
7507952.110000001
 20
5713728.61
 30
0.0
  0
SEQEND
  5
E5
330
0
100
AcDbEntity
  8
DZIALKI_L_0
  0
POLYLINE
  5
E6
330
3D
100
AcDbEntity
  8
DZIALKI_L_0
  6
Continuous
370
    18
100
AcDb2dPolyline
 66
     1
 10
0.0
 20
0.0
 30
0.0
 70
   128
  0
VERTEX
  5
E7
330
E6
100
AcDbEntity
  8
DZIALKI_L_0
100
AcDbVertex
100
AcDb2dVertex
 10
7507960.07
 20
5713727.89
 30
0.0
  0
VERTEX
  5
E8
330
E6
100
AcDbEntity
  8
DZIALKI_L_0
100
AcDbVertex
100
AcDb2dVertex
 10
7507957.039999999
 20
5713688.889999999
 30
0.0
  0
SEQEND
  5
E9
330
0
100
AcDbEntity
  8
DZIALKI_L_0
  0
POLYLINE
  5
EA
330
3D
100
AcDbEntity
  8
DZIALKI_L_0
  6
Continuous
370
    18
100
AcDb2dPolyline
 66
     1
 10
0.0
 20
0.0
 30
0.0
 70
   128
  0
VERTEX
  5
EB
330
EA
100
AcDbEntity
  8
DZIALKI_L_0
100
AcDbVertex
100
AcDb2dVertex
 10
7507967.059999998
 20
5713794.980000001
 30
0.0
  0
VERTEX
  5
EC
330
EA
100
AcDbEntity
  8
DZIALKI_L_0
100
AcDbVertex
100
AcDb2dVertex
 10
7507960.07
 20
5713727.89
 30
0.0
  0
SEQEND
  5
ED
330
0
100
AcDbEntity
  8
DZIALKI_L_0
  0
POLYLINE
  5
F2
330
3D
100
AcDbEntity
  8
DZIALKI_L_0
  6
Continuous
370
    18
100
AcDb2dPolyline
 66
     1
 10
0.0
 20
0.0
 30
0.0
 70
   128
  0
VERTEX
  5
F3
330
F2
100
AcDbEntity
  8
DZIALKI_L_0
100
AcDbVertex
100
AcDb2dVertex
 10
7507952.8
 20
5713664.12
 30
0.0
  0
VERTEX
  5
F4
330
F2
100
AcDbEntity
  8
DZIALKI_L_0
100
AcDbVertex
100
AcDb2dVertex
 10
7507957.039999999
 20
5713688.889999999
 30
0.0
  0
SEQEND
  5
F5
330
0
100
AcDbEntity
  8
DZIALKI_L_0
  0
POLYLINE
  5
F6
330
3D
100
AcDbEntity
  8
DZIALKI_L_0
  6
Continuous
370
    18
100
AcDb2dPolyline
 66
     1
 10
0.0
 20
0.0
 30
0.0
 70
   128
  0
VERTEX
  5
F7
330
F6
100
AcDbEntity
  8
DZIALKI_L_0
100
AcDbVertex
100
AcDb2dVertex
 10
7507983.099999998
 20
5713946.09
 30
0.0
  0
VERTEX
  5
F8
330
F6
100
AcDbEntity
  8
DZIALKI_L_0
100
AcDbVertex
100
AcDb2dVertex
 10
7507967.059999998
 20
5713794.980000001
 30
0.0
  0
SEQEND
  5
F9
330
0
100
AcDbEntity
  8
DZIALKI_L_0
  0
POLYLINE
  5
FA
330
3D
100
AcDbEntity
  8
DZIALKI_L_0
  6
Continuous
370
    18
100
AcDb2dPolyline
 66
     1
 10
0.0
 20
0.0
 30
0.0
 70
   128
  0
VERTEX
  5
FB
330
FA
100
AcDbEntity
  8
DZIALKI_L_0
100
AcDbVertex
100
AcDb2dVertex
 10
7508008.580000001
 20
5713943.389999999
 30
0.0
  0
VERTEX
  5
FC
330
FA
100
AcDbEntity
  8
DZIALKI_L_0
100
AcDbVertex
100
AcDb2dVertex
 10
7508015.719999999
 20
5713942.63
 30
0.0
  0
SEQEND
  5
FD
330
0
100
AcDbEntity
  8
DZIALKI_L_0
  0
POLYLINE
  5
FE
330
3D
100
AcDbEntity
  8
DZIALKI_L_0
  6
Continuous
370
    18
100
AcDb2dPolyline
 66
     1
 10
0.0
 20
0.0
 30
0.0
 70
   128
  0
VERTEX
  5
FF
330
FE
100
AcDbEntity
  8
DZIALKI_L_0
100
AcDbVertex
100
AcDb2dVertex
 10
7508007.75
 20
5713984.91
 30
0.0
  0
VERTEX
  5
100
330
FE
100
AcDbEntity
  8
DZIALKI_L_0
100
AcDbVertex
100
AcDb2dVertex
 10
7508033.75
 20
5713984.36
 30
0.0
  0
SEQEND
  5
101
330
0
100
AcDbEntity
  8
DZIALKI_L_0
  0
POLYLINE
  5
102
330
3D
100
AcDbEntity
  8
DZIALKI_L_0
  6
Continuous
370
    18
100
AcDb2dPolyline
 66
     1
 10
0.0
 20
0.0
 30
0.0
 70
   128
  0
VERTEX
  5
103
330
102
100
AcDbEntity
  8
DZIALKI_L_0
100
AcDbVertex
100
AcDb2dVertex
 10
7508005.139999998
 20
5713657.740000001
 30
0.0
  0
VERTEX
  5
104
330
102
100
AcDbEntity
  8
DZIALKI_L_0
100
AcDbVertex
100
AcDb2dVertex
 10
7508015.719999999
 20
5713942.63
 30
0.0
  0
SEQEND
  5
105
330
0
100
AcDbEntity
  8
DZIALKI_L_0
  0
POLYLINE
  5
106
330
3D
100
AcDbEntity
  8
DZIALKI_L_0
  6
Continuous
370
    18
100
AcDb2dPolyline
 66
     1
 10
0.0
 20
0.0
 30
0.0
 70
   128
  0
VERTEX
  5
107
330
106
100
AcDbEntity
  8
DZIALKI_L_0
100
AcDbVertex
100
AcDb2dVertex
 10
7508032.849999999
 20
5713940.81
 30
0.0
  0
VERTEX
  5
108
330
106
100
AcDbEntity
  8
DZIALKI_L_0
100
AcDbVertex
100
AcDb2dVertex
 10
7508015.719999999
 20
5713942.63
 30
0.0
  0
SEQEND
  5
109
330
0
100
AcDbEntity
  8
DZIALKI_L_0
  0
POLYLINE
  5
10A
330
3D
100
AcDbEntity
  8
DZIALKI_L_0
  6
Continuous
370
    18
100
AcDb2dPolyline
 66
     1
 10
0.0
 20
0.0
 30
0.0
 70
   128
  0
VERTEX
  5
10B
330
10A
100
AcDbEntity
  8
DZIALKI_L_0
100
AcDbVertex
100
AcDb2dVertex
 10
7508094.74
 20
5713983.08
 30
0.0
  0
VERTEX
  5
10C
330
10A
100
AcDbEntity
  8
DZIALKI_L_0
100
AcDbVertex
100
AcDb2dVertex
 10
7508159.650000001
 20
5713983.91
 30
0.0
  0
SEQEND
  5
10D
330
0
100
AcDbEntity
  8
DZIALKI_L_0
  0
POLYLINE
  5
10E
330
3D
100
AcDbEntity
  8
DZIALKI_L_0
  6
Continuous
370
    18
100
AcDb2dPolyline
 66
     1
 10
0.0
 20
0.0
 30
0.0
 70
   128
  0
VERTEX
  5
10F
330
10E
100
AcDbEntity
  8
DZIALKI_L_0
100
AcDbVertex
100
AcDb2dVertex
 10
7508080.219999999
 20
5713983.4
 30
0.0
  0
VERTEX
  5
110
330
10E
100
AcDbEntity
  8
DZIALKI_L_0
100
AcDbVertex
100
AcDb2dVertex
 10
7508094.74
 20
5713983.08
 30
0.0
  0
SEQEND
  5
111
330
0
100
AcDbEntity
  8
DZIALKI_L_0
  0
POLYLINE
  5
11A
330
3D
100
AcDbEntity
  8
DZIALKI_L_0
  6
Continuous
370
    18
100
AcDb2dPolyline
 66
     1
 10
0.0
 20
0.0
 30
0.0
 70
   128
  0
VERTEX
  5
11B
330
11A
100
AcDbEntity
  8
DZIALKI_L_0
100
AcDbVertex
100
AcDb2dVertex
 10
7508033.75
 20
5713984.36
 30
0.0
  0
VERTEX
  5
11C
330
11A
100
AcDbEntity
  8
DZIALKI_L_0
100
AcDbVertex
100
AcDb2dVertex
 10
7508080.219999999
 20
5713983.4
 30
0.0
  0
SEQEND
  5
11D
330
0
100
AcDbEntity
  8
DZIALKI_L_0
  0
POLYLINE
  5
11E
330
3D
100
AcDbEntity
  8
DZIALKI_L_0
  6
Continuous
370
    18
100
AcDb2dPolyline
 66
     1
 10
0.0
 20
0.0
 30
0.0
 70
   128
  0
VERTEX
  5
11F
330
11E
100
AcDbEntity
  8
DZIALKI_L_0
100
AcDbVertex
100
AcDb2dVertex
 10
7507918.370000001
 20
5713994.34
 30
0.0
  0
VERTEX
  5
120
330
11E
100
AcDbEntity
  8
DZIALKI_L_0
100
AcDbVertex
100
AcDb2dVertex
 10
7507916.519999999
 20
5713991.5
 30
0.0
  0
SEQEND
  5
121
330
0
100
AcDbEntity
  8
DZIALKI_L_0
  0
POLYLINE
  5
122
330
3D
100
AcDbEntity
  8
DZIALKI_L_0
  6
Continuous
370
    18
100
AcDb2dPolyline
 66
     1
 10
0.0
 20
0.0
 30
0.0
 70
   128
  0
VERTEX
  5
123
330
122
100
AcDbEntity
  8
DZIALKI_L_0
100
AcDbVertex
100
AcDb2dVertex
 10
7507925.219999999
 20
5713995.549999999
 30
0.0
  0
VERTEX
  5
124
330
122
100
AcDbEntity
  8
DZIALKI_L_0
100
AcDbVertex
100
AcDb2dVertex
 10
7507918.370000001
 20
5713994.34
 30
0.0
  0
SEQEND
  5
125
330
0
100
AcDbEntity
  8
DZIALKI_L_0
  0
POLYLINE
  5
126
330
3D
100
AcDbEntity
  8
DZIALKI_L_0
  6
Continuous
370
    18
100
AcDb2dPolyline
 66
     1
 10
0.0
 20
0.0
 30
0.0
 70
   128
  0
VERTEX
  5
127
330
126
100
AcDbEntity
  8
DZIALKI_L_0
100
AcDbVertex
100
AcDb2dVertex
 10
7507979.230000001
 20
5713985.509999999
 30
0.0
  0
VERTEX
  5
128
330
126
100
AcDbEntity
  8
DZIALKI_L_0
100
AcDbVertex
100
AcDb2dVertex
 10
7507987.2
 20
5713985.43
 30
0.0
  0
SEQEND
  5
129
330
0
100
AcDbEntity
  8
DZIALKI_L_0
  0
POLYLINE
  5
12A
330
3D
100
AcDbEntity
  8
DZIALKI_L_0
  6
Continuous
370
    18
100
AcDb2dPolyline
 66
     1
 10
0.0
 20
0.0
 30
0.0
 70
   128
  0
VERTEX
  5
12B
330
12A
100
AcDbEntity
  8
DZIALKI_L_0
100
AcDbVertex
100
AcDb2dVertex
 10
7507913.2
 20
5713988.259999999
 30
0.0
  0
VERTEX
  5
12C
330
12A
100
AcDbEntity
  8
DZIALKI_L_0
100
AcDbVertex
100
AcDb2dVertex
 10
7507916.519999999
 20
5713991.5
 30
0.0
  0
SEQEND
  5
12D
330
0
100
AcDbEntity
  8
DZIALKI_L_0
  0
POLYLINE
  5
136
330
3D
100
AcDbEntity
  8
DZIALKI_L_0
  6
Continuous
370
    18
100
AcDb2dPolyline
 66
     1
 10
0.0
 20
0.0
 30
0.0
 70
   128
  0
VERTEX
  5
137
330
136
100
AcDbEntity
  8
DZIALKI_L_0
100
AcDbVertex
100
AcDb2dVertex
 10
7507923.67
 20
5713574.25
 30
0.0
  0
VERTEX
  5
138
330
136
100
AcDbEntity
  8
DZIALKI_L_0
100
AcDbVertex
100
AcDb2dVertex
 10
7507952.25
 20
5713662.05
 30
0.0
  0
SEQEND
  5
139
330
0
100
AcDbEntity
  8
DZIALKI_L_0
  0
POLYLINE
  5
13A
330
3D
100
AcDbEntity
  8
DZIALKI_L_0
  6
Continuous
370
    18
100
AcDb2dPolyline
 66
     1
 10
0.0
 20
0.0
 30
0.0
 70
   128
  0
VERTEX
  5
13B
330
13A
100
AcDbEntity
  8
DZIALKI_L_0
100
AcDbVertex
100
AcDb2dVertex
 10
7507952.25
 20
5713662.05
 30
0.0
  0
VERTEX
  5
13C
330
13A
100
AcDbEntity
  8
DZIALKI_L_0
100
AcDbVertex
100
AcDb2dVertex
 10
7508013.42
 20
5713654.019999999
 30
0.0
  0
SEQEND
  5
13D
330
0
100
AcDbEntity
  8
DZIALKI_L_0
  0
POLYLINE
  5
142
330
3D
100
AcDbEntity
  8
DZIALKI_L_0
  6
Continuous
370
    18
100
AcDb2dPolyline
 66
     1
 10
0.0
 20
0.0
 30
0.0
 70
   128
  0
VERTEX
  5
143
330
142
100
AcDbEntity
  8
DZIALKI_L_0
100
AcDbVertex
100
AcDb2dVertex
 10
7508159.98
 20
5713993.4
 30
0.0
  0
VERTEX
  5
144
330
142
100
AcDbEntity
  8
DZIALKI_L_0
100
AcDbVertex
100
AcDb2dVertex
 10
7507929.059999999
 20
5713995.490000001
 30
0.0
  0
SEQEND
  5
145
330
0
100
AcDbEntity
  8
DZIALKI_L_0
  0
POLYLINE
  5
146
330
3D
100
AcDbEntity
  8
DZIALKI_L_0
  6
Continuous
370
    18
100
AcDb2dPolyline
 66
     1
 10
0.0
 20
0.0
 30
0.0
 70
   128
  0
VERTEX
  5
147
330
146
100
AcDbEntity
  8
DZIALKI_L_0
100
AcDbVertex
100
AcDb2dVertex
 10
7507925.219999999
 20
5713995.549999999
 30
0.0
  0
VERTEX
  5
148
330
146
100
AcDbEntity
  8
DZIALKI_L_0
100
AcDbVertex
100
AcDb2dVertex
 10
7507929.059999999
 20
5713995.490000001
 30
0.0
  0
SEQEND
  5
149
330
0
100
AcDbEntity
  8
DZIALKI_L_0
  0
POLYLINE
  5
152
330
3D
100
AcDbEntity
  8
DZIALKI_L_0
  6
Continuous
370
    18
100
AcDb2dPolyline
 66
     1
 10
0.0
 20
0.0
 30
0.0
 70
   128
  0
VERTEX
  5
153
330
152
100
AcDbEntity
  8
DZIALKI_L_0
100
AcDbVertex
100
AcDb2dVertex
 10
7507987.2
 20
5713985.43
 30
0.0
  0
VERTEX
  5
154
330
152
100
AcDbEntity
  8
DZIALKI_L_0
100
AcDbVertex
100
AcDb2dVertex
 10
7507983.099999998
 20
5713946.09
 30
0.0
  0
SEQEND
  5
155
330
0
100
AcDbEntity
  8
DZIALKI_L_0
  0
POLYLINE
  5
156
330
3D
100
AcDbEntity
  8
DZIALKI_L_0
  6
Continuous
370
    18
100
AcDb2dPolyline
 66
     1
 10
0.0
 20
0.0
 30
0.0
 70
   128
  0
VERTEX
  5
157
330
156
100
AcDbEntity
  8
DZIALKI_L_0
100
AcDbVertex
100
AcDb2dVertex
 10
7508007.75
 20
5713984.91
 30
0.0
  0
VERTEX
  5
158
330
156
100
AcDbEntity
  8
DZIALKI_L_0
100
AcDbVertex
100
AcDb2dVertex
 10
7507987.2
 20
5713985.43
 30
0.0
  0
SEQEND
  5
159
330
0
100
AcDbEntity
  8
DZIALKI_L_0
  0
POLYLINE
  5
15A
330
3D
100
AcDbEntity
  8
DZIALKI_L_0
  6
Continuous
370
    18
100
AcDb2dPolyline
 66
     1
 10
0.0
 20
0.0
 30
0.0
 70
   128
  0
VERTEX
  5
15B
330
15A
100
AcDbEntity
  8
DZIALKI_L_0
100
AcDbVertex
100
AcDb2dVertex
 10
7508032.849999999
 20
5713940.81
 30
0.0
  0
VERTEX
  5
15C
330
15A
100
AcDbEntity
  8
DZIALKI_L_0
100
AcDbVertex
100
AcDb2dVertex
 10
7508033.75
 20
5713984.36
 30
0.0
  0
SEQEND
  5
15D
330
0
100
AcDbEntity
  8
DZIALKI_L_0
  0
POLYLINE
  5
15E
330
3D
100
AcDbEntity
  8
DZIALKI_L_0
  6
Continuous
370
    18
100
AcDb2dPolyline
 66
     1
 10
0.0
 20
0.0
 30
0.0
 70
   128
  0
VERTEX
  5
15F
330
15E
100
AcDbEntity
  8
DZIALKI_L_0
100
AcDbVertex
100
AcDb2dVertex
 10
7508008.580000001
 20
5713943.389999999
 30
0.0
  0
VERTEX
  5
160
330
15E
100
AcDbEntity
  8
DZIALKI_L_0
100
AcDbVertex
100
AcDb2dVertex
 10
7507983.099999998
 20
5713946.09
 30
0.0
  0
SEQEND
  5
161
330
0
100
AcDbEntity
  8
DZIALKI_L_0
  0
POLYLINE
  5
162
330
3D
100
AcDbEntity
  8
DZIALKI_L_0
  6
Continuous
370
    18
100
AcDb2dPolyline
 66
     1
 10
0.0
 20
0.0
 30
0.0
 70
   128
  0
VERTEX
  5
163
330
162
100
AcDbEntity
  8
DZIALKI_L_0
100
AcDbVertex
100
AcDb2dVertex
 10
7508008.580000001
 20
5713943.389999999
 30
0.0
  0
VERTEX
  5
164
330
162
100
AcDbEntity
  8
DZIALKI_L_0
100
AcDbVertex
100
AcDb2dVertex
 10
7508007.75
 20
5713984.91
 30
0.0
  0
SEQEND
  5
165
330
0
100
AcDbEntity
  8
DZIALKI_L_0
  0
POLYLINE
  5
166
330
3D
100
AcDbEntity
  8
DZIALKI_L_0
  6
Continuous
370
    18
100
AcDb2dPolyline
 66
     1
 10
0.0
 20
0.0
 30
0.0
 70
   128
  0
VERTEX
  5
167
330
166
100
AcDbEntity
  8
DZIALKI_L_0
100
AcDbVertex
100
AcDb2dVertex
 10
7507915.28
 20
5713570.61
 30
0.0
  0
VERTEX
  5
168
330
166
100
AcDbEntity
  8
DZIALKI_L_0
100
AcDbVertex
100
AcDb2dVertex
 10
7507872.869999999
 20
5713450.15
 30
0.0
  0
SEQEND
  5
169
330
0
100
AcDbEntity
  8
DZIALKI_L_0
  0
POLYLINE
  5
16A
330
3D
100
AcDbEntity
  8
DZIALKI_L_0
  6
Continuous
370
    18
100
AcDb2dPolyline
 66
     1
 10
0.0
 20
0.0
 30
0.0
 70
   128
  0
VERTEX
  5
16B
330
16A
100
AcDbEntity
  8
DZIALKI_L_0
100
AcDbVertex
100
AcDb2dVertex
 10
7507931.339999999
 20
5713621.05
 30
0.0
  0
VERTEX
  5
16C
330
16A
100
AcDbEntity
  8
DZIALKI_L_0
100
AcDbVertex
100
AcDb2dVertex
 10
7507915.28
 20
5713570.61
 30
0.0
  0
SEQEND
  5
16D
330
0
100
AcDbEntity
  8
DZIALKI_L_0
  0
POLYLINE
  5
16E
330
3D
100
AcDbEntity
  8
DZIALKI_L_0
  6
Continuous
370
    18
100
AcDb2dPolyline
 66
     1
 10
0.0
 20
0.0
 30
0.0
 70
   128
  0
VERTEX
  5
16F
330
16E
100
AcDbEntity
  8
DZIALKI_L_0
100
AcDbVertex
100
AcDb2dVertex
 10
7507923.67
 20
5713574.25
 30
0.0
  0
VERTEX
  5
170
330
16E
100
AcDbEntity
  8
DZIALKI_L_0
100
AcDbVertex
100
AcDb2dVertex
 10
7507921.129999999
 20
5713566.89
 30
0.0
  0
SEQEND
  5
171
330
0
100
AcDbEntity
  8
DZIALKI_L_0
  0
POLYLINE
  5
172
330
3D
100
AcDbEntity
  8
DZIALKI_L_0
  6
Continuous
370
    18
100
AcDb2dPolyline
 66
     1
 10
0.0
 20
0.0
 30
0.0
 70
   128
  0
VERTEX
  5
173
330
172
100
AcDbEntity
  8
DZIALKI_L_0
100
AcDbVertex
100
AcDb2dVertex
 10
7507899.400000001
 20
5713501.54
 30
0.0
  0
VERTEX
  5
174
330
172
100
AcDbEntity
  8
DZIALKI_L_0
100
AcDbVertex
100
AcDb2dVertex
 10
7507921.129999999
 20
5713566.89
 30
0.0
  0
SEQEND
  5
175
330
0
100
AcDbEntity
  8
DZIALKI_L_0
  0
POLYLINE
  5
176
330
3D
100
AcDbEntity
  8
EBUPP_L_1
  6
Continuous
370
    50
100
AcDb2dPolyline
 66
     1
 10
0.0
 20
0.0
 30
0.0
 70
   128
  0
VERTEX
  5
177
330
176
100
AcDbEntity
  8
EBUPP_L_1
100
AcDbVertex
100
AcDb2dVertex
 10
7507926.415327531
 20
5713726.23300335
 30
0.0
  0
VERTEX
  5
178
330
176
100
AcDbEntity
  8
EBUPP_L_1
100
AcDbVertex
100
AcDb2dVertex
 10
7507927.078120419
 20
5713732.5541134
 30
0.0
  0
SEQEND
  5
179
330
0
100
AcDbEntity
  8
EBUPP_L_1
  0
POLYLINE
  5
17A
330
3D
100
AcDbEntity
  8
EBUPP_L_1
  6
Continuous
370
    50
100
AcDb2dPolyline
 66
     1
 10
0.0
 20
0.0
 30
0.0
 70
   128
  0
VERTEX
  5
17B
330
17A
100
AcDbEntity
  8
EBUPP_L_1
100
AcDbVertex
100
AcDb2dVertex
 10
7507927.078120419
 20
5713732.5541134
 30
0.0
  0
VERTEX
  5
17C
330
17A
100
AcDbEntity
  8
EBUPP_L_1
100
AcDbVertex
100
AcDb2dVertex
 10
7507937.80000724
 20
5713731.416324061
 30
0.0
  0
SEQEND
  5
17D
330
0
100
AcDbEntity
  8
EBUPP_L_1
  0
POLYLINE
  5
17E
330
3D
100
AcDbEntity
  8
EBUPP_L_1
  6
Continuous
370
    50
100
AcDb2dPolyline
 66
     1
 10
0.0
 20
0.0
 30
0.0
 70
   128
  0
VERTEX
  5
17F
330
17E
100
AcDbEntity
  8
EBUPP_L_1
100
AcDbVertex
100
AcDb2dVertex
 10
7507937.80000724
 20
5713731.416324061
 30
0.0
  0
VERTEX
  5
180
330
17E
100
AcDbEntity
  8
EBUPP_L_1
100
AcDbVertex
100
AcDb2dVertex
 10
7507937.167147271
 20
5713725.155251592
 30
0.0
  0
SEQEND
  5
181
330
0
100
AcDbEntity
  8
EBUPP_L_1
  0
POLYLINE
  5
182
330
3D
100
AcDbEntity
  8
EBUPP_L_1
  6
Continuous
370
    50
100
AcDb2dPolyline
 66
     1
 10
0.0
 20
0.0
 30
0.0
 70
   128
  0
VERTEX
  5
183
330
182
100
AcDbEntity
  8
EBUPP_L_1
100
AcDbVertex
100
AcDb2dVertex
 10
7507937.167147271
 20
5713725.155251592
 30
0.0
  0
VERTEX
  5
184
330
182
100
AcDbEntity
  8
EBUPP_L_1
100
AcDbVertex
100
AcDb2dVertex
 10
7507926.415327531
 20
5713726.23300335
 30
0.0
  0
SEQEND
  5
185
330
0
100
AcDbEntity
  8
EBUPP_L_1
  0
POLYLINE
  5
186
330
3D
100
AcDbEntity
  8
EBUPP_L_1
  6
Continuous
370
    50
100
AcDb2dPolyline
 66
     1
 10
0.0
 20
0.0
 30
0.0
 70
   128
  0
VERTEX
  5
187
330
186
100
AcDbEntity
  8
EBUPP_L_1
100
AcDbVertex
100
AcDb2dVertex
 10
7508015.01235495
 20
5713973.49361787
 30
0.0
  0
VERTEX
  5
188
330
186
100
AcDbEntity
  8
EBUPP_L_1
100
AcDbVertex
100
AcDb2dVertex
 10
7508021.751937201
 20
5713973.36240476
 30
0.0
  0
SEQEND
  5
189
330
0
100
AcDbEntity
  8
EBUPP_L_1
  0
POLYLINE
  5
18A
330
3D
100
AcDbEntity
  8
EBUPP_L_1
  6
Continuous
370
    50
100
AcDb2dPolyline
 66
     1
 10
0.0
 20
0.0
 30
0.0
 70
   128
  0
VERTEX
  5
18B
330
18A
100
AcDbEntity
  8
EBUPP_L_1
100
AcDbVertex
100
AcDb2dVertex
 10
7507980.120128588
 20
5713742.045362059
 30
0.0
  0
VERTEX
  5
18C
330
18A
100
AcDbEntity
  8
EBUPP_L_1
100
AcDbVertex
100
AcDb2dVertex
 10
7507980.571397041
 20
5713749.686303219
 30
0.0
  0
SEQEND
  5
18D
330
0
100
AcDbEntity
  8
EBUPP_L_1
  0
POLYLINE
  5
18E
330
3D
100
AcDbEntity
  8
EBUPP_L_1
  6
Continuous
370
    50
100
AcDb2dPolyline
 66
     1
 10
0.0
 20
0.0
 30
0.0
 70
   128
  0
VERTEX
  5
18F
330
18E
100
AcDbEntity
  8
EBUPP_L_1
100
AcDbVertex
100
AcDb2dVertex
 10
7507977.469804589
 20
5713742.202336681
 30
0.0
  0
VERTEX
  5
190
330
18E
100
AcDbEntity
  8
EBUPP_L_1
100
AcDbVertex
100
AcDb2dVertex
 10
7507980.120128588
 20
5713742.045362059
 30
0.0
  0
SEQEND
  5
191
330
0
100
AcDbEntity
  8
EBUPP_L_1
  0
POLYLINE
  5
192
330
3D
100
AcDbEntity
  8
EBUPP_L_1
  6
Continuous
370
    50
100
AcDb2dPolyline
 66
     1
 10
0.0
 20
0.0
 30
0.0
 70
   128
  0
VERTEX
  5
193
330
192
100
AcDbEntity
  8
EBUPP_L_1
100
AcDbVertex
100
AcDb2dVertex
 10
7508015.01235495
 20
5713973.49361787
 30
0.0
  0
VERTEX
  5
194
330
192
100
AcDbEntity
  8
EBUPP_L_1
100
AcDbVertex
100
AcDb2dVertex
 10
7508014.796529679
 20
5713963.9973061
 30
0.0
  0
SEQEND
  5
195
330
0
100
AcDbEntity
  8
EBUPP_L_1
  0
POLYLINE
  5
196
330
3D
100
AcDbEntity
  8
EBUPP_L_1
  6
Continuous
370
    50
100
AcDb2dPolyline
 66
     1
 10
0.0
 20
0.0
 30
0.0
 70
   128
  0
VERTEX
  5
197
330
196
100
AcDbEntity
  8
EBUPP_L_1
100
AcDbVertex
100
AcDb2dVertex
 10
7508014.796529679
 20
5713963.9973061
 30
0.0
  0
VERTEX
  5
198
330
196
100
AcDbEntity
  8
EBUPP_L_1
100
AcDbVertex
100
AcDb2dVertex
 10
7508021.62727533
 20
5713963.81005086
 30
0.0
  0
SEQEND
  5
199
330
0
100
AcDbEntity
  8
EBUPP_L_1
  0
POLYLINE
  5
19A
330
3D
100
AcDbEntity
  8
EBUPP_L_1
  6
Continuous
370
    50
100
AcDb2dPolyline
 66
     1
 10
0.0
 20
0.0
 30
0.0
 70
   128
  0
VERTEX
  5
19B
330
19A
100
AcDbEntity
  8
EBUPP_L_1
100
AcDbVertex
100
AcDb2dVertex
 10
7507996.38626704
 20
5713772.365668042
 30
0.0
  0
VERTEX
  5
19C
330
19A
100
AcDbEntity
  8
EBUPP_L_1
100
AcDbVertex
100
AcDb2dVertex
 10
7507975.82156671
 20
5713775.492298861
 30
0.0
  0
SEQEND
  5
19D
330
0
100
AcDbEntity
  8
EBUPP_L_1
  0
POLYLINE
  5
19E
330
3D
100
AcDbEntity
  8
EBUPP_L_1
  6
Continuous
370
    50
100
AcDb2dPolyline
 66
     1
 10
0.0
 20
0.0
 30
0.0
 70
   128
  0
VERTEX
  5
19F
330
19E
100
AcDbEntity
  8
EBUPP_L_1
100
AcDbVertex
100
AcDb2dVertex
 10
7507972.25358463
 20
5713738.65616809
 30
0.0
  0
VERTEX
  5
1A0
330
19E
100
AcDbEntity
  8
EBUPP_L_1
100
AcDbVertex
100
AcDb2dVertex
 10
7507972.75388168
 20
5713747.147212639
 30
0.0
  0
SEQEND
  5
1A1
330
0
100
AcDbEntity
  8
EBUPP_L_1
  0
POLYLINE
  5
1A2
330
3D
100
AcDbEntity
  8
EBUPP_L_1
  6
Continuous
370
    50
100
AcDb2dPolyline
 66
     1
 10
0.0
 20
0.0
 30
0.0
 70
   128
  0
VERTEX
  5
1A3
330
1A2
100
AcDbEntity
  8
EBUPP_L_1
100
AcDbVertex
100
AcDb2dVertex
 10
7507977.92107308
 20
5713749.843277829
 30
0.0
  0
VERTEX
  5
1A4
330
1A2
100
AcDbEntity
  8
EBUPP_L_1
100
AcDbVertex
100
AcDb2dVertex
 10
7507977.469804589
 20
5713742.202336681
 30
0.0
  0
SEQEND
  5
1A5
330
0
100
AcDbEntity
  8
EBUPP_L_1
  0
POLYLINE
  5
1A6
330
3D
100
AcDbEntity
  8
EBUPP_L_1
  6
Continuous
370
    50
100
AcDb2dPolyline
 66
     1
 10
0.0
 20
0.0
 30
0.0
 70
   128
  0
VERTEX
  5
1A7
330
1A6
100
AcDbEntity
  8
EBUPP_L_1
100
AcDbVertex
100
AcDb2dVertex
 10
7507980.571397041
 20
5713749.686303219
 30
0.0
  0
VERTEX
  5
1A8
330
1A6
100
AcDbEntity
  8
EBUPP_L_1
100
AcDbVertex
100
AcDb2dVertex
 10
7507977.92107308
 20
5713749.843277829
 30
0.0
  0
SEQEND
  5
1A9
330
0
100
AcDbEntity
  8
EBUPP_L_1
  0
POLYLINE
  5
1AA
330
3D
100
AcDbEntity
  8
EBUPP_L_1
  6
Continuous
370
    50
100
AcDb2dPolyline
 66
     1
 10
0.0
 20
0.0
 30
0.0
 70
   128
  0
VERTEX
  5
1AB
330
1AA
100
AcDbEntity
  8
EBUPP_L_1
100
AcDbVertex
100
AcDb2dVertex
 10
7507972.75388168
 20
5713747.147212639
 30
0.0
  0
VERTEX
  5
1AC
330
1AA
100
AcDbEntity
  8
EBUPP_L_1
100
AcDbVertex
100
AcDb2dVertex
 10
7507972.930464521
 20
5713750.137580931
 30
0.0
  0
SEQEND
  5
1AD
330
0
100
AcDbEntity
  8
EBUPP_L_1
  0
POLYLINE
  5
1AE
330
3D
100
AcDbEntity
  8
EBUPP_L_1
  6
Continuous
370
    50
100
AcDb2dPolyline
 66
     1
 10
0.0
 20
0.0
 30
0.0
 70
   128
  0
VERTEX
  5
1AF
330
1AE
100
AcDbEntity
  8
EBUPP_L_1
100
AcDbVertex
100
AcDb2dVertex
 10
7507977.469804589
 20
5713742.202336681
 30
0.0
  0
VERTEX
  5
1B0
330
1AE
100
AcDbEntity
  8
EBUPP_L_1
100
AcDbVertex
100
AcDb2dVertex
 10
7507977.15416557
 20
5713738.38176302
 30
0.0
  0
SEQEND
  5
1B1
330
0
100
AcDbEntity
  8
EBUPP_L_1
  0
POLYLINE
  5
1B2
330
3D
100
AcDbEntity
  8
EBUPP_L_1
  6
Continuous
370
    50
100
AcDb2dPolyline
 66
     1
 10
0.0
 20
0.0
 30
0.0
 70
   128
  0
VERTEX
  5
1B3
330
1B2
100
AcDbEntity
  8
EBUPP_L_1
100
AcDbVertex
100
AcDb2dVertex
 10
7507977.92107308
 20
5713749.843277829
 30
0.0
  0
VERTEX
  5
1B4
330
1B2
100
AcDbEntity
  8
EBUPP_L_1
100
AcDbVertex
100
AcDb2dVertex
 10
7507977.469804589
 20
5713742.202336681
 30
0.0
  0
SEQEND
  5
1B5
330
0
100
AcDbEntity
  8
EBUPP_L_1
  0
POLYLINE
  5
1B6
330
3D
100
AcDbEntity
  8
EBUPP_L_1
  6
Continuous
370
    50
100
AcDb2dPolyline
 66
     1
 10
0.0
 20
0.0
 30
0.0
 70
   128
  0
VERTEX
  5
1B7
330
1B6
100
AcDbEntity
  8
EBUPP_L_1
100
AcDbVertex
100
AcDb2dVertex
 10
7507972.930464521
 20
5713750.137580931
 30
0.0
  0
VERTEX
  5
1B8
330
1B6
100
AcDbEntity
  8
EBUPP_L_1
100
AcDbVertex
100
AcDb2dVertex
 10
7507977.92107308
 20
5713749.843277829
 30
0.0
  0
SEQEND
  5
1B9
330
0
100
AcDbEntity
  8
EBUPP_L_1
  0
POLYLINE
  5
1BA
330
3D
100
AcDbEntity
  8
EBUPP_L_1
  6
Continuous
370
    50
100
AcDb2dPolyline
 66
     1
 10
0.0
 20
0.0
 30
0.0
 70
   128
  0
VERTEX
  5
1BB
330
1BA
100
AcDbEntity
  8
EBUPP_L_1
100
AcDbVertex
100
AcDb2dVertex
 10
7507969.66273907
 20
5713756.72420594
 30
0.0
  0
VERTEX
  5
1BC
330
1BA
100
AcDbEntity
  8
EBUPP_L_1
100
AcDbVertex
100
AcDb2dVertex
 10
7507965.19158512
 20
5713757.51913155
 30
0.0
  0
SEQEND
  5
1BD
330
0
100
AcDbEntity
  8
EBUPP_L_1
  0
POLYLINE
  5
1BE
330
3D
100
AcDbEntity
  8
EBUPP_L_1
  6
Continuous
370
    50
100
AcDb2dPolyline
 66
     1
 10
0.0
 20
0.0
 30
0.0
 70
   128
  0
VERTEX
  5
1BF
330
1BE
100
AcDbEntity
  8
EBUPP_L_1
100
AcDbVertex
100
AcDb2dVertex
 10
7507975.82156671
 20
5713775.492298861
 30
0.0
  0
VERTEX
  5
1C0
330
1BE
100
AcDbEntity
  8
EBUPP_L_1
100
AcDbVertex
100
AcDb2dVertex
 10
7507974.789144359
 20
5713768.83074704
 30
0.0
  0
SEQEND
  5
1C1
330
0
100
AcDbEntity
  8
EBUPP_L_1
  0
POLYLINE
  5
1C2
330
3D
100
AcDbEntity
  8
EBUPP_L_1
  6
Continuous
370
    50
100
AcDb2dPolyline
 66
     1
 10
0.0
 20
0.0
 30
0.0
 70
   128
  0
VERTEX
  5
1C3
330
1C2
100
AcDbEntity
  8
EBUPP_L_1
100
AcDbVertex
100
AcDb2dVertex
 10
7507974.789144359
 20
5713768.83074704
 30
0.0
  0
VERTEX
  5
1C4
330
1C2
100
AcDbEntity
  8
EBUPP_L_1
100
AcDbVertex
100
AcDb2dVertex
 10
7507995.343913091
 20
5713765.64410145
 30
0.0
  0
SEQEND
  5
1C5
330
0
100
AcDbEntity
  8
EBUPP_L_1
  0
POLYLINE
  5
1C6
330
3D
100
AcDbEntity
  8
EBUPP_L_1
  6
Continuous
370
    50
100
AcDb2dPolyline
 66
     1
 10
0.0
 20
0.0
 30
0.0
 70
   128
  0
VERTEX
  5
1C7
330
1C6
100
AcDbEntity
  8
EBUPP_L_1
100
AcDbVertex
100
AcDb2dVertex
 10
7507968.310540313
 20
5713749.852276209
 30
0.0
  0
VERTEX
  5
1C8
330
1C6
100
AcDbEntity
  8
EBUPP_L_1
100
AcDbVertex
100
AcDb2dVertex
 10
7507969.66273907
 20
5713756.72420594
 30
0.0
  0
SEQEND
  5
1C9
330
0
100
AcDbEntity
  8
EBUPP_L_1
  0
POLYLINE
  5
1CA
330
3D
100
AcDbEntity
  8
EBUPP_L_1
  6
Continuous
370
    50
100
AcDb2dPolyline
 66
     1
 10
0.0
 20
0.0
 30
0.0
 70
   128
  0
VERTEX
  5
1CB
330
1CA
100
AcDbEntity
  8
EBUPP_L_1
100
AcDbVertex
100
AcDb2dVertex
 10
7507977.15416557
 20
5713738.38176302
 30
0.0
  0
VERTEX
  5
1CC
330
1CA
100
AcDbEntity
  8
EBUPP_L_1
100
AcDbVertex
100
AcDb2dVertex
 10
7507972.25358463
 20
5713738.65616809
 30
0.0
  0
SEQEND
  5
1CD
330
0
100
AcDbEntity
  8
EBUPP_L_1
  0
POLYLINE
  5
1CE
330
3D
100
AcDbEntity
  8
EBUPP_L_1
  6
Continuous
370
    50
100
AcDb2dPolyline
 66
     1
 10
0.0
 20
0.0
 30
0.0
 70
   128
  0
VERTEX
  5
1CF
330
1CE
100
AcDbEntity
  8
EBUPP_L_1
100
AcDbVertex
100
AcDb2dVertex
 10
7507965.19158512
 20
5713757.51913155
 30
0.0
  0
VERTEX
  5
1D0
330
1CE
100
AcDbEntity
  8
EBUPP_L_1
100
AcDbVertex
100
AcDb2dVertex
 10
7507964.309434184
 20
5713750.62773885
 30
0.0
  0
SEQEND
  5
1D1
330
0
100
AcDbEntity
  8
EBUPP_L_1
  0
POLYLINE
  5
1D2
330
3D
100
AcDbEntity
  8
EBUPP_L_1
  6
Continuous
370
    50
100
AcDb2dPolyline
 66
     1
 10
0.0
 20
0.0
 30
0.0
 70
   128
  0
VERTEX
  5
1D3
330
1D2
100
AcDbEntity
  8
EBUPP_L_1
100
AcDbVertex
100
AcDb2dVertex
 10
7507964.309434184
 20
5713750.62773885
 30
0.0
  0
VERTEX
  5
1D4
330
1D2
100
AcDbEntity
  8
EBUPP_L_1
100
AcDbVertex
100
AcDb2dVertex
 10
7507968.310540313
 20
5713749.852276209
 30
0.0
  0
SEQEND
  5
1D5
330
0
100
AcDbEntity
  8
EBUPP_L_1
  0
POLYLINE
  5
1D6
330
3D
100
AcDbEntity
  8
EBUPP_L_2
  6
Continuous
370
    50
100
AcDb2dPolyline
 66
     1
 10
0.0
 20
0.0
 30
0.0
 70
   128
  0
VERTEX
  5
1D7
330
1D6
100
AcDbEntity
  8
EBUPP_L_2
100
AcDbVertex
100
AcDb2dVertex
 10
7507937.209782579
 20
5713679.22274583
 30
0.0
  0
VERTEX
  5
1D8
330
1D6
100
AcDbEntity
  8
EBUPP_L_2
100
AcDbVertex
100
AcDb2dVertex
 10
7507923.178234829
 20
5713679.906721349
 30
0.0
  0
SEQEND
  5
1D9
330
0
100
AcDbEntity
  8
EBUPP_L_2
  0
POLYLINE
  5
1DA
330
3D
100
AcDbEntity
  8
EBUPP_L_2
  6
Continuous
370
    50
100
AcDb2dPolyline
 66
     1
 10
0.0
 20
0.0
 30
0.0
 70
   128
  0
VERTEX
  5
1DB
330
1DA
100
AcDbEntity
  8
EBUPP_L_2
100
AcDbVertex
100
AcDb2dVertex
 10
7507937.590612401
 20
5713687.24362807
 30
0.0
  0
VERTEX
  5
1DC
330
1DA
100
AcDbEntity
  8
EBUPP_L_2
100
AcDbVertex
100
AcDb2dVertex
 10
7507937.209782579
 20
5713679.22274583
 30
0.0
  0
SEQEND
  5
1DD
330
0
100
AcDbEntity
  8
EBUPP_L_2
  0
POLYLINE
  5
1DE
330
3D
100
AcDbEntity
  8
EBUPP_L_2
  6
Continuous
370
    50
100
AcDb2dPolyline
 66
     1
 10
0.0
 20
0.0
 30
0.0
 70
   128
  0
VERTEX
  5
1DF
330
1DE
100
AcDbEntity
  8
EBUPP_L_2
100
AcDbVertex
100
AcDb2dVertex
 10
7507923.629079981
 20
5713687.91768317
 30
0.0
  0
VERTEX
  5
1E0
330
1DE
100
AcDbEntity
  8
EBUPP_L_2
100
AcDbVertex
100
AcDb2dVertex
 10
7507937.590612401
 20
5713687.24362807
 30
0.0
  0
SEQEND
  5
1E1
330
0
100
AcDbEntity
  8
EBUPP_L_2
  0
POLYLINE
  5
1E2
330
3D
100
AcDbEntity
  8
EBUPP_L_2
  6
Continuous
370
    50
100
AcDb2dPolyline
 66
     1
 10
0.0
 20
0.0
 30
0.0
 70
   128
  0
VERTEX
  5
1E3
330
1E2
100
AcDbEntity
  8
EBUPP_L_2
100
AcDbVertex
100
AcDb2dVertex
 10
7507923.178234829
 20
5713679.906721349
 30
0.0
  0
VERTEX
  5
1E4
330
1E2
100
AcDbEntity
  8
EBUPP_L_2
100
AcDbVertex
100
AcDb2dVertex
 10
7507923.629079981
 20
5713687.91768317
 30
0.0
  0
SEQEND
  5
1E5
330
0
100
AcDbEntity
  8
EBUPP_L_2
  0
POLYLINE
  5
1E6
330
3D
100
AcDbEntity
  8
EPGPO_L_0
370
    35
100
AcDb2dPolyline
 66
     1
 10
0.0
 20
0.0
 30
0.0
 70
   128
  0
VERTEX
  5
1E7
330
1E6
100
AcDbEntity
  8
EPGPO_L_0
100
AcDbVertex
100
AcDb2dVertex
 10
7507952.684566819
 20
5713658.329297821
 30
0.0
  0
VERTEX
  5
1E8
330
1E6
100
AcDbEntity
  8
EPGPO_L_0
100
AcDbVertex
100
AcDb2dVertex
 10
7508015.286628411
 20
5713650.78054448
 30
0.0
  0
SEQEND
  5
1E9
330
0
100
AcDbEntity
  8
EPGPO_L_0
  0
POLYLINE
  5
1EA
330
3D
100
AcDbEntity
  8
EPGPO_L_0
370
    35
100
AcDb2dPolyline
 66
     1
 10
0.0
 20
0.0
 30
0.0
 70
   128
  0
VERTEX
  5
1EB
330
1EA
100
AcDbEntity
  8
EPGPO_L_0
100
AcDbVertex
100
AcDb2dVertex
 10
7507922.154195649
 20
5713569.92942166
 30
0.0
  0
VERTEX
  5
1EC
330
1EA
100
AcDbEntity
  8
EPGPO_L_0
100
AcDbVertex
100
AcDb2dVertex
 10
7507952.684566819
 20
5713658.329297821
 30
0.0
  0
SEQEND
  5
1ED
330
0
100
AcDbEntity
  8
EPGPO_L_0
  0
POLYLINE
  5
1EE
330
3D
100
AcDbEntity
  8
przekroje_co_25m
  6
Continuous
370
    18
100
AcDb2dPolyline
 66
     1
 10
0.0
 20
0.0
 30
0.0
 70
   128
  0
VERTEX
  5
1EF
330
1EE
100
AcDbEntity
  8
przekroje_co_25m
100
AcDbVertex
100
AcDb2dVertex
 10
7507975.949999996
 20
5713982.479999996
 30
0.0
  0
VERTEX
  5
1F0
330
1EE
100
AcDbEntity
  8
przekroje_co_25m
100
AcDbVertex
100
AcDb2dVertex
 10
7507977.269999996
 20
5714003.739999997
 30
0.0
  0
SEQEND
  5
1F1
330
0
100
AcDbEntity
  8
przekroje_co_25m
  0
POLYLINE
  5
1F2
330
3D
100
AcDbEntity
  8
przekroje_co_25m
  6
Continuous
370
    18
100
AcDb2dPolyline
 66
     1
 10
0.0
 20
0.0
 30
0.0
 70
   128
  0
VERTEX
  5
1F3
330
1F2
100
AcDbEntity
  8
przekroje_co_25m
100
AcDbVertex
100
AcDb2dVertex
 10
7508000.819999997
 20
5713981.859999997
 30
0.0
  0
VERTEX
  5
1F4
330
1F2
100
AcDbEntity
  8
przekroje_co_25m
100
AcDbVertex
100
AcDb2dVertex
 10
7508001.169999996
 20
5714004.439999996
 30
0.0
  0
SEQEND
  5
1F5
330
0
100
AcDbEntity
  8
przekroje_co_25m
  0
POLYLINE
  5
1F6
330
3D
100
AcDbEntity
  8
przekroje_co_25m
  6
Continuous
370
    18
100
AcDb2dPolyline
 66
     1
 10
0.0
 20
0.0
 30
0.0
 70
   128
  0
VERTEX
  5
1F7
330
1F6
100
AcDbEntity
  8
przekroje_co_25m
100
AcDbVertex
100
AcDb2dVertex
 10
7507951.169999996
 20
5713982.039999996
 30
0.0
  0
VERTEX
  5
1F8
330
1F6
100
AcDbEntity
  8
przekroje_co_25m
100
AcDbVertex
100
AcDb2dVertex
 10
7507951.609999996
 20
5714000.139999996
 30
0.0
  0
SEQEND
  5
1F9
330
0
100
AcDbEntity
  8
przekroje_co_25m
  0
POLYLINE
  5
1FA
330
3D
100
AcDbEntity
  8
przekroje_co_25m
  6
Continuous
370
    18
100
AcDb2dPolyline
 66
     1
 10
0.0
 20
0.0
 30
0.0
 70
   128
  0
VERTEX
  5
1FB
330
1FA
100
AcDbEntity
  8
przekroje_co_25m
100
AcDbVertex
100
AcDb2dVertex
 10
7507962.419999996
 20
5713980.979999995
 30
0.0
  0
VERTEX
  5
1FC
330
1FA
100
AcDbEntity
  8
przekroje_co_25m
100
AcDbVertex
100
AcDb2dVertex
 10
7508002.919999996
 20
5713976.949999996
 30
0.0
  0
SEQEND
  5
1FD
330
0
100
AcDbEntity
  8
przekroje_co_25m
  0
POLYLINE
  5
1FE
330
3D
100
AcDbEntity
  8
przekroje_co_25m
  6
Continuous
370
    18
100
AcDb2dPolyline
 66
     1
 10
0.0
 20
0.0
 30
0.0
 70
   128
  0
VERTEX
  5
1FF
330
1FE
100
AcDbEntity
  8
przekroje_co_25m
100
AcDbVertex
100
AcDb2dVertex
 10
7507959.944759377
 20
5713956.104753052
 30
0.0
  0
VERTEX
  5
200
330
1FE
100
AcDbEntity
  8
przekroje_co_25m
100
AcDbVertex
100
AcDb2dVertex
 10
7508000.444759355
 20
5713952.074752856
 30
0.0
  0
SEQEND
  5
201
330
0
100
AcDbEntity
  8
przekroje_co_25m
  0
POLYLINE
  5
202
330
3D
100
AcDbEntity
  8
przekroje_co_25m
  6
Continuous
370
    18
100
AcDb2dPolyline
 66
     1
 10
0.0
 20
0.0
 30
0.0
 70
   128
  0
VERTEX
  5
203
330
202
100
AcDbEntity
  8
przekroje_co_25m
100
AcDbVertex
100
AcDb2dVertex
 10
7507957.469518754
 20
5713931.229506105
 30
0.0
  0
VERTEX
  5
204
330
202
100
AcDbEntity
  8
przekroje_co_25m
100
AcDbVertex
100
AcDb2dVertex
 10
7507997.969518717
 20
5713927.199505711
 30
0.0
  0
SEQEND
  5
205
330
0
100
AcDbEntity
  8
przekroje_co_25m
  0
POLYLINE
  5
206
330
3D
100
AcDbEntity
  8
przekroje_co_25m
  6
Continuous
370
    18
100
AcDb2dPolyline
 66
     1
 10
0.0
 20
0.0
 30
0.0
 70
   128
  0
VERTEX
  5
207
330
206
100
AcDbEntity
  8
przekroje_co_25m
100
AcDbVertex
100
AcDb2dVertex
 10
7507954.994278133
 20
5713906.354259158
 30
0.0
  0
VERTEX
  5
208
330
206
100
AcDbEntity
  8
przekroje_co_25m
100
AcDbVertex
100
AcDb2dVertex
 10
7507995.494278073
 20
5713902.324258565
 30
0.0
  0
SEQEND
  5
209
330
0
100
AcDbEntity
  8
przekroje_co_25m
  0
POLYLINE
  5
20A
330
3D
100
AcDbEntity
  8
przekroje_co_25m
  6
Continuous
370
    18
100
AcDb2dPolyline
 66
     1
 10
0.0
 20
0.0
 30
0.0
 70
   128
  0
VERTEX
  5
20B
330
20A
100
AcDbEntity
  8
przekroje_co_25m
100
AcDbVertex
100
AcDb2dVertex
 10
7507952.51903751
 20
5713881.479012212
 30
0.0
  0
VERTEX
  5
20C
330
20A
100
AcDbEntity
  8
przekroje_co_25m
100
AcDbVertex
100
AcDb2dVertex
 10
7507993.019037431
 20
5713877.449011421
 30
0.0
  0
SEQEND
  5
20D
330
0
100
AcDbEntity
  8
przekroje_co_25m
  0
POLYLINE
  5
20E
330
3D
100
AcDbEntity
  8
przekroje_co_25m
  6
Continuous
370
    18
100
AcDb2dPolyline
 66
     1
 10
0.0
 20
0.0
 30
0.0
 70
   128
  0
VERTEX
  5
20F
330
20E
100
AcDbEntity
  8
przekroje_co_25m
100
AcDbVertex
100
AcDb2dVertex
 10
7507950.043796888
 20
5713856.603765264
 30
0.0
  0
VERTEX
  5
210
330
20E
100
AcDbEntity
  8
przekroje_co_25m
100
AcDbVertex
100
AcDb2dVertex
 10
7507990.54379679
 20
5713852.573764277
 30
0.0
  0
SEQEND
  5
211
330
0
100
AcDbEntity
  8
przekroje_co_25m
  0
POLYLINE
  5
212
330
3D
100
AcDbEntity
  8
przekroje_co_25m
  6
Continuous
370
    18
100
AcDb2dPolyline
 66
     1
 10
0.0
 20
0.0
 30
0.0
 70
   128
  0
VERTEX
  5
213
330
212
100
AcDbEntity
  8
przekroje_co_25m
100
AcDbVertex
100
AcDb2dVertex
 10
7507947.568556268
 20
5713831.728518316
 30
0.0
  0
VERTEX
  5
214
330
212
100
AcDbEntity
  8
przekroje_co_25m
100
AcDbVertex
100
AcDb2dVertex
 10
7507988.068556147
 20
5713827.698517133
 30
0.0
  0
SEQEND
  5
215
330
0
100
AcDbEntity
  8
przekroje_co_25m
  0
POLYLINE
  5
216
330
3D
100
AcDbEntity
  8
przekroje_co_25m
  6
Continuous
370
    18
100
AcDb2dPolyline
 66
     1
 10
0.0
 20
0.0
 30
0.0
 70
   128
  0
VERTEX
  5
217
330
216
100
AcDbEntity
  8
przekroje_co_25m
100
AcDbVertex
100
AcDb2dVertex
 10
7507945.093315644
 20
5713806.85327137
 30
0.0
  0
VERTEX
  5
218
330
216
100
AcDbEntity
  8
przekroje_co_25m
100
AcDbVertex
100
AcDb2dVertex
 10
7507985.593315505
 20
5713802.823269986
 30
0.0
  0
SEQEND
  5
219
330
0
100
AcDbEntity
  8
przekroje_co_25m
  0
POLYLINE
  5
21A
330
3D
100
AcDbEntity
  8
przekroje_co_25m
  6
Continuous
370
    18
100
AcDb2dPolyline
 66
     1
 10
0.0
 20
0.0
 30
0.0
 70
   128
  0
VERTEX
  5
21B
330
21A
100
AcDbEntity
  8
przekroje_co_25m
100
AcDbVertex
100
AcDb2dVertex
 10
7507942.618075021
 20
5713781.978024424
 30
0.0
  0
VERTEX
  5
21C
330
21A
100
AcDbEntity
  8
przekroje_co_25m
100
AcDbVertex
100
AcDb2dVertex
 10
7507983.118074864
 20
5713777.948022841
 30
0.0
  0
SEQEND
  5
21D
330
0
100
AcDbEntity
  8
przekroje_co_25m
  0
POLYLINE
  5
21E
330
3D
100
AcDbEntity
  8
przekroje_co_25m
  6
Continuous
370
    18
100
AcDb2dPolyline
 66
     1
 10
0.0
 20
0.0
 30
0.0
 70
   128
  0
VERTEX
  5
21F
330
21E
100
AcDbEntity
  8
przekroje_co_25m
100
AcDbVertex
100
AcDb2dVertex
 10
7507940.142834399
 20
5713757.102777474
 30
0.0
  0
VERTEX
  5
220
330
21E
100
AcDbEntity
  8
przekroje_co_25m
100
AcDbVertex
100
AcDb2dVertex
 10
7507980.642834223
 20
5713753.072775696
 30
0.0
  0
SEQEND
  5
221
330
0
100
AcDbEntity
  8
przekroje_co_25m
  0
POLYLINE
  5
222
330
3D
100
AcDbEntity
  8
przekroje_co_25m
  6
Continuous
370
    18
100
AcDb2dPolyline
 66
     1
 10
0.0
 20
0.0
 30
0.0
 70
   128
  0
VERTEX
  5
223
330
222
100
AcDbEntity
  8
przekroje_co_25m
100
AcDbVertex
100
AcDb2dVertex
 10
7507937.667593777
 20
5713732.227530528
 30
0.0
  0
VERTEX
  5
224
330
222
100
AcDbEntity
  8
przekroje_co_25m
100
AcDbVertex
100
AcDb2dVertex
 10
7507978.167593582
 20
5713728.197528552
 30
0.0
  0
SEQEND
  5
225
330
0
100
AcDbEntity
  8
przekroje_co_25m
  0
POLYLINE
  5
226
330
3D
100
AcDbEntity
  8
przekroje_co_25m
  6
Continuous
370
    18
100
AcDb2dPolyline
 66
     1
 10
0.0
 20
0.0
 30
0.0
 70
   128
  0
VERTEX
  5
227
330
226
100
AcDbEntity
  8
przekroje_co_25m
100
AcDbVertex
100
AcDb2dVertex
 10
7507935.192353154
 20
5713707.352283582
 30
0.0
  0
VERTEX
  5
228
330
226
100
AcDbEntity
  8
przekroje_co_25m
100
AcDbVertex
100
AcDb2dVertex
 10
7507975.692352937
 20
5713703.322281408
 30
0.0
  0
SEQEND
  5
229
330
0
100
AcDbEntity
  8
przekroje_co_25m
  0
POLYLINE
  5
22A
330
3D
100
AcDbEntity
  8
przekroje_co_25m
  6
Continuous
370
    18
100
AcDb2dPolyline
 66
     1
 10
0.0
 20
0.0
 30
0.0
 70
   128
  0
VERTEX
  5
22B
330
22A
100
AcDbEntity
  8
przekroje_co_25m
100
AcDbVertex
100
AcDb2dVertex
 10
7507932.717112531
 20
5713682.477036634
 30
0.0
  0
VERTEX
  5
22C
330
22A
100
AcDbEntity
  8
przekroje_co_25m
100
AcDbVertex
100
AcDb2dVertex
 10
7507973.217112296
 20
5713678.447034263
 30
0.0
  0
SEQEND
  5
22D
330
0
100
AcDbEntity
  8
przekroje_co_25m
  0
POLYLINE
  5
22E
330
3D
100
AcDbEntity
  8
przekroje_co_25m
  6
Continuous
370
    18
100
AcDb2dPolyline
 66
     1
 10
0.0
 20
0.0
 30
0.0
 70
   128
  0
VERTEX
  5
22F
330
22E
100
AcDbEntity
  8
przekroje_co_25m
100
AcDbVertex
100
AcDb2dVertex
 10
7507930.789999996
 20
5713659.259999996
 30
0.0
  0
VERTEX
  5
230
330
22E
100
AcDbEntity
  8
przekroje_co_25m
100
AcDbVertex
100
AcDb2dVertex
 10
7507968.749999996
 20
5713651.699999997
 30
0.0
  0
SEQEND
  5
231
330
0
100
AcDbEntity
  8
przekroje_co_25m
  0
POLYLINE
  5
232
330
3D
100
AcDbEntity
  8
przekroje_co_25m
  6
Continuous
370
    18
100
AcDb2dPolyline
 66
     1
 10
0.0
 20
0.0
 30
0.0
 70
   128
  0
VERTEX
  5
233
330
232
100
AcDbEntity
  8
przekroje_co_25m
100
AcDbVertex
100
AcDb2dVertex
 10
7507923.669999996
 20
5713638.789999996
 30
0.0
  0
VERTEX
  5
234
330
232
100
AcDbEntity
  8
przekroje_co_25m
100
AcDbVertex
100
AcDb2dVertex
 10
7507957.149999997
 20
5713628.869999996
 30
0.0
  0
SEQEND
  5
235
330
0
100
AcDbEntity
  8
przekroje_co_25m
  0
POLYLINE
  5
236
330
3D
100
AcDbEntity
  8
SDRPK_L_1
370
    18
100
AcDb2dPolyline
 66
     1
 10
0.0
 20
0.0
 30
0.0
 70
   128
  0
VERTEX
  5
237
330
236
100
AcDbEntity
  8
SDRPK_L_1
100
AcDbVertex
100
AcDb2dVertex
 10
7507976.849999998
 20
5713994.11
 30
0.0
  0
VERTEX
  5
238
330
236
100
AcDbEntity
  8
SDRPK_L_1
100
AcDbVertex
100
AcDb2dVertex
 10
7508035.969999999
 20
5713993.019999999
 30
0.0
  0
SEQEND
  5
239
330
0
100
AcDbEntity
  8
SDRPK_L_1
  0
POLYLINE
  5
23A
330
3D
100
AcDbEntity
  8
SDRPK_L_1
370
    18
100
AcDb2dPolyline
 66
     1
 10
0.0
 20
0.0
 30
0.0
 70
   128
  0
VERTEX
  5
23B
330
23A
100
AcDbEntity
  8
SDRPK_L_1
100
AcDbVertex
100
AcDb2dVertex
 10
7508035.53
 20
5713988.11
 30
0.0
  0
VERTEX
  5
23C
330
23A
100
AcDbEntity
  8
SDRPK_L_1
100
AcDbVertex
100
AcDb2dVertex
 10
7507977.730000001
 20
5713989.129999999
 30
0.0
  0
SEQEND
  5
23D
330
0
100
AcDbEntity
  8
SDRPK_L_1
  0
POLYLINE
  5
23E
330
3D
100
AcDbEntity
  8
SDRPK_L_4
370
    18
100
AcDb2dPolyline
 66
     1
 10
0.0
 20
0.0
 30
0.0
 70
   128
  0
VERTEX
  5
23F
330
23E
100
AcDbEntity
  8
SDRPK_L_4
100
AcDbVertex
100
AcDb2dVertex
 10
7507923.196139119
 20
5713995.904259602
 30
0.0
  0
VERTEX
  5
240
330
23E
100
AcDbEntity
  8
SDRPK_L_4
100
AcDbVertex
100
AcDb2dVertex
 10
7507976.849999998
 20
5713994.11
 30
0.0
  0
SEQEND
  5
241
330
0
100
AcDbEntity
  8
SDRPK_L_4
  0
POLYLINE
  5
242
330
3D
100
AcDbEntity
  8
SDRPK_L_4
370
    18
100
AcDb2dPolyline
 66
     1
 10
0.0
 20
0.0
 30
0.0
 70
   128
  0
VERTEX
  5
243
330
242
100
AcDbEntity
  8
SDRPK_L_4
100
AcDbVertex
100
AcDb2dVertex
 10
7507977.730000001
 20
5713989.129999999
 30
0.0
  0
VERTEX
  5
244
330
242
100
AcDbEntity
  8
SDRPK_L_4
100
AcDbVertex
100
AcDb2dVertex
 10
7507913.20481451
 20
5713987.86237775
 30
0.0
  0
SEQEND
  5
245
330
0
100
AcDbEntity
  8
SDRPK_L_4
  0
POLYLINE
  5
246
330
3D
100
AcDbEntity
  8
SDRPK_L_4
370
    18
100
AcDb2dPolyline
 66
     1
 10
0.0
 20
0.0
 30
0.0
 70
   128
  0
VERTEX
  5
247
330
246
100
AcDbEntity
  8
SDRPK_L_4
100
AcDbVertex
100
AcDb2dVertex
 10
7507978.789373058
 20
5713986.97740943
 30
0.0
  0
VERTEX
  5
248
330
246
100
AcDbEntity
  8
SDRPK_L_4
100
AcDbVertex
100
AcDb2dVertex
 10
7507976.267432768
 20
5713962.373162579
 30
0.0
  0
SEQEND
  5
249
330
0
100
AcDbEntity
  8
SDRPK_L_4
  0
POLYLINE
  5
24A
330
3D
100
AcDbEntity
  8
SDRPK_L_4
370
    18
100
AcDb2dPolyline
 66
     1
 10
0.0
 20
0.0
 30
0.0
 70
   128
  0
VERTEX
  5
24B
330
24A
100
AcDbEntity
  8
SDRPK_L_4
100
AcDbVertex
100
AcDb2dVertex
 10
7507976.267432768
 20
5713962.373162579
 30
0.0
  0
VERTEX
  5
24C
330
24A
100
AcDbEntity
  8
SDRPK_L_4
100
AcDbVertex
100
AcDb2dVertex
 10
7507971.96386067
 20
5713921.65598394
 30
0.0
  0
SEQEND
  5
24D
330
0
100
AcDbEntity
  8
SDRPK_L_4
  0
POLYLINE
  5
24E
330
3D
100
AcDbEntity
  8
SZOPO_L_0
  6
Continuous
370
    35
100
AcDb2dPolyline
 66
     1
 10
0.0
 20
0.0
 30
0.0
 70
   128
  0
VERTEX
  5
24F
330
24E
100
AcDbEntity
  8
SZOPO_L_0
100
AcDbVertex
100
AcDb2dVertex
 10
7508009.09
 20
5713982.879999999
 30
0.0
  0
VERTEX
  5
250
330
24E
100
AcDbEntity
  8
SZOPO_L_0
100
AcDbVertex
100
AcDb2dVertex
 10
7508010.320000001
 20
5713984.91
 30
0.0
  0
SEQEND
  5
251
330
0
100
AcDbEntity
  8
SZOPO_L_0
  0
POLYLINE
  5
252
330
3D
100
AcDbEntity
  8
SZOPO_L_0
  6
Continuous
370
    35
100
AcDb2dPolyline
 66
     1
 10
0.0
 20
0.0
 30
0.0
 70
   128
  0
VERTEX
  5
253
330
252
100
AcDbEntity
  8
SZOPO_L_0
100
AcDbVertex
100
AcDb2dVertex
 10
7508010.320000001
 20
5713984.91
 30
0.0
  0
VERTEX
  5
254
330
252
100
AcDbEntity
  8
SZOPO_L_0
100
AcDbVertex
100
AcDb2dVertex
 10
7508033.889999999
 20
5713984.32
 30
0.0
  0
SEQEND
  5
255
330
0
100
AcDbEntity
  8
SZOPO_L_0
  0
POLYLINE
  5
256
330
3D
100
AcDbEntity
  8
SZOPO_L_0
  6
Continuous
370
    35
100
AcDb2dPolyline
 66
     1
 10
0.0
 20
0.0
 30
0.0
 70
   128
  0
VERTEX
  5
257
330
256
100
AcDbEntity
  8
SZOPO_L_0
100
AcDbVertex
100
AcDb2dVertex
 10
7508008.059999998
 20
5713982.86
 30
0.0
  0
VERTEX
  5
258
330
256
100
AcDbEntity
  8
SZOPO_L_0
100
AcDbVertex
100
AcDb2dVertex
 10
7508009.09
 20
5713982.879999999
 30
0.0
  0
SEQEND
  5
259
330
0
100
AcDbEntity
  8
SZOPO_L_0
  0
POLYLINE
  5
25A
330
3D
100
AcDbEntity
  8
SZOPO_L_0
  6
Continuous
370
    35
100
AcDb2dPolyline
 66
     1
 10
0.0
 20
0.0
 30
0.0
 70
   128
  0
VERTEX
  5
25B
330
25A
100
AcDbEntity
  8
SZOPO_L_0
100
AcDbVertex
100
AcDb2dVertex
 10
7507983.719999999
 20
5713946.289999999
 30
0.0
  0
VERTEX
  5
25C
330
25A
100
AcDbEntity
  8
SZOPO_L_0
100
AcDbVertex
100
AcDb2dVertex
 10
7507987.370000001
 20
5713985.32
 30
0.0
  0
SEQEND
  5
25D
330
0
100
AcDbEntity
  8
SZOPO_L_0
  0
POLYLINE
  5
25E
330
3D
100
AcDbEntity
  8
SZOPO_L_0
  6
Continuous
370
    35
100
AcDb2dPolyline
 66
     1
 10
0.0
 20
0.0
 30
0.0
 70
   128
  0
VERTEX
  5
25F
330
25E
100
AcDbEntity
  8
SZOPO_L_0
100
AcDbVertex
100
AcDb2dVertex
 10
7508032.410000001
 20
5713941.3
 30
0.0
  0
VERTEX
  5
260
330
25E
100
AcDbEntity
  8
SZOPO_L_0
100
AcDbVertex
100
AcDb2dVertex
 10
7507983.719999999
 20
5713946.289999999
 30
0.0
  0
SEQEND
  5
261
330
0
100
AcDbEntity
  8
SZOPO_L_0
  0
POLYLINE
  5
262
330
3D
100
AcDbEntity
  8
SZOPO_L_0
  6
Continuous
370
    35
100
AcDb2dPolyline
 66
     1
 10
0.0
 20
0.0
 30
0.0
 70
   128
  0
VERTEX
  5
263
330
262
100
AcDbEntity
  8
SZOPO_L_0
100
AcDbVertex
100
AcDb2dVertex
 10
7507987.370000001
 20
5713985.32
 30
0.0
  0
VERTEX
  5
264
330
262
100
AcDbEntity
  8
SZOPO_L_0
100
AcDbVertex
100
AcDb2dVertex
 10
7508002.539999999
 20
5713985.049999999
 30
0.0
  0
SEQEND
  5
265
330
0
100
AcDbEntity
  8
SZOPO_L_0
  0
POLYLINE
  5
266
330
3D
100
AcDbEntity
  8
SZOPO_L_0
  6
Continuous
370
    35
100
AcDb2dPolyline
 66
     1
 10
0.0
 20
0.0
 30
0.0
 70
   128
  0
VERTEX
  5
267
330
266
100
AcDbEntity
  8
SZOPO_L_0
100
AcDbVertex
100
AcDb2dVertex
 10
7508003.3
 20
5713982.869999999
 30
0.0
  0
VERTEX
  5
268
330
266
100
AcDbEntity
  8
SZOPO_L_0
100
AcDbVertex
100
AcDb2dVertex
 10
7508008.059999998
 20
5713982.86
 30
0.0
  0
SEQEND
  5
269
330
0
100
AcDbEntity
  8
SZOPO_L_0
  0
POLYLINE
  5
26A
330
3D
100
AcDbEntity
  8
SZOPO_L_0
  6
Continuous
370
    35
100
AcDb2dPolyline
 66
     1
 10
0.0
 20
0.0
 30
0.0
 70
   128
  0
VERTEX
  5
26B
330
26A
100
AcDbEntity
  8
SZOPO_L_0
100
AcDbVertex
100
AcDb2dVertex
 10
7508002.539999999
 20
5713985.049999999
 30
0.0
  0
VERTEX
  5
26C
330
26A
100
AcDbEntity
  8
SZOPO_L_0
100
AcDbVertex
100
AcDb2dVertex
 10
7508003.3
 20
5713982.869999999
 30
0.0
  0
SEQEND
  5
26D
330
0
100
AcDbEntity
  8
SZOPO_L_0
  0
ARC
  5
26E
330
3D
100
AcDbEntity
  8
SZOPO_T_0
370
    35
100
AcDbCircle
 10
7508010.060233375
 20
5713982.89135549
 30
0.0
 40
1.483593240399999
100
AcDbArc
 50
180.8237729602
 51
241.4569035443999
  0
POLYLINE
  5
26F
330
3D
100
AcDbEntity
  8
UEEPA_L_2
  6
Continuous
370
    18
100
AcDb2dPolyline
 66
     1
 10
0.0
 20
0.0
 30
0.0
 70
   128
  0
VERTEX
  5
270
330
26F
100
AcDbEntity
  8
UEEPA_L_2
100
AcDbVertex
100
AcDb2dVertex
 10
7507982.74
 20
5713996.34
 30
0.0
  0
VERTEX
  5
271
330
26F
100
AcDbEntity
  8
UEEPA_L_2
100
AcDbVertex
100
AcDb2dVertex
 10
7507982.03
 20
5713996.37
 30
0.0
  0
SEQEND
  5
272
330
0
100
AcDbEntity
  8
UEEPA_L_2
  0
POLYLINE
  5
273
330
3D
100
AcDbEntity
  8
UEEPA_L_2
  6
Continuous
370
    18
100
AcDb2dPolyline
 66
     1
 10
0.0
 20
0.0
 30
0.0
 70
   128
  0
VERTEX
  5
274
330
273
100
AcDbEntity
  8
UEEPA_L_2
100
AcDbVertex
100
AcDb2dVertex
 10
7507982.03
 20
5713996.37
 30
0.0
  0
VERTEX
  5
275
330
273
100
AcDbEntity
  8
UEEPA_L_2
100
AcDbVertex
100
AcDb2dVertex
 10
7507982.03
 20
5713996.05
 30
0.0
  0
SEQEND
  5
276
330
0
100
AcDbEntity
  8
UEEPA_L_2
  0
POLYLINE
  5
277
330
3D
100
AcDbEntity
  8
UEEPA_L_2
  6
Continuous
370
    18
100
AcDb2dPolyline
 66
     1
 10
0.0
 20
0.0
 30
0.0
 70
   128
  0
VERTEX
  5
278
330
277
100
AcDbEntity
  8
UEEPA_L_2
100
AcDbVertex
100
AcDb2dVertex
 10
7507982.03
 20
5713996.05
 30
0.0
  0
VERTEX
  5
279
330
277
100
AcDbEntity
  8
UEEPA_L_2
100
AcDbVertex
100
AcDb2dVertex
 10
7507982.74
 20
5713996.03
 30
0.0
  0
SEQEND
  5
27A
330
0
100
AcDbEntity
  8
UEEPA_L_2
  0
POLYLINE
  5
27B
330
3D
100
AcDbEntity
  8
UEEPA_L_2
  6
Continuous
370
    18
100
AcDb2dPolyline
 66
     1
 10
0.0
 20
0.0
 30
0.0
 70
   128
  0
VERTEX
  5
27C
330
27B
100
AcDbEntity
  8
UEEPA_L_2
100
AcDbVertex
100
AcDb2dVertex
 10
7507982.74
 20
5713996.03
 30
0.0
  0
VERTEX
  5
27D
330
27B
100
AcDbEntity
  8
UEEPA_L_2
100
AcDbVertex
100
AcDb2dVertex
 10
7507982.74
 20
5713996.34
 30
0.0
  0
SEQEND
  5
27E
330
0
100
AcDbEntity
  8
UEEPA_L_2
  0
POLYLINE
  5
27F
330
3D
100
AcDbEntity
  8
UEEPON_L_0
  6
Continuous
370
    18
100
AcDb2dPolyline
 66
     1
 10
0.0
 20
0.0
 30
0.0
 70
   128
  0
VERTEX
  5
280
330
27F
100
AcDbEntity
  8
UEEPON_L_0
100
AcDbVertex
100
AcDb2dVertex
 10
7507982.37
 20
5713996.2
 30
0.0
  0
VERTEX
  5
281
330
27F
100
AcDbEntity
  8
UEEPON_L_0
100
AcDbVertex
100
AcDb2dVertex
 10
7507982.420000001
 20
5713996.63
 30
0.0
  0
SEQEND
  5
282
330
0
100
AcDbEntity
  8
UEEPON_L_0
  0
POLYLINE
  5
283
330
3D
100
AcDbEntity
  8
UEEPON_L_0
  6
Continuous
370
    18
100
AcDb2dPolyline
 66
     1
 10
0.0
 20
0.0
 30
0.0
 70
   128
  0
VERTEX
  5
284
330
283
100
AcDbEntity
  8
UEEPON_L_0
100
AcDbVertex
100
AcDb2dVertex
 10
7507982.420000001
 20
5713996.63
 30
0.0
  0
VERTEX
  5
285
330
283
100
AcDbEntity
  8
UEEPON_L_0
100
AcDbVertex
100
AcDb2dVertex
 10
7508012.099999998
 20
5713996.17
 30
0.0
  0
SEQEND
  5
286
330
0
100
AcDbEntity
  8
UEEPON_L_0
  0
POLYLINE
  5
287
330
3D
100
AcDbEntity
  8
UEEPON_L_0
  6
Continuous
370
    18
100
AcDb2dPolyline
 66
     1
 10
0.0
 20
0.0
 30
0.0
 70
   128
  0
VERTEX
  5
288
330
287
100
AcDbEntity
  8
UEEPON_L_0
100
AcDbVertex
100
AcDb2dVertex
 10
7508012.099999998
 20
5713996.17
 30
0.0
  0
VERTEX
  5
289
330
287
100
AcDbEntity
  8
UEEPON_L_0
100
AcDbVertex
100
AcDb2dVertex
 10
7508033.42
 20
5713995.639999999
 30
0.0
  0
SEQEND
  5
28A
330
0
100
AcDbEntity
  8
UEEPON_L_0
  0
CIRCLE
  5
28B
330
3D
100
AcDbEntity
  8
UTTPA_T_3
370
    18
100
AcDbCircle
 10
7507989.633356198
 20
5714010.19110611
 30
0.0
 40
0.25
  0
POLYLINE
  5
28C
330
3D
100
AcDbEntity
  8
UTTPA_T_3
  6
Continuous
370
    18
100
AcDb2dPolyline
 66
     1
 10
0.0
 20
0.0
 30
0.0
 70
   128
  0
VERTEX
  5
28D
330
28C
100
AcDbEntity
  8
UTTPA_T_3
100
AcDbVertex
100
AcDb2dVertex
 10
7507989.428729542
 20
5714010.334730382
 30
0.0
  0
VERTEX
  5
28E
330
28C
100
AcDbEntity
  8
UTTPA_T_3
100
AcDbVertex
100
AcDb2dVertex
 10
7507985.336196404
 20
5714013.207215806
 30
0.0
  0
SEQEND
  5
28F
330
0
100
AcDbEntity
  8
UTTPA_T_3
  0
POLYLINE
  5
290
330
3D
100
AcDbEntity
  8
UTTPA_T_3
  6
Continuous
370
    18
100
AcDb2dPolyline
 66
     1
 10
0.0
 20
0.0
 30
0.0
 70
   128
  0
VERTEX
  5
291
330
290
100
AcDbEntity
  8
UTTPA_T_3
100
AcDbVertex
100
AcDb2dVertex
 10
7507986.15393181
 20
5714012.022391427
 30
0.0
  0
VERTEX
  5
292
330
290
100
AcDbEntity
  8
UTTPA_T_3
100
AcDbVertex
100
AcDb2dVertex
 10
7507985.732312686
 20
5714012.929187942
 30
0.0
  0
SEQEND
  5
293
330
0
100
AcDbEntity
  8
UTTPA_T_3
  0
POLYLINE
  5
294
330
3D
100
AcDbEntity
  8
UTTPA_T_3
  6
Continuous
370
    18
100
AcDb2dPolyline
 66
     1
 10
0.0
 20
0.0
 30
0.0
 70
   128
  0
VERTEX
  5
295
330
294
100
AcDbEntity
  8
UTTPA_T_3
100
AcDbVertex
100
AcDb2dVertex
 10
7507986.550819315
 20
5714012.354690857
 30
0.0
  0
VERTEX
  5
296
330
294
100
AcDbEntity
  8
UTTPA_T_3
100
AcDbVertex
100
AcDb2dVertex
 10
7507987.546935524
 20
5714012.26640097
 30
0.0
  0
SEQEND
  5
297
330
0
100
AcDbEntity
  8
UTTPA_T_3
  0
POLYLINE
  5
298
330
3D
100
AcDbEntity
  8
UTTPA_T_3
  6
Continuous
370
    18
100
AcDb2dPolyline
 66
     1
 10
0.0
 20
0.0
 30
0.0
 70
   128
  0
VERTEX
  5
299
330
298
100
AcDbEntity
  8
UTTPA_T_3
100
AcDbVertex
100
AcDb2dVertex
 10
7507989.840311543
 20
5714010.050858164
 30
0.0
  0
VERTEX
  5
29A
330
298
100
AcDbEntity
  8
UTTPA_T_3
100
AcDbVertex
100
AcDb2dVertex
 10
7507993.979418385
 20
5714007.245899245
 30
0.0
  0
SEQEND
  5
29B
330
0
100
AcDbEntity
  8
UTTPA_T_3
  0
POLYLINE
  5
29C
330
3D
100
AcDbEntity
  8
UTTPA_T_3
  6
Continuous
370
    18
100
AcDb2dPolyline
 66
     1
 10
0.0
 20
0.0
 30
0.0
 70
   128
  0
VERTEX
  5
29D
330
29C
100
AcDbEntity
  8
UTTPA_T_3
100
AcDbVertex
100
AcDb2dVertex
 10
7507993.142355431
 20
5714008.417148837
 30
0.0
  0
VERTEX
  5
29E
330
29C
100
AcDbEntity
  8
UTTPA_T_3
100
AcDbVertex
100
AcDb2dVertex
 10
7507993.578794233
 20
5714007.517391219
 30
0.0
  0
SEQEND
  5
29F
330
0
100
AcDbEntity
  8
UTTPA_T_3
  0
POLYLINE
  5
2A0
330
3D
100
AcDbEntity
  8
UTTPA_T_3
  6
Continuous
370
    18
100
AcDb2dPolyline
 66
     1
 10
0.0
 20
0.0
 30
0.0
 70
   128
  0
VERTEX
  5
2A1
330
2A0
100
AcDbEntity
  8
UTTPA_T_3
100
AcDbVertex
100
AcDb2dVertex
 10
7507992.750972865
 20
5714008.078383001
 30
0.0
  0
VERTEX
  5
2A2
330
2A0
100
AcDbEntity
  8
UTTPA_T_3
100
AcDbVertex
100
AcDb2dVertex
 10
7507991.753542276
 20
5714008.150319252
 30
0.0
  0
SEQEND
  5
2A3
330
0
100
AcDbEntity
  8
UTTPA_T_3
  0
POLYLINE
  5
2A4
330
3D
100
AcDbEntity
  8
UWWOC_T_0
  6
Continuous
370
    25
100
AcDb2dPolyline
 66
     1
 10
0.0
 20
0.0
 30
0.0
 70
   128
  0
VERTEX
  5
2A5
330
2A4
100
AcDbEntity
  8
UWWOC_T_0
100
AcDbVertex
100
AcDb2dVertex
 10
7507978.879999994
 20
5713985.380000012
 30
0.0
  0
VERTEX
  5
2A6
330
2A4
100
AcDbEntity
  8
UWWOC_T_0
100
AcDbVertex
100
AcDb2dVertex
 10
7507979.40584585
 20
5713983.770067472
 30
0.0
  0
SEQEND
  5
2A7
330
0
100
AcDbEntity
  8
UWWOC_T_0
  0
POLYLINE
  5
2A8
330
3D
100
AcDbEntity
  8
UWWOC_T_0
  6
Continuous
370
    25
100
AcDb2dPolyline
 66
     1
 10
0.0
 20
0.0
 30
0.0
 70
   128
  0
VERTEX
  5
2A9
330
2A8
100
AcDbEntity
  8
UWWOC_T_0
100
AcDbVertex
100
AcDb2dVertex
 10
7507979.40584585
 20
5713983.770067472
 30
0.0
  0
VERTEX
  5
2AA
330
2A8
100
AcDbEntity
  8
UWWOC_T_0
100
AcDbVertex
100
AcDb2dVertex
 10
7507982.434966931
 20
5713983.770067472
 30
0.0
  0
SEQEND
  5
2AB
330
0
100
AcDbEntity
  8
UWWOC_T_0
  0
POLYLINE
  5
2AC
330
3D
100
AcDbEntity
  8
UWWOC_T_0
  6
Continuous
370
    25
100
AcDb2dPolyline
 66
     1
 10
0.0
 20
0.0
 30
0.0
 70
   128
  0
VERTEX
  5
2AD
330
2AC
100
AcDbEntity
  8
UWWOC_T_0
100
AcDbVertex
100
AcDb2dVertex
 10
7508015.469999999
 20
5713985.229999965
 30
0.0
  0
VERTEX
  5
2AE
330
2AC
100
AcDbEntity
  8
UWWOC_T_0
100
AcDbVertex
100
AcDb2dVertex
 10
7508014.615487726
 20
5713986.727504377
 30
0.0
  0
SEQEND
  5
2AF
330
0
100
AcDbEntity
  8
UWWOC_T_0
  0
POLYLINE
  5
2B0
330
3D
100
AcDbEntity
  8
UWWOC_T_0
  6
Continuous
370
    25
100
AcDb2dPolyline
 66
     1
 10
0.0
 20
0.0
 30
0.0
 70
   128
  0
VERTEX
  5
2B1
330
2B0
100
AcDbEntity
  8
UWWOC_T_0
100
AcDbVertex
100
AcDb2dVertex
 10
7508011.618937839
 20
5713986.727504377
 30
0.0
  0
VERTEX
  5
2B2
330
2B0
100
AcDbEntity
  8
UWWOC_T_0
100
AcDbVertex
100
AcDb2dVertex
 10
7508014.615487726
 20
5713986.727504377
 30
0.0
  0
SEQEND
  5
2B3
330
0
100
AcDbEntity
  8
UWWOC_T_0
  0
POLYLINE
  5
2B4
330
3D
100
AcDbEntity
  8
UWWOC_T_0
  6
Continuous
370
    25
100
AcDb2dPolyline
 66
     1
 10
0.0
 20
0.0
 30
0.0
 70
   128
  0
VERTEX
  5
2B5
330
2B4
100
AcDbEntity
  8
UWWOC_T_0
100
AcDbVertex
100
AcDb2dVertex
 10
7507952.430000061
 20
5713735.140000023
 30
0.0
  0
VERTEX
  5
2B6
330
2B4
100
AcDbEntity
  8
UWWOC_T_0
100
AcDbVertex
100
AcDb2dVertex
 10
7507953.579416236
 20
5713735.707380809
 30
0.0
  0
SEQEND
  5
2B7
330
0
100
AcDbEntity
  8
UWWOC_T_0
  0
POLYLINE
  5
2B8
330
3D
100
AcDbEntity
  8
UWWOC_T_0
  6
Continuous
370
    25
100
AcDb2dPolyline
 66
     1
 10
0.0
 20
0.0
 30
0.0
 70
   128
  0
VERTEX
  5
2B9
330
2B8
100
AcDbEntity
  8
UWWOC_T_0
100
AcDbVertex
100
AcDb2dVertex
 10
7507953.579416236
 20
5713735.707380809
 30
0.0
  0
VERTEX
  5
2BA
330
2B8
100
AcDbEntity
  8
UWWOC_T_0
100
AcDbVertex
100
AcDb2dVertex
 10
7507956.543394932
 20
5713735.707380809
 30
0.0
  0
SEQEND
  5
2BB
330
0
100
AcDbEntity
  8
UWWOC_T_0
  0
POLYLINE
  5
2BC
330
3D
100
AcDbEntity
  8
UWWOC_T_0
  6
Continuous
370
    25
100
AcDb2dPolyline
 66
     1
 10
0.0
 20
0.0
 30
0.0
 70
   128
  0
VERTEX
  5
2BD
330
2BC
100
AcDbEntity
  8
UWWOC_T_0
100
AcDbVertex
100
AcDb2dVertex
 10
7507952.500000007
 20
5713736.510000024
 30
0.0
  0
VERTEX
  5
2BE
330
2BC
100
AcDbEntity
  8
UWWOC_T_0
100
AcDbVertex
100
AcDb2dVertex
 10
7507953.20246444
 20
5713737.143387647
 30
0.0
  0
SEQEND
  5
2BF
330
0
100
AcDbEntity
  8
UWWOC_T_0
  0
POLYLINE
  5
2C0
330
3D
100
AcDbEntity
  8
UWWOC_T_0
  6
Continuous
370
    25
100
AcDb2dPolyline
 66
     1
 10
0.0
 20
0.0
 30
0.0
 70
   128
  0
VERTEX
  5
2C1
330
2C0
100
AcDbEntity
  8
UWWOC_T_0
100
AcDbVertex
100
AcDb2dVertex
 10
7507953.20246444
 20
5713737.143387647
 30
0.0
  0
VERTEX
  5
2C2
330
2C0
100
AcDbEntity
  8
UWWOC_T_0
100
AcDbVertex
100
AcDb2dVertex
 10
7507956.329299105
 20
5713737.143387647
 30
0.0
  0
SEQEND
  5
2C3
330
0
100
AcDbEntity
  8
UWWOC_T_0
  0
POLYLINE
  5
2C4
330
3D
100
AcDbEntity
  8
UWWPO_L_0
  6
Continuous
370
    18
100
AcDb2dPolyline
 66
     1
 10
0.0
 20
0.0
 30
0.0
 70
   128
  0
VERTEX
  5
2C5
330
2C4
100
AcDbEntity
  8
UWWPO_L_0
100
AcDbVertex
100
AcDb2dVertex
 10
7507978.88
 20
5713985.38
 30
0.0
  0
VERTEX
  5
2C6
330
2C4
100
AcDbEntity
  8
UWWPO_L_0
100
AcDbVertex
100
AcDb2dVertex
 10
7507973.759999998
 20
5713935.499999999
 30
0.0
  0
SEQEND
  5
2C7
330
0
100
AcDbEntity
  8
UWWPO_L_0
  0
POLYLINE
  5
2C8
330
3D
100
AcDbEntity
  8
UWWPO_L_0
  6
Continuous
370
    18
100
AcDb2dPolyline
 66
     1
 10
0.0
 20
0.0
 30
0.0
 70
   128
  0
VERTEX
  5
2C9
330
2C8
100
AcDbEntity
  8
UWWPO_L_0
100
AcDbVertex
100
AcDb2dVertex
 10
7507973.759999998
 20
5713935.499999999
 30
0.0
  0
VERTEX
  5
2CA
330
2C8
100
AcDbEntity
  8
UWWPO_L_0
100
AcDbVertex
100
AcDb2dVertex
 10
7507967.070000001
 20
5713876.16
 30
0.0
  0
SEQEND
  5
2CB
330
0
100
AcDbEntity
  8
UWWPO_L_0
  0
POLYLINE
  5
2CC
330
3D
100
AcDbEntity
  8
UWWPO_L_0
  6
Continuous
370
    18
100
AcDb2dPolyline
 66
     1
 10
0.0
 20
0.0
 30
0.0
 70
   128
  0
VERTEX
  5
2CD
330
2CC
100
AcDbEntity
  8
UWWPO_L_0
100
AcDbVertex
100
AcDb2dVertex
 10
7507967.070000001
 20
5713876.16
 30
0.0
  0
VERTEX
  5
2CE
330
2CC
100
AcDbEntity
  8
UWWPO_L_0
100
AcDbVertex
100
AcDb2dVertex
 10
7507962.089999999
 20
5713827.039999999
 30
0.0
  0
SEQEND
  5
2CF
330
0
100
AcDbEntity
  8
UWWPO_L_0
  0
POLYLINE
  5
2D0
330
3D
100
AcDbEntity
  8
UWWPO_L_0
  6
Continuous
370
    18
100
AcDb2dPolyline
 66
     1
 10
0.0
 20
0.0
 30
0.0
 70
   128
  0
VERTEX
  5
2D1
330
2D0
100
AcDbEntity
  8
UWWPO_L_0
100
AcDbVertex
100
AcDb2dVertex
 10
7508015.480886862
 20
5713985.35482495
 30
0.0
  0
VERTEX
  5
2D2
330
2D0
100
AcDbEntity
  8
UWWPO_L_0
100
AcDbVertex
100
AcDb2dVertex
 10
7508014.16
 20
5713970.21
 30
0.0
  0
SEQEND
  5
2D3
330
0
100
AcDbEntity
  8
UWWPO_L_0
  0
POLYLINE
  5
2D4
330
3D
100
AcDbEntity
  8
UWWPO_L_0
  6
Continuous
370
    18
100
AcDb2dPolyline
 66
     1
 10
0.0
 20
0.0
 30
0.0
 70
   128
  0
VERTEX
  5
2D5
330
2D4
100
AcDbEntity
  8
UWWPO_L_0
100
AcDbVertex
100
AcDb2dVertex
 10
7508014.16
 20
5713970.21
 30
0.0
  0
VERTEX
  5
2D6
330
2D4
100
AcDbEntity
  8
UWWPO_L_0
100
AcDbVertex
100
AcDb2dVertex
 10
7508014.93732576
 20
5713970.192333511
 30
0.0
  0
SEQEND
  5
2D7
330
0
100
AcDbEntity
  8
UWWPO_L_0
  0
POLYLINE
  5
2D8
330
3D
100
AcDbEntity
  8
UWWPO_L_0
  6
Continuous
370
    18
100
AcDb2dPolyline
 66
     1
 10
0.0
 20
0.0
 30
0.0
 70
   128
  0
VERTEX
  5
2D9
330
2D8
100
AcDbEntity
  8
UWWPO_L_0
100
AcDbVertex
100
AcDb2dVertex
 10
7507978.849999999
 20
5713985.700000001
 30
0.0
  0
VERTEX
  5
2DA
330
2D8
100
AcDbEntity
  8
UWWPO_L_0
100
AcDbVertex
100
AcDb2dVertex
 10
7507978.88
 20
5713985.38
 30
0.0
  0
SEQEND
  5
2DB
330
0
100
AcDbEntity
  8
UWWPO_L_0
  0
POLYLINE
  5
2DC
330
3D
100
AcDbEntity
  8
UWWPO_L_0
  6
Continuous
370
    18
100
AcDb2dPolyline
 66
     1
 10
0.0
 20
0.0
 30
0.0
 70
   128
  0
VERTEX
  5
2DD
330
2DC
100
AcDbEntity
  8
UWWPO_L_0
100
AcDbVertex
100
AcDb2dVertex
 10
7507962.089999999
 20
5713827.039999999
 30
0.0
  0
VERTEX
  5
2DE
330
2DC
100
AcDbEntity
  8
UWWPO_L_0
100
AcDbVertex
100
AcDb2dVertex
 10
7507957.070000001
 20
5713779.269999998
 30
0.0
  0
SEQEND
  5
2DF
330
0
100
AcDbEntity
  8
UWWPO_L_0
  0
POLYLINE
  5
2E0
330
3D
100
AcDbEntity
  8
UWWPO_L_0
  6
Continuous
370
    18
100
AcDb2dPolyline
 66
     1
 10
0.0
 20
0.0
 30
0.0
 70
   128
  0
VERTEX
  5
2E1
330
2E0
100
AcDbEntity
  8
UWWPO_L_0
100
AcDbVertex
100
AcDb2dVertex
 10
7507973.77002519
 20
5713986.171618641
 30
0.0
  0
VERTEX
  5
2E2
330
2E0
100
AcDbEntity
  8
UWWPO_L_0
100
AcDbVertex
100
AcDb2dVertex
 10
7507978.849999999
 20
5713985.700000001
 30
0.0
  0
SEQEND
  5
2E3
330
0
100
AcDbEntity
  8
UWWPO_L_0
  0
POLYLINE
  5
2E4
330
3D
100
AcDbEntity
  8
UWWPO_L_0
  6
Continuous
370
    18
100
AcDb2dPolyline
 66
     1
 10
0.0
 20
0.0
 30
0.0
 70
   128
  0
VERTEX
  5
2E5
330
2E4
100
AcDbEntity
  8
UWWPO_L_0
100
AcDbVertex
100
AcDb2dVertex
 10
7507978.849999999
 20
5713985.700000001
 30
0.0
  0
VERTEX
  5
2E6
330
2E4
100
AcDbEntity
  8
UWWPO_L_0
100
AcDbVertex
100
AcDb2dVertex
 10
7508042.765303217
 20
5713984.82053393
 30
0.0
  0
SEQEND
  5
2E7
330
0
100
AcDbEntity
  8
UWWPO_L_0
  0
POLYLINE
  5
2E8
330
3D
100
AcDbEntity
  8
UWWPO_L_0
  6
Continuous
370
    18
100
AcDb2dPolyline
 66
     1
 10
0.0
 20
0.0
 30
0.0
 70
   128
  0
VERTEX
  5
2E9
330
2E8
100
AcDbEntity
  8
UWWPO_L_0
100
AcDbVertex
100
AcDb2dVertex
 10
7507952.429999999
 20
5713735.139999999
 30
0.0
  0
VERTEX
  5
2EA
330
2E8
100
AcDbEntity
  8
UWWPO_L_0
100
AcDbVertex
100
AcDb2dVertex
 10
7507952.42
 20
5713734.839999999
 30
0.0
  0
SEQEND
  5
2EB
330
0
100
AcDbEntity
  8
UWWPO_L_0
  0
POLYLINE
  5
2EC
330
3D
100
AcDbEntity
  8
UWWPO_L_0
  6
Continuous
370
    18
100
AcDb2dPolyline
 66
     1
 10
0.0
 20
0.0
 30
0.0
 70
   128
  0
VERTEX
  5
2ED
330
2EC
100
AcDbEntity
  8
UWWPO_L_0
100
AcDbVertex
100
AcDb2dVertex
 10
7507957.070000001
 20
5713779.269999998
 30
0.0
  0
VERTEX
  5
2EE
330
2EC
100
AcDbEntity
  8
UWWPO_L_0
100
AcDbVertex
100
AcDb2dVertex
 10
7507952.5
 20
5713736.51
 30
0.0
  0
SEQEND
  5
2EF
330
0
100
AcDbEntity
  8
UWWPO_L_0
  0
POLYLINE
  5
2F0
330
3D
100
AcDbEntity
  8
UWWPO_L_0
  6
Continuous
370
    18
100
AcDb2dPolyline
 66
     1
 10
0.0
 20
0.0
 30
0.0
 70
   128
  0
VERTEX
  5
2F1
330
2F0
100
AcDbEntity
  8
UWWPO_L_0
100
AcDbVertex
100
AcDb2dVertex
 10
7507952.5
 20
5713736.51
 30
0.0
  0
VERTEX
  5
2F2
330
2F0
100
AcDbEntity
  8
UWWPO_L_0
100
AcDbVertex
100
AcDb2dVertex
 10
7507952.429999999
 20
5713735.139999999
 30
0.0
  0
SEQEND
  5
2F3
330
0
100
AcDbEntity
  8
UWWPO_L_0
  0
POLYLINE
  5
2F4
330
3D
100
AcDbEntity
  8
UWWPO_L_1
  6
Continuous
370
    18
100
AcDb2dPolyline
 66
     1
 10
0.0
 20
0.0
 30
0.0
 70
   128
  0
VERTEX
  5
2F5
330
2F4
100
AcDbEntity
  8
UWWPO_L_1
100
AcDbVertex
100
AcDb2dVertex
 10
7507973.77002519
 20
5713986.171618641
 30
0.0
  0
VERTEX
  5
2F6
330
2F4
100
AcDbEntity
  8
UWWPO_L_1
100
AcDbVertex
100
AcDb2dVertex
 10
7507915.552497389
 20
5713989.99518308
 30
0.0
  0
SEQEND
  5
2F7
330
0
100
AcDbEntity
  8
UWWPO_L_1
  0
POLYLINE
  5
308
330
3D
100
AcDbEntity
  8
UZYTEK_L_0
370
    18
100
AcDb2dPolyline
 66
     1
 10
0.0
 20
0.0
 30
0.0
 70
   128
  0
VERTEX
  5
309
330
308
100
AcDbEntity
  8
UZYTEK_L_0
100
AcDbVertex
100
AcDb2dVertex
 10
7507881.65
 20
5713475.11
 30
0.0
  0
VERTEX
  5
30A
330
308
100
AcDbEntity
  8
UZYTEK_L_0
100
AcDbVertex
100
AcDb2dVertex
 10
7507915.28
 20
5713570.61
 30
0.0
  0
SEQEND
  5
30B
330
0
100
AcDbEntity
  8
UZYTEK_L_0
  0
POLYLINE
  5
320
330
3D
100
AcDbEntity
  8
UZYTEK_L_0
370
    18
100
AcDb2dPolyline
 66
     1
 10
0.0
 20
0.0
 30
0.0
 70
   128
  0
VERTEX
  5
321
330
320
100
AcDbEntity
  8
UZYTEK_L_0
100
AcDbVertex
100
AcDb2dVertex
 10
7507925.219999999
 20
5713995.549999999
 30
0.0
  0
VERTEX
  5
322
330
320
100
AcDbEntity
  8
UZYTEK_L_0
100
AcDbVertex
100
AcDb2dVertex
 10
7507929.059999999
 20
5713995.490000001
 30
0.0
  0
SEQEND
  5
323
330
0
100
AcDbEntity
  8
UZYTEK_L_0
  0
POLYLINE
  5
388
330
3D
100
AcDbEntity
  8
UZYTEK_L_0
370
    18
100
AcDb2dPolyline
 66
     1
 10
0.0
 20
0.0
 30
0.0
 70
   128
  0
VERTEX
  5
389
330
388
100
AcDbEntity
  8
UZYTEK_L_0
100
AcDbVertex
100
AcDb2dVertex
 10
7507923.67
 20
5713574.25
 30
0.0
  0
VERTEX
  5
38A
330
388
100
AcDbEntity
  8
UZYTEK_L_0
100
AcDbVertex
100
AcDb2dVertex
 10
7507921.129999999
 20
5713566.89
 30
0.0
  0
SEQEND
  5
38B
330
0
100
AcDbEntity
  8
UZYTEK_L_0
  0
POLYLINE
  5
38C
330
3D
100
AcDbEntity
  8
UZYTEK_L_0
370
    18
100
AcDb2dPolyline
 66
     1
 10
0.0
 20
0.0
 30
0.0
 70
   128
  0
VERTEX
  5
38D
330
38C
100
AcDbEntity
  8
UZYTEK_L_0
100
AcDbVertex
100
AcDb2dVertex
 10
7507899.400000001
 20
5713501.54
 30
0.0
  0
VERTEX
  5
38E
330
38C
100
AcDbEntity
  8
UZYTEK_L_0
100
AcDbVertex
100
AcDb2dVertex
 10
7507921.129999999
 20
5713566.89
 30
0.0
  0
SEQEND
  5
38F
330
0
100
AcDbEntity
  8
UZYTEK_L_0
  0
POLYLINE
  5
398
330
3D
100
AcDbEntity
  8
UZYTEK_L_0
370
    18
100
AcDb2dPolyline
 66
     1
 10
0.0
 20
0.0
 30
0.0
 70
   128
  0
VERTEX
  5
399
330
398
100
AcDbEntity
  8
UZYTEK_L_0
100
AcDbVertex
100
AcDb2dVertex
 10
7507913.2
 20
5713988.259999999
 30
0.0
  0
VERTEX
  5
39A
330
398
100
AcDbEntity
  8
UZYTEK_L_0
100
AcDbVertex
100
AcDb2dVertex
 10
7507916.519999999
 20
5713991.5
 30
0.0
  0
SEQEND
  5
39B
330
0
100
AcDbEntity
  8
UZYTEK_L_0
  0
POLYLINE
  5
3A0
330
3D
100
AcDbEntity
  8
UZYTEK_L_0
370
    18
100
AcDb2dPolyline
 66
     1
 10
0.0
 20
0.0
 30
0.0
 70
   128
  0
VERTEX
  5
3A1
330
3A0
100
AcDbEntity
  8
UZYTEK_L_0
100
AcDbVertex
100
AcDb2dVertex
 10
7508099.12
 20
5713645.41
 30
0.0
  0
VERTEX
  5
3A2
330
3A0
100
AcDbEntity
  8
UZYTEK_L_0
100
AcDbVertex
100
AcDb2dVertex
 10
7508083.82
 20
5713647.42
 30
0.0
  0
SEQEND
  5
3A3
330
0
100
AcDbEntity
  8
UZYTEK_L_0
  0
POLYLINE
  5
3A4
330
3D
100
AcDbEntity
  8
UZYTEK_L_0
370
    18
100
AcDb2dPolyline
 66
     1
 10
0.0
 20
0.0
 30
0.0
 70
   128
  0
VERTEX
  5
3A5
330
3A4
100
AcDbEntity
  8
UZYTEK_L_0
100
AcDbVertex
100
AcDb2dVertex
 10
7507918.370000001
 20
5713994.34
 30
0.0
  0
VERTEX
  5
3A6
330
3A4
100
AcDbEntity
  8
UZYTEK_L_0
100
AcDbVertex
100
AcDb2dVertex
 10
7507916.519999999
 20
5713991.5
 30
0.0
  0
SEQEND
  5
3A7
330
0
100
AcDbEntity
  8
UZYTEK_L_0
  0
POLYLINE
  5
3A8
330
3D
100
AcDbEntity
  8
UZYTEK_L_0
370
    18
100
AcDb2dPolyline
 66
     1
 10
0.0
 20
0.0
 30
0.0
 70
   128
  0
VERTEX
  5
3A9
330
3A8
100
AcDbEntity
  8
UZYTEK_L_0
100
AcDbVertex
100
AcDb2dVertex
 10
7507925.219999999
 20
5713995.549999999
 30
0.0
  0
VERTEX
  5
3AA
330
3A8
100
AcDbEntity
  8
UZYTEK_L_0
100
AcDbVertex
100
AcDb2dVertex
 10
7507918.370000001
 20
5713994.34
 30
0.0
  0
SEQEND
  5
3AB
330
0
100
AcDbEntity
  8
UZYTEK_L_0
  0
POLYLINE
  5
3B0
330
3D
100
AcDbEntity
  8
UZYTEK_L_0
370
    18
100
AcDb2dPolyline
 66
     1
 10
0.0
 20
0.0
 30
0.0
 70
   128
  0
VERTEX
  5
3B1
330
3B0
100
AcDbEntity
  8
UZYTEK_L_0
100
AcDbVertex
100
AcDb2dVertex
 10
7508099.12
 20
5713645.41
 30
0.0
  0
VERTEX
  5
3B2
330
3B0
100
AcDbEntity
  8
UZYTEK_L_0
100
AcDbVertex
100
AcDb2dVertex
 10
7508129.71
 20
5713641.480000001
 30
0.0
  0
SEQEND
  5
3B3
330
0
100
AcDbEntity
  8
UZYTEK_L_0
  0
POLYLINE
  5
424
330
3D
100
AcDbEntity
  8
UZYTEK_L_0
370
    18
100
AcDb2dPolyline
 66
     1
 10
0.0
 20
0.0
 30
0.0
 70
   128
  0
VERTEX
  5
425
330
424
100
AcDbEntity
  8
UZYTEK_L_0
100
AcDbVertex
100
AcDb2dVertex
 10
7508124.309999999
 20
5713640.08
 30
0.0
  0
VERTEX
  5
426
330
424
100
AcDbEntity
  8
UZYTEK_L_0
100
AcDbVertex
100
AcDb2dVertex
 10
7508066.139999998
 20
5713647.319999999
 30
0.0
  0
SEQEND
  5
427
330
0
100
AcDbEntity
  8
UZYTEK_L_0
  0
POLYLINE
  5
434
330
3D
100
AcDbEntity
  8
UZYTEK_L_0
370
    18
100
AcDb2dPolyline
 66
     1
 10
0.0
 20
0.0
 30
0.0
 70
   128
  0
VERTEX
  5
435
330
434
100
AcDbEntity
  8
UZYTEK_L_0
100
AcDbVertex
100
AcDb2dVertex
 10
7507904.769999998
 20
5713738.799999999
 30
0.0
  0
VERTEX
  5
436
330
434
100
AcDbEntity
  8
UZYTEK_L_0
100
AcDbVertex
100
AcDb2dVertex
 10
7507898.480000001
 20
5713676.249999999
 30
0.0
  0
SEQEND
  5
437
330
0
100
AcDbEntity
  8
UZYTEK_L_0
  0
CIRCLE
  5
460
330
3D
100
AcDbEntity
  8
WUKOS_T_2
370
    18
100
AcDbCircle
 10
7507978.656173531
 20
5713986.14624892
 30
0.0
 40
0.044999999925
  0
CIRCLE
  5
461
330
3D
100
AcDbEntity
  8
WUKOS_T_2
370
    18
100
AcDbCircle
 10
7507980.82087885
 20
5713994.74553334
 30
0.0
 40
0.044999999925
  0
POLYLINE
  5
462
330
3D
100
AcDbEntity
  8
ZAKRES_L_0
370
    35
100
AcDb2dPolyline
 66
     1
 10
0.0
 20
0.0
 30
0.0
 70
   128
  0
VERTEX
  5
463
330
462
100
AcDbEntity
  8
ZAKRES_L_0
100
AcDbVertex
100
AcDb2dVertex
 10
7508018.759999998
 20
5713992.7
 30
0.0
  0
VERTEX
  5
464
330
462
100
AcDbEntity
  8
ZAKRES_L_0
100
AcDbVertex
100
AcDb2dVertex
 10
7508018.559999999
 20
5714000.419999999
 30
0.0
  0
SEQEND
  5
465
330
0
100
AcDbEntity
  8
ZAKRES_L_0
  0
POLYLINE
  5
466
330
3D
100
AcDbEntity
  8
ZAKRES_L_0
370
    35
100
AcDb2dPolyline
 66
     1
 10
0.0
 20
0.0
 30
0.0
 70
   128
  0
VERTEX
  5
467
330
466
100
AcDbEntity
  8
ZAKRES_L_0
100
AcDbVertex
100
AcDb2dVertex
 10
7507919.099999999
 20
5713645.49
 30
0.0
  0
VERTEX
  5
468
330
466
100
AcDbEntity
  8
ZAKRES_L_0
100
AcDbVertex
100
AcDb2dVertex
 10
7507924.200000001
 20
5713639.69
 30
0.0
  0
SEQEND
  5
469
330
0
100
AcDbEntity
  8
ZAKRES_L_0
  0
POLYLINE
  5
46A
330
3D
100
AcDbEntity
  8
ZAKRES_L_0
370
    35
100
AcDb2dPolyline
 66
     1
 10
0.0
 20
0.0
 30
0.0
 70
   128
  0
VERTEX
  5
46B
330
46A
100
AcDbEntity
  8
ZAKRES_L_0
100
AcDbVertex
100
AcDb2dVertex
 10
7507924.200000001
 20
5713639.69
 30
0.0
  0
VERTEX
  5
46C
330
46A
100
AcDbEntity
  8
ZAKRES_L_0
100
AcDbVertex
100
AcDb2dVertex
 10
7507930.61
 20
5713635.37
 30
0.0
  0
SEQEND
  5
46D
330
0
100
AcDbEntity
  8
ZAKRES_L_0
  0
POLYLINE
  5
46E
330
3D
100
AcDbEntity
  8
ZAKRES_L_0
370
    35
100
AcDb2dPolyline
 66
     1
 10
0.0
 20
0.0
 30
0.0
 70
   128
  0
VERTEX
  5
46F
330
46E
100
AcDbEntity
  8
ZAKRES_L_0
100
AcDbVertex
100
AcDb2dVertex
 10
7508012.41
 20
5714014.469999999
 30
0.0
  0
VERTEX
  5
470
330
46E
100
AcDbEntity
  8
ZAKRES_L_0
100
AcDbVertex
100
AcDb2dVertex
 10
7508006.87
 20
5714019.849999999
 30
0.0
  0
SEQEND
  5
471
330
0
100
AcDbEntity
  8
ZAKRES_L_0
  0
POLYLINE
  5
472
330
3D
100
AcDbEntity
  8
ZAKRES_L_0
370
    35
100
AcDb2dPolyline
 66
     1
 10
0.0
 20
0.0
 30
0.0
 70
   128
  0
VERTEX
  5
473
330
472
100
AcDbEntity
  8
ZAKRES_L_0
100
AcDbVertex
100
AcDb2dVertex
 10
7508016.4
 20
5714007.85
 30
0.0
  0
VERTEX
  5
474
330
472
100
AcDbEntity
  8
ZAKRES_L_0
100
AcDbVertex
100
AcDb2dVertex
 10
7508012.41
 20
5714014.469999999
 30
0.0
  0
SEQEND
  5
475
330
0
100
AcDbEntity
  8
ZAKRES_L_0
  0
POLYLINE
  5
476
330
3D
100
AcDbEntity
  8
ZAKRES_L_0
370
    35
100
AcDb2dPolyline
 66
     1
 10
0.0
 20
0.0
 30
0.0
 70
   128
  0
VERTEX
  5
477
330
476
100
AcDbEntity
  8
ZAKRES_L_0
100
AcDbVertex
100
AcDb2dVertex
 10
7508018.559999999
 20
5714000.419999999
 30
0.0
  0
VERTEX
  5
478
330
476
100
AcDbEntity
  8
ZAKRES_L_0
100
AcDbVertex
100
AcDb2dVertex
 10
7508016.4
 20
5714007.85
 30
0.0
  0
SEQEND
  5
479
330
0
100
AcDbEntity
  8
ZAKRES_L_0
  0
POLYLINE
  5
47A
330
3D
100
AcDbEntity
  8
ZAKRES_L_0
370
    35
100
AcDb2dPolyline
 66
     1
 10
0.0
 20
0.0
 30
0.0
 70
   128
  0
VERTEX
  5
47B
330
47A
100
AcDbEntity
  8
ZAKRES_L_0
100
AcDbVertex
100
AcDb2dVertex
 10
7507930.61
 20
5713635.37
 30
0.0
  0
VERTEX
  5
47C
330
47A
100
AcDbEntity
  8
ZAKRES_L_0
100
AcDbVertex
100
AcDb2dVertex
 10
7507938.639999998
 20
5713632.7
 30
0.0
  0
SEQEND
  5
47D
330
0
100
AcDbEntity
  8
ZAKRES_L_0
  0
POLYLINE
  5
47E
330
3D
100
AcDbEntity
  8
ZAKRES_L_0
370
    35
100
AcDb2dPolyline
 66
     1
 10
0.0
 20
0.0
 30
0.0
 70
   128
  0
VERTEX
  5
47F
330
47E
100
AcDbEntity
  8
ZAKRES_L_0
100
AcDbVertex
100
AcDb2dVertex
 10
7507962.509999998
 20
5713632.35
 30
0.0
  0
VERTEX
  5
480
330
47E
100
AcDbEntity
  8
ZAKRES_L_0
100
AcDbVertex
100
AcDb2dVertex
 10
7507969.420000001
 20
5713635.82
 30
0.0
  0
SEQEND
  5
481
330
0
100
AcDbEntity
  8
ZAKRES_L_0
  0
POLYLINE
  5
482
330
3D
100
AcDbEntity
  8
ZAKRES_L_0
370
    35
100
AcDb2dPolyline
 66
     1
 10
0.0
 20
0.0
 30
0.0
 70
   128
  0
VERTEX
  5
483
330
482
100
AcDbEntity
  8
ZAKRES_L_0
100
AcDbVertex
100
AcDb2dVertex
 10
7507969.420000001
 20
5713635.82
 30
0.0
  0
VERTEX
  5
484
330
482
100
AcDbEntity
  8
ZAKRES_L_0
100
AcDbVertex
100
AcDb2dVertex
 10
7507975.2
 20
5713640.95
 30
0.0
  0
SEQEND
  5
485
330
0
100
AcDbEntity
  8
ZAKRES_L_0
  0
POLYLINE
  5
486
330
3D
100
AcDbEntity
  8
ZAKRES_L_0
370
    35
100
AcDb2dPolyline
 66
     1
 10
0.0
 20
0.0
 30
0.0
 70
   128
  0
VERTEX
  5
487
330
486
100
AcDbEntity
  8
ZAKRES_L_0
100
AcDbVertex
100
AcDb2dVertex
 10
7507975.2
 20
5713640.95
 30
0.0
  0
VERTEX
  5
488
330
486
100
AcDbEntity
  8
ZAKRES_L_0
100
AcDbVertex
100
AcDb2dVertex
 10
7507979.49
 20
5713647.38
 30
0.0
  0
SEQEND
  5
489
330
0
100
AcDbEntity
  8
ZAKRES_L_0
  0
POLYLINE
  5
48A
330
3D
100
AcDbEntity
  8
ZAKRES_L_0
370
    35
100
AcDb2dPolyline
 66
     1
 10
0.0
 20
0.0
 30
0.0
 70
   128
  0
VERTEX
  5
48B
330
48A
100
AcDbEntity
  8
ZAKRES_L_0
100
AcDbVertex
100
AcDb2dVertex
 10
7507938.639999998
 20
5713632.7
 30
0.0
  0
VERTEX
  5
48C
330
48A
100
AcDbEntity
  8
ZAKRES_L_0
100
AcDbVertex
100
AcDb2dVertex
 10
7507947.23
 20
5713631.14
 30
0.0
  0
SEQEND
  5
48D
330
0
100
AcDbEntity
  8
ZAKRES_L_0
  0
POLYLINE
  5
48E
330
3D
100
AcDbEntity
  8
ZAKRES_L_0
370
    35
100
AcDb2dPolyline
 66
     1
 10
0.0
 20
0.0
 30
0.0
 70
   128
  0
VERTEX
  5
48F
330
48E
100
AcDbEntity
  8
ZAKRES_L_0
100
AcDbVertex
100
AcDb2dVertex
 10
7507947.23
 20
5713631.14
 30
0.0
  0
VERTEX
  5
490
330
48E
100
AcDbEntity
  8
ZAKRES_L_0
100
AcDbVertex
100
AcDb2dVertex
 10
7507954.950000001
 20
5713630.75
 30
0.0
  0
SEQEND
  5
491
330
0
100
AcDbEntity
  8
ZAKRES_L_0
  0
POLYLINE
  5
492
330
3D
100
AcDbEntity
  8
ZAKRES_L_0
370
    35
100
AcDb2dPolyline
 66
     1
 10
0.0
 20
0.0
 30
0.0
 70
   128
  0
VERTEX
  5
493
330
492
100
AcDbEntity
  8
ZAKRES_L_0
100
AcDbVertex
100
AcDb2dVertex
 10
7507954.950000001
 20
5713630.75
 30
0.0
  0
VERTEX
  5
494
330
492
100
AcDbEntity
  8
ZAKRES_L_0
100
AcDbVertex
100
AcDb2dVertex
 10
7507962.509999998
 20
5713632.35
 30
0.0
  0
SEQEND
  5
495
330
0
100
AcDbEntity
  8
ZAKRES_L_0
  0
POLYLINE
  5
496
330
3D
100
AcDbEntity
  8
ZAKRES_L_0
370
    35
100
AcDb2dPolyline
 66
     1
 10
0.0
 20
0.0
 30
0.0
 70
   128
  0
VERTEX
  5
497
330
496
100
AcDbEntity
  8
ZAKRES_L_0
100
AcDbVertex
100
AcDb2dVertex
 10
7508006.87
 20
5714019.849999999
 30
0.0
  0
VERTEX
  5
498
330
496
100
AcDbEntity
  8
ZAKRES_L_0
100
AcDbVertex
100
AcDb2dVertex
 10
7508000.13
 20
5714023.64
 30
0.0
  0
SEQEND
  5
499
330
0
100
AcDbEntity
  8
ZAKRES_L_0
  0
POLYLINE
  5
49A
330
3D
100
AcDbEntity
  8
ZAKRES_L_0
370
    35
100
AcDb2dPolyline
 66
     1
 10
0.0
 20
0.0
 30
0.0
 70
   128
  0
VERTEX
  5
49B
330
49A
100
AcDbEntity
  8
ZAKRES_L_0
100
AcDbVertex
100
AcDb2dVertex
 10
7507919.349999998
 20
5713693.789999999
 30
0.0
  0
VERTEX
  5
49C
330
49A
100
AcDbEntity
  8
ZAKRES_L_0
100
AcDbVertex
100
AcDb2dVertex
 10
7507914.5
 20
5713667.700000001
 30
0.0
  0
SEQEND
  5
49D
330
0
100
AcDbEntity
  8
ZAKRES_L_0
  0
POLYLINE
  5
49E
330
3D
100
AcDbEntity
  8
ZAKRES_L_0
370
    35
100
AcDb2dPolyline
 66
     1
 10
0.0
 20
0.0
 30
0.0
 70
   128
  0
VERTEX
  5
49F
330
49E
100
AcDbEntity
  8
ZAKRES_L_0
100
AcDbVertex
100
AcDb2dVertex
 10
7507949.299999999
 20
5713999.129999999
 30
0.0
  0
VERTEX
  5
4A0
330
49E
100
AcDbEntity
  8
ZAKRES_L_0
100
AcDbVertex
100
AcDb2dVertex
 10
7507919.349999998
 20
5713693.789999999
 30
0.0
  0
SEQEND
  5
4A1
330
0
100
AcDbEntity
  8
ZAKRES_L_0
  0
POLYLINE
  5
4A2
330
3D
100
AcDbEntity
  8
ZAKRES_L_0
370
    35
100
AcDb2dPolyline
 66
     1
 10
0.0
 20
0.0
 30
0.0
 70
   128
  0
VERTEX
  5
4A3
330
4A2
100
AcDbEntity
  8
ZAKRES_L_0
100
AcDbVertex
100
AcDb2dVertex
 10
7507950.67
 20
5714005.6
 30
0.0
  0
VERTEX
  5
4A4
330
4A2
100
AcDbEntity
  8
ZAKRES_L_0
100
AcDbVertex
100
AcDb2dVertex
 10
7507949.299999999
 20
5713999.129999999
 30
0.0
  0
SEQEND
  5
4A5
330
0
100
AcDbEntity
  8
ZAKRES_L_0
  0
POLYLINE
  5
4A6
330
3D
100
AcDbEntity
  8
ZAKRES_L_0
370
    35
100
AcDb2dPolyline
 66
     1
 10
0.0
 20
0.0
 30
0.0
 70
   128
  0
VERTEX
  5
4A7
330
4A6
100
AcDbEntity
  8
ZAKRES_L_0
100
AcDbVertex
100
AcDb2dVertex
 10
7507915.650000001
 20
5713652.41
 30
0.0
  0
VERTEX
  5
4A8
330
4A6
100
AcDbEntity
  8
ZAKRES_L_0
100
AcDbVertex
100
AcDb2dVertex
 10
7507919.099999999
 20
5713645.49
 30
0.0
  0
SEQEND
  5
4A9
330
0
100
AcDbEntity
  8
ZAKRES_L_0
  0
POLYLINE
  5
4AA
330
3D
100
AcDbEntity
  8
ZAKRES_L_0
370
    35
100
AcDb2dPolyline
 66
     1
 10
0.0
 20
0.0
 30
0.0
 70
   128
  0
VERTEX
  5
4AB
330
4AA
100
AcDbEntity
  8
ZAKRES_L_0
100
AcDbVertex
100
AcDb2dVertex
 10
7507914.08
 20
5713659.98
 30
0.0
  0
VERTEX
  5
4AC
330
4AA
100
AcDbEntity
  8
ZAKRES_L_0
100
AcDbVertex
100
AcDb2dVertex
 10
7507915.650000001
 20
5713652.41
 30
0.0
  0
SEQEND
  5
4AD
330
0
100
AcDbEntity
  8
ZAKRES_L_0
  0
POLYLINE
  5
4AE
330
3D
100
AcDbEntity
  8
ZAKRES_L_0
370
    35
100
AcDb2dPolyline
 66
     1
 10
0.0
 20
0.0
 30
0.0
 70
   128
  0
VERTEX
  5
4AF
330
4AE
100
AcDbEntity
  8
ZAKRES_L_0
100
AcDbVertex
100
AcDb2dVertex
 10
7507914.5
 20
5713667.700000001
 30
0.0
  0
VERTEX
  5
4B0
330
4AE
100
AcDbEntity
  8
ZAKRES_L_0
100
AcDbVertex
100
AcDb2dVertex
 10
7507914.08
 20
5713659.98
 30
0.0
  0
SEQEND
  5
4B1
330
0
100
AcDbEntity
  8
ZAKRES_L_0
  0
POLYLINE
  5
4B2
330
3D
100
AcDbEntity
  8
ZAKRES_L_0
370
    35
100
AcDb2dPolyline
 66
     1
 10
0.0
 20
0.0
 30
0.0
 70
   128
  0
VERTEX
  5
4B3
330
4B2
100
AcDbEntity
  8
ZAKRES_L_0
100
AcDbVertex
100
AcDb2dVertex
 10
7507954.019999998
 20
5714012.570000001
 30
0.0
  0
VERTEX
  5
4B4
330
4B2
100
AcDbEntity
  8
ZAKRES_L_0
100
AcDbVertex
100
AcDb2dVertex
 10
7507950.67
 20
5714005.6
 30
0.0
  0
SEQEND
  5
4B5
330
0
100
AcDbEntity
  8
ZAKRES_L_0
  0
POLYLINE
  5
4B6
330
3D
100
AcDbEntity
  8
ZAKRES_L_0
370
    35
100
AcDb2dPolyline
 66
     1
 10
0.0
 20
0.0
 30
0.0
 70
   128
  0
VERTEX
  5
4B7
330
4B6
100
AcDbEntity
  8
ZAKRES_L_0
100
AcDbVertex
100
AcDb2dVertex
 10
7507980.36
 20
5714026.179999999
 30
0.0
  0
VERTEX
  5
4B8
330
4B6
100
AcDbEntity
  8
ZAKRES_L_0
100
AcDbVertex
100
AcDb2dVertex
 10
7507972.66
 20
5714025.49
 30
0.0
  0
SEQEND
  5
4B9
330
0
100
AcDbEntity
  8
ZAKRES_L_0
  0
POLYLINE
  5
4BA
330
3D
100
AcDbEntity
  8
ZAKRES_L_0
370
    35
100
AcDb2dPolyline
 66
     1
 10
0.0
 20
0.0
 30
0.0
 70
   128
  0
VERTEX
  5
4BB
330
4BA
100
AcDbEntity
  8
ZAKRES_L_0
100
AcDbVertex
100
AcDb2dVertex
 10
7507990.12
 20
5714025.79
 30
0.0
  0
VERTEX
  5
4BC
330
4BA
100
AcDbEntity
  8
ZAKRES_L_0
100
AcDbVertex
100
AcDb2dVertex
 10
7507980.36
 20
5714026.179999999
 30
0.0
  0
SEQEND
  5
4BD
330
0
100
AcDbEntity
  8
ZAKRES_L_0
  0
POLYLINE
  5
4BE
330
3D
100
AcDbEntity
  8
ZAKRES_L_0
370
    35
100
AcDb2dPolyline
 66
     1
 10
0.0
 20
0.0
 30
0.0
 70
   128
  0
VERTEX
  5
4BF
330
4BE
100
AcDbEntity
  8
ZAKRES_L_0
100
AcDbVertex
100
AcDb2dVertex
 10
7508000.13
 20
5714023.64
 30
0.0
  0
VERTEX
  5
4C0
330
4BE
100
AcDbEntity
  8
ZAKRES_L_0
100
AcDbVertex
100
AcDb2dVertex
 10
7507990.12
 20
5714025.79
 30
0.0
  0
SEQEND
  5
4C1
330
0
100
AcDbEntity
  8
ZAKRES_L_0
  0
POLYLINE
  5
4C2
330
3D
100
AcDbEntity
  8
ZAKRES_L_0
370
    35
100
AcDb2dPolyline
 66
     1
 10
0.0
 20
0.0
 30
0.0
 70
   128
  0
VERTEX
  5
4C3
330
4C2
100
AcDbEntity
  8
ZAKRES_L_0
100
AcDbVertex
100
AcDb2dVertex
 10
7507959.040000001
 20
5714018.450000001
 30
0.0
  0
VERTEX
  5
4C4
330
4C2
100
AcDbEntity
  8
ZAKRES_L_0
100
AcDbVertex
100
AcDb2dVertex
 10
7507954.019999998
 20
5714012.570000001
 30
0.0
  0
SEQEND
  5
4C5
330
0
100
AcDbEntity
  8
ZAKRES_L_0
  0
POLYLINE
  5
4C6
330
3D
100
AcDbEntity
  8
ZAKRES_L_0
370
    35
100
AcDb2dPolyline
 66
     1
 10
0.0
 20
0.0
 30
0.0
 70
   128
  0
VERTEX
  5
4C7
330
4C6
100
AcDbEntity
  8
ZAKRES_L_0
100
AcDbVertex
100
AcDb2dVertex
 10
7507965.389999999
 20
5714022.85
 30
0.0
  0
VERTEX
  5
4C8
330
4C6
100
AcDbEntity
  8
ZAKRES_L_0
100
AcDbVertex
100
AcDb2dVertex
 10
7507959.040000001
 20
5714018.450000001
 30
0.0
  0
SEQEND
  5
4C9
330
0
100
AcDbEntity
  8
ZAKRES_L_0
  0
POLYLINE
  5
4CA
330
3D
100
AcDbEntity
  8
ZAKRES_L_0
370
    35
100
AcDb2dPolyline
 66
     1
 10
0.0
 20
0.0
 30
0.0
 70
   128
  0
VERTEX
  5
4CB
330
4CA
100
AcDbEntity
  8
ZAKRES_L_0
100
AcDbVertex
100
AcDb2dVertex
 10
7507972.66
 20
5714025.49
 30
0.0
  0
VERTEX
  5
4CC
330
4CA
100
AcDbEntity
  8
ZAKRES_L_0
100
AcDbVertex
100
AcDb2dVertex
 10
7507965.389999999
 20
5714022.85
 30
0.0
  0
SEQEND
  5
4CD
330
0
100
AcDbEntity
  8
ZAKRES_L_0
  0
POLYLINE
  5
4CE
330
3D
100
AcDbEntity
  8
ZAKRES_L_0
370
    35
100
AcDb2dPolyline
 66
     1
 10
0.0
 20
0.0
 30
0.0
 70
   128
  0
VERTEX
  5
4CF
330
4CE
100
AcDbEntity
  8
ZAKRES_L_0
100
AcDbVertex
100
AcDb2dVertex
 10
7507979.49
 20
5713647.38
 30
0.0
  0
VERTEX
  5
4D0
330
4CE
100
AcDbEntity
  8
ZAKRES_L_0
100
AcDbVertex
100
AcDb2dVertex
 10
7507982.25
 20
5713656.13
 30
0.0
  0
SEQEND
  5
4D1
330
0
100
AcDbEntity
  8
ZAKRES_L_0
  0
POLYLINE
  5
4D2
330
3D
100
AcDbEntity
  8
ZAKRES_L_0
370
    35
100
AcDb2dPolyline
 66
     1
 10
0.0
 20
0.0
 30
0.0
 70
   128
  0
VERTEX
  5
4D3
330
4D2
100
AcDbEntity
  8
ZAKRES_L_0
100
AcDbVertex
100
AcDb2dVertex
 10
7507986.730000001
 20
5713685.67
 30
0.0
  0
VERTEX
  5
4D4
330
4D2
100
AcDbEntity
  8
ZAKRES_L_0
100
AcDbVertex
100
AcDb2dVertex
 10
7508018.759999998
 20
5713992.7
 30
0.0
  0
SEQEND
  5
4D5
330
0
100
AcDbEntity
  8
ZAKRES_L_0
  0
POLYLINE
  5
4D6
330
3D
100
AcDbEntity
  8
ZAKRES_L_0
370
    35
100
AcDb2dPolyline
 66
     1
 10
0.0
 20
0.0
 30
0.0
 70
   128
  0
VERTEX
  5
4D7
330
4D6
100
AcDbEntity
  8
ZAKRES_L_0
100
AcDbVertex
100
AcDb2dVertex
 10
7507986.55
 20
5713684.25
 30
0.0
  0
VERTEX
  5
4D8
330
4D6
100
AcDbEntity
  8
ZAKRES_L_0
100
AcDbVertex
100
AcDb2dVertex
 10
7507986.730000001
 20
5713685.67
 30
0.0
  0
SEQEND
  5
4D9
330
0
100
AcDbEntity
  8
ZAKRES_L_0
  0
POLYLINE
  5
4DA
330
3D
100
AcDbEntity
  8
ZAKRES_L_0
370
    35
100
AcDb2dPolyline
 66
     1
 10
0.0
 20
0.0
 30
0.0
 70
   128
  0
VERTEX
  5
4DB
330
4DA
100
AcDbEntity
  8
ZAKRES_L_0
100
AcDbVertex
100
AcDb2dVertex
 10
7507982.25
 20
5713656.13
 30
0.0
  0
VERTEX
  5
4DC
330
4DA
100
AcDbEntity
  8
ZAKRES_L_0
100
AcDbVertex
100
AcDb2dVertex
 10
7507986.55
 20
5713684.25
 30
0.0
  0
SEQEND
  5
4DD
330
0
100
AcDbEntity
  8
ZAKRES_L_0
  0
INSERT
  5
4DE
330
3D
100
AcDbEntity
  8
WUKOS_T_2
  6
Continuous
100
AcDbBlockReference
  2
RTPW01
 10
7507977.730000001
 20
5713989.129999999
 30
0.0
 41
0.5
 42
0.5
 43
0.5
  0
INSERT
  5
4DF
330
3D
100
AcDbEntity
  8
WUKOS_T_2
  6
Continuous
100
AcDbBlockReference
  2
RTPW01
 10
7507976.849999998
 20
5713994.11
 30
0.0
 41
0.5
 42
0.5
 43
0.5
  0
INSERT
  5
4E0
330
3D
100
AcDbEntity
  8
WUKOS_T_4
  6
Continuous
100
AcDbBlockReference
  2
RTPW01
 10
7508002.46
 20
5713985.09
 30
0.0
 41
0.5
 42
0.5
 43
0.5
  0
INSERT
  5
4E1
330
3D
100
AcDbEntity
  8
WUKOS_T_4
  6
Continuous
100
AcDbBlockReference
  2
RTPW01
 10
7507991.076921991
 20
5714010.638284791
 30
0.0
 41
0.5
 42
0.5
 43
0.5
 50
0.07
  0
INSERT
  5
4E2
330
3D
100
AcDbEntity
  8
WUKOS_T_4
  6
Continuous
100
AcDbBlockReference
  2
RTPW01
 10
7507987.389999999
 20
5713985.37
 30
0.0
 41
0.5
 42
0.5
 43
0.5
  0
INSERT
  5
4E3
330
3D
100
AcDbEntity
  8
WUKOS_T_4
  6
Continuous
100
AcDbBlockReference
  2
RTPW01
 10
7508010.41
 20
5713984.89
 30
0.0
 41
0.5
 42
0.5
 43
0.5
  0
INSERT
  5
4E4
330
3D
100
AcDbEntity
  8
WUKOS_T_4
  6
Continuous
100
AcDbBlockReference
  2
RTPW01
 10
7507983.719999999
 20
5713946.289999999
 30
0.0
 41
0.5
 42
0.5
 43
0.5
  0
TEXT
  5
4E5
330
3D
100
AcDbEntity
  8
EADTD_T_0
370
    25
100
AcDbText
 39
0.25
 10
7507936.254482024
 20
5713727.495083469
 30
0.0
 40
1.25
  1
56
 50
84.29999999999999
 41
0.6600000000000001
 11
7507935.010662561
 21
5713727.619233156
 31
0.0
100
AcDbText
 73
     3
  0
TEXT
  5
4E6
330
3D
100
AcDbEntity
  8
EBUOA_T_0
370
    25
100
AcDbText
 39
0.25
 10
7507930.105721059
 20
5713683.084838598
 30
0.0
 40
1.25
  1
g
 50
0.1
 41
0.6600000000000001
 11
7507930.1035394
 21
5713684.334836695
 31
0.0
100
AcDbText
 73
     3
  0
TEXT
  5
4E7
330
3D
100
AcDbEntity
  8
EBUOA_T_1
370
    25
100
AcDbText
 39
0.25
 10
7507983.778268071
 20
5713770.671235161
 30
0.0
 40
1.25
  1
g
 50
6.599999999999999
 41
0.6600000000000001
 11
7507983.634596633
 21
5713771.912951118
 31
0.0
100
AcDbText
 73
     3
  0
TEXT
  5
4E8
330
3D
100
AcDbEntity
  8
EBUOA_T_1
370
    25
100
AcDbText
 39
0.25
 10
7507966.256442657
 20
5713753.980249109
 30
0.0
 40
1.25
  1
g
 50
6.599999999999999
 41
0.6600000000000001
 11
7507966.112771218
 21
5713755.221965067
 31
0.0
100
AcDbText
 73
     3
  0
TEXT
  5
4E9
330
3D
100
AcDbEntity
  8
NR_DZIALKI_T_0
370
    25
100
AcDbText
 39
0.25
 10
7508008.800840794
 20
5713968.031369042
 30
0.0
 40
1.25
  1
38.2-65/1
 41
0.6600000000000001
 11
7508008.800840794
 21
5713969.281369043
 31
0.0
100
AcDbText
 73
     3
  0
TEXT
  5
4EA
330
3D
100
AcDbEntity
  8
NR_DZIALKI_T_0
370
    25
100
AcDbText
 39
0.25
 10
7507993.345484599
 20
5713964.250128486
 30
0.0
 40
1.25
  1
38.2-64/1
 41
0.6600000000000001
 11
7507993.345484599
 21
5713965.500128486
 31
0.0
100
AcDbText
 73
     3
  0
TEXT
  5
4EB
330
3D
100
AcDbEntity
  8
NR_DZIALKI_T_0
370
    25
100
AcDbText
 39
0.25
 10
7507988.700000001
 20
5713860.93
 30
0.0
 40
1.25
  1
38.2-64/2
 41
0.6600000000000001
 11
7507988.700000001
 21
5713862.179999999
 31
0.0
100
AcDbText
 73
     3
  0
TEXT
  5
4EC
330
3D
100
AcDbEntity
  8
NR_DZIALKI_T_0
370
    25
100
AcDbText
 39
0.25
 10
7507958.212194584
 20
5713765.265659682
 30
0.0
 40
1.25
  1
38.2-60
 41
0.6600000000000001
 11
7507958.212194584
 21
5713766.515659681
 31
0.0
100
AcDbText
 73
     3
  0
TEXT
  5
4ED
330
3D
100
AcDbEntity
  8
NR_DZIALKI_T_0
370
    25
100
AcDbText
 39
0.25
 10
7507985.819999996
 20
5713991.029999996
 30
0.0
 40
1.25
  1
38.2-59
 41
0.6600000000000001
 11
7507985.819999996
 21
5713992.279999996
 31
0.0
100
AcDbText
 73
     3
  0
TEXT
  5
4EE
330
3D
100
AcDbEntity
  8
NR_DZIALKI_T_0
370
    25
100
AcDbText
 39
0.25
 10
7507961.820563255
 20
5713661.272199995
 30
0.0
 40
1.25
  1
38.2-92
 41
0.6600000000000001
 11
7507961.820563255
 21
5713662.522199996
 31
0.0
100
AcDbText
 73
     3
  0
TEXT
  5
4EF
330
3D
100
AcDbEntity
  8
NR_DZIALKI_T_0
370
    25
100
AcDbText
 39
0.25
 10
7507981.730196858
 20
5714006.088881393
 30
0.0
 40
1.25
  1
38.2-29
 41
0.6600000000000001
 11
7507981.730196858
 21
5714007.338881393
 31
0.0
100
AcDbText
 73
     3
  0
TEXT
  5
4F0
330
3D
100
AcDbEntity
  8
NR_DZIALKI_T_0
370
    25
100
AcDbText
 39
0.25
 10
7507959.052316886
 20
5713645.009367527
 30
0.0
 40
1.25
  1
39.1-1
 41
0.6600000000000001
 11
7507959.052316886
 21
5713646.259367528
 31
0.0
100
AcDbText
 73
     3
  0
TEXT
  5
4F1
330
3D
100
AcDbEntity
  8
NR_DZIALKI_T_0
370
    25
100
AcDbText
 39
0.25
 10
7507923.349999998
 20
5713702.279999999
 30
0.0
 40
1.25
  1
38.2-63/1
 41
0.6600000000000001
 11
7507923.349999998
 21
5713703.53
 31
0.0
100
AcDbText
 73
     3
  0
TEXT
  5
4F2
330
3D
100
AcDbEntity
  8
NR_DZIALKI_T_0
370
    25
100
AcDbText
 39
0.25
 10
7507949.588218099
 20
5713870.654175488
 30
0.0
 40
1.25
  1
38.2-63/3
 41
0.6600000000000001
 11
7507949.588218099
 21
5713871.904175487
 31
0.0
100
AcDbText
 73
     3
  0
TEXT
  5
4F3
330
3D
100
AcDbEntity
  8
NR_DZIALKI_T_0
370
    25
100
AcDbText
 39
0.25
 10
7507931.548648719
 20
5713763.791421105
 30
0.0
 40
1.25
  1
38.2-63/2
 41
0.6600000000000001
 11
7507931.548648719
 21
5713765.041421105
 31
0.0
100
AcDbText
 73
     3
  0
TEXT
  5
4F4
330
3D
100
AcDbEntity
  8
SDROK_T_0
370
    25
100
AcDbText
 39
0.25
 10
7507978.069639949
 20
5713943.094908724
 30
0.0
 40
1.25
  1
dr.
 50
88.0
 41
0.6600000000000001
 11
7507976.820401416
 21
5713943.138533096
 31
0.0
100
AcDbText
 73
     3
  0
TEXT
  5
4F5
330
3D
100
AcDbEntity
  8
SDROK_T_0
370
    25
100
AcDbText
 39
0.25
 10
7508006.995196891
 20
5713990.918904608
 30
0.0
 40
1.25
  1
j.mb.
 50
358.7
 41
0.6600000000000001
 11
7508007.023556058
 21
5713992.168582868
 31
0.0
100
AcDbText
 73
     3
  0
TEXT
  5
4F6
330
3D
100
AcDbEntity
  8
UEEOA_T_3
370
    18
100
AcDbText
 39
0.18
 10
7507981.154585507
 20
5713995.640038056
 30
0.0
 40
0.9
  1
e
 41
0.6600000000000001
 11
7507981.154585507
 21
5713996.540038057
 31
0.0
100
AcDbText
 73
     3
  0
TEXT
  5
4F7
330
3D
100
AcDbEntity
  8
UEEOC_T_3
370
    18
100
AcDbText
 39
0.18
 10
7508012.099312443
 20
5713996.170014176
 30
0.0
 40
0.9
  1
140.8
 50
358.8
 41
0.6600000000000001
 11
7508012.118160621
 21
5713997.069816791
 31
0.0
100
AcDbText
 73
     3
  0
TEXT
  5
4F8
330
3D
100
AcDbEntity
  8
UEEOO_T_0
370
    18
100
AcDbText
 39
0.18
 10
7507994.611996996
 20
5713996.441040533
 30
0.0
 40
0.9
  1
eN
 50
359.1
 41
0.6600000000000001
 11
7507994.626133581
 21
5713997.340929502
 31
0.0
100
AcDbText
 73
     3
  0
TEXT
  5
4F9
330
3D
100
AcDbEntity
  8
UWWOA_T_0
370
    18
100
AcDbText
 39
0.18
 10
7507951.018329979
 20
5713735.036828359
 30
0.0
 40
0.9
  1
w
 41
0.6600000000000001
 11
7507951.018329979
 21
5713735.936828359
 31
0.0
100
AcDbText
 73
     3
  0
TEXT
  5
4FA
330
3D
100
AcDbEntity
  8
UWWOA_T_0
370
    18
100
AcDbText
 39
0.18
 10
7507951.287581256
 20
5713736.617683764
 30
0.0
 40
0.9
  1
w
 41
0.6600000000000001
 11
7507951.287581256
 21
5713737.517683766
 31
0.0
100
AcDbText
 73
     3
  0
TEXT
  5
4FB
330
3D
100
AcDbEntity
  8
UWWOA_T_0
370
    20
100
AcDbText
 39
0.2
 10
7508015.706327539
 20
5713985.561576912
 30
0.0
 40
1.08
  1
w
 41
0.6600000000000001
 11
7508015.706327539
 21
5713986.641576911
 31
0.0
100
AcDbText
 73
     3
  0
TEXT
  5
4FC
330
3D
100
AcDbEntity
  8
UWWOA_T_0
370
    18
100
AcDbText
 39
0.18
 10
7507979.26993208
 20
5713985.271628984
 30
0.0
 40
0.9
  1
w
 41
0.6600000000000001
 11
7507979.26993208
 21
5713986.171628985
 31
0.0
100
AcDbText
 73
     3
  0
TEXT
  5
4FD
330
3D
100
AcDbEntity
  8
UWWOC_T_0
370
    18
100
AcDbText
 39
0.18
 10
7507962.539212354
 20
5713827.013386974
 30
0.0
 40
0.9
  1
139.68
 50
86.6
 41
0.6600000000000001
 11
7507961.640796509
 21
5713827.06676271
 31
0.0
100
AcDbText
 73
     3
  0
TEXT
  5
4FE
330
3D
100
AcDbEntity
  8
UWWOC_T_0
370
    18
100
AcDbText
 39
0.18
 10
7507974.207267391
 20
5713935.450483313
 30
0.0
 40
0.9
  1
140.85
 50
83.7
 41
0.6600000000000001
 11
7507973.312702532
 21
5713935.549244192
 31
0.0
100
AcDbText
 73
     3
  0
TEXT
  5
4FF
330
3D
100
AcDbEntity
  8
UWWOC_T_0
370
    18
100
AcDbText
 39
0.18
 10
7507979.486230611
 20
5713984.070067521
 30
0.0
 40
0.9
  1
141.23
 41
0.6600000000000001
 11
7507979.486230611
 21
5713984.970067522
 31
0.0
100
AcDbText
 73
     3
  0
TEXT
  5
500
330
3D
100
AcDbEntity
  8
UWWOC_T_0
370
    18
100
AcDbText
 39
0.18
 10
7508011.999964526
 20
5713987.027504424
 30
0.0
 40
0.9
  1
141.62
 41
0.6600000000000001
 11
7508011.999964526
 21
5713987.927504425
 31
0.0
100
AcDbText
 73
     3
  0
TEXT
  5
501
330
3D
100
AcDbEntity
  8
UWWOC_T_0
370
    18
100
AcDbText
 39
0.18
 10
7507953.659801
 20
5713736.007380856
 30
0.0
 40
0.9
  1
139.51
 41
0.6600000000000001
 11
7507953.659801
 21
5713736.907380856
 31
0.0
100
AcDbText
 73
     3
  0
TEXT
  5
502
330
3D
100
AcDbEntity
  8
UWWOC_T_0
370
    18
100
AcDbText
 39
0.18
 10
7507953.282849201
 20
5713737.443387696
 30
0.0
 40
0.9
  1
139.50
 41
0.6600000000000001
 11
7507953.282849201
 21
5713738.343387696
 31
0.0
100
AcDbText
 73
     3
  0
TEXT
  5
503
330
3D
100
AcDbEntity
  8
UWWOO_T_0
370
    18
100
AcDbText
 39
0.18
 10
7507959.110845447
 20
5713798.690555529
 30
0.0
 40
0.9
  1
wo110
 50
84.0
 41
0.6600000000000001
 11
7507958.215775742
 21
5713798.784631148
 31
0.0
100
AcDbText
 73
     3
  0
TEXT
  5
504
330
3D
100
AcDbEntity
  8
UWWOO_T_0
370
    18
100
AcDbText
 39
0.18
 10
7507971.48163661
 20
5713915.291020525
 30
0.0
 40
0.9
  1
wo110
 50
83.59999999999999
 41
0.6600000000000001
 11
7507970.587245483
 21
5713915.391342562
 31
0.0
100
AcDbText
 73
     3
  0
TEXT
  5
505
330
3D
100
AcDbEntity
  8
UWWOO_T_0
370
    18
100
AcDbText
 39
0.18
 10
7508014.858280477
 20
5713978.216239492
 30
0.0
 40
0.9
  1
wo40
 50
85.0
 41
0.6600000000000001
 11
7508013.961705248
 21
5713978.294679662
 31
0.0
100
AcDbText
 73
     3
  0
TEXT
  5
506
330
3D
100
AcDbEntity
  8
WUKOS_T_1
370
    15
100
AcDbText
 39
0.15
 10
7507975.596472321
 20
5713984.513846683
 30
0.0
 40
0.75
  1
141.2
 50
0.1
 41
0.6600000000000001
 11
7507975.595163324
 21
5713985.26384554
 31
0.0
100
AcDbText
 73
     3
  0
TEXT
  5
507
330
3D
100
AcDbEntity
  8
WUKOS_T_1
370
    15
100
AcDbText
 39
0.15
 10
7507976.849999998
 20
5713993.36
 30
0.0
 40
0.75
  1
141.6
 41
0.6600000000000001
 11
7507976.849999998
 21
5713994.11
 31
0.0
100
AcDbText
 73
     3
  0
TEXT
  5
508
330
3D
100
AcDbEntity
  8
WUKOS_T_1
370
    15
100
AcDbText
 39
0.15
 10
7507977.730000001
 20
5713988.38
 30
0.0
 40
0.75
  1
141.6
 41
0.6600000000000001
 11
7507977.730000001
 21
5713989.129999999
 31
0.0
100
AcDbText
 73
     3
  0
TEXT
  5
509
330
3D
100
AcDbEntity
  8
WUKOS_T_1
370
    15
100
AcDbText
 39
0.15
 10
7507982.641010793
 20
5713995.7430512
 30
0.0
 40
0.75
  1
141.2
 50
0.1
 41
0.6600000000000001
 11
7507982.639701797
 21
5713996.493050058
 31
0.0
100
AcDbText
 73
     3
  0
TEXT
  5
50A
330
3D
100
AcDbEntity
  8
WUKOS_T_3
370
    15
100
AcDbText
 39
0.15
 10
7508002.46
 20
5713984.34
 30
0.0
 40
0.75
  1
141.4
 41
0.6600000000000001
 11
7508002.46
 21
5713985.09
 31
0.0
100
AcDbText
 73
     3
  0
TEXT
  5
50B
330
3D
100
AcDbEntity
  8
WUKOS_T_3
370
    15
100
AcDbText
 39
0.15
 10
7507992.410996144
 20
5714010.005562069
 30
0.0
 40
0.75
  1
141.3
 50
0.1
 41
0.6600000000000001
 11
7507992.409687147
 21
5714010.755560927
 31
0.0
100
AcDbText
 73
     3
  0
TEXT
  5
50C
330
3D
100
AcDbEntity
  8
WUKOS_T_3
370
    15
100
AcDbText
 39
0.15
 10
7507987.389999999
 20
5713984.619999999
 30
0.0
 40
0.75
  1
141.4
 41
0.6600000000000001
 11
7507987.389999999
 21
5713985.37
 31
0.0
100
AcDbText
 73
     3
  0
TEXT
  5
50D
330
3D
100
AcDbEntity
  8
WUKOS_T_3
370
    15
100
AcDbText
 39
0.15
 10
7508010.41
 20
5713984.139999999
 30
0.0
 40
0.75
  1
141.4
 41
0.6600000000000001
 11
7508010.41
 21
5713984.89
 31
0.0
100
AcDbText
 73
     3
  0
TEXT
  5
50E
330
3D
100
AcDbEntity
  8
WUKOS_T_3
370
    15
100
AcDbText
 39
0.15
 10
7507983.719999999
 20
5713945.54
 30
0.0
 40
0.75
  1
141.1
 41
0.6600000000000001
 11
7507983.719999999
 21
5713946.289999999
 31
0.0
100
AcDbText
 73
     3
  0
ENDSEC
  0
SECTION
  2
OBJECTS
  0
DICTIONARY
  5
50F
330
0
100
AcDbDictionary
281
     1
  3
ACAD_COLOR
350
100001C
  3
ACAD_GROUP
350
510
  3
ACAD_LAYOUT
350
511
  3
ACAD_MATERIAL
350
FFFFFF
  3
ACAD_MLEADERSTYLE
350
100001F
  3
ACAD_MLINESTYLE
350
512
  3
ACAD_PLOTSETTINGS
350
513
  3
ACAD_PLOTSTYLENAME
350
514
  3
ACAD_SCALELIST
350
1000021
  3
ACAD_TABLESTYLE
350
100001D
  3
ACAD_VISUALSTYLE
350
1000003
  3
AcDbVariableDictionary
350
1000034
  0
DICTIONARY
  5
100001C
102
{ACAD_REACTORS
330
50F
102
}
330
50F
100
AcDbDictionary
281
     1
  0
DICTIONARY
  5
510
102
{ACAD_REACTORS
330
50F
102
}
330
50F
100
AcDbDictionary
281
     1
  0
DICTIONARY
  5
511
102
{ACAD_REACTORS
330
50F
102
}
330
50F
100
AcDbDictionary
281
     1
  3
Layout
350
40
  3
Model
350
3E
  0
DICTIONARY
  5
FFFFFF
102
{ACAD_REACTORS
330
50F
102
}
330
50F
100
AcDbDictionary
281
     1
  3
ByBlock
350
1000001
  3
ByLayer
350
1000000
  3
Global
350
1000002
  0
DICTIONARY
  5
100001F
102
{ACAD_REACTORS
330
50F
102
}
330
50F
100
AcDbDictionary
281
     1
  3
Standard
350
1000020
  0
DICTIONARY
  5
512
102
{ACAD_REACTORS
330
50F
102
}
330
50F
100
AcDbDictionary
281
     1
  3
L_0_02
350
7
  3
L_0_E3
350
D
  3
Standard
350
515
  0
DICTIONARY
  5
513
102
{ACAD_REACTORS
330
50F
102
}
330
50F
100
AcDbDictionary
281
     1
  0
ACDBDICTIONARYWDFLT
  5
514
102
{ACAD_REACTORS
330
50F
102
}
330
50F
100
AcDbDictionary
281
     1
  3
Normal
350
12
100
AcDbDictionaryWithDefault
340
12
  0
DICTIONARY
  5
1000021
102
{ACAD_REACTORS
330
50F
102
}
330
50F
100
AcDbDictionary
281
     1
  3
A0
350
1000022
  3
A1
350
1000023
  3
A2
350
1000024
  3
A3
350
1000025
  3
A4
350
1000026
  3
A5
350
1000027
  3
A6
350
1000028
  3
A7
350
1000029
  3
A8
350
100002A
  3
A9
350
100002B
  3
B0
350
100002C
  3
B1
350
100002D
  3
B2
350
100002E
  3
B3
350
100002F
  3
B4
350
1000030
  3
B5
350
1000031
  3
B6
350
1000032
  0
DICTIONARY
  5
100001D
102
{ACAD_REACTORS
330
50F
102
}
330
50F
100
AcDbDictionary
281
     1
  3
Standard
350
100001E
  0
DICTIONARY
  5
1000003
102
{ACAD_REACTORS
330
50F
102
}
330
50F
100
AcDbDictionary
281
     1
  3
2dWireframe
350
1000008
  3
Basic
350
100000B
  3
Brighten
350
100000F
  3
ColorChange
350
1000013
  3
Conceptual
350
100000D
  3
Dim
350
100000E
  3
EdgeColorOff
350
1000016
  3
Facepattern
350
1000012
  3
Flat
350
1000004
  3
FlatWithEdges
350
1000005
  3
Gouraud
350
1000006
  3
GouraudWithEdges
350
1000007
  3
Hidden
350
100000A
  3
JitterOff
350
1000014
  3
Linepattern
350
1000011
  3
OverhangOff
350
1000015
  3
Realistic
350
100000C
  3
Shaded
350
100001B
  3
Shaded with edges
350
100001A
  3
Shades of Gray
350
1000017
  3
Sketchy
350
1000018
  3
Thicken
350
1000010
  3
Wireframe
350
1000009
  3
X-Ray
350
1000019
  0
DICTIONARY
  5
1000034
102
{ACAD_REACTORS
330
50F
102
}
330
50F
100
AcDbDictionary
281
     1
  3
CANNOSCALE
350
1000038
  3
CMLEADERSTYLE
350
1000036
  3
CTABLESTYLE
350
1000035
  3
MSLTSCALE
350
1000037
  0
LAYOUT
  5
40
330
511
100
AcDbPlotSettings
  1

  2

  4

  6

 40
0.0
 41
0.0
 42
0.0
 43
0.0
 44
0.0
 45
0.0
 46
0.0
 47
0.0
 48
0.0
 49
0.0
140
0.0
141
0.0
142
1.0
143
1.0
 70
   688
 72
     1
 73
     0
 74
     5
  7

 75
     0
 76
     0
 77
     2
 78
   300
147
1.0
148
0.0
149
0.0
100
AcDbLayout
  1
Layout
 70
     1
 71
     1
 10
0.0
 20
0.0
 11
420.0
 21
297.0
 12
0.0
 22
0.0
 32
0.0
 14
1.000000000000000E+20
 24
1.000000000000000E+20
 34
1.000000000000000E+20
 15
-1.000000000000000E+20
 25
-1.000000000000000E+20
 35
-1.000000000000000E+20
146
0.0
 13
0.0
 23
0.0
 33
0.0
 16
1.0
 26
0.0
 36
0.0
 17
0.0
 27
1.0
 37
0.0
 76
     0
330
3F
  0
LAYOUT
  5
3E
330
511
100
AcDbPlotSettings
  1

  2

  4

  6

 40
0.0
 41
0.0
 42
0.0
 43
0.0
 44
0.0
 45
0.0
 46
0.0
 47
0.0
 48
0.0
 49
0.0
140
0.0
141
0.0
142
1.0
143
1.0
 70
  1712
 72
     1
 73
     0
 74
     0
  7

 75
     0
 76
     0
 77
     2
 78
   300
147
1.0
148
0.0
149
0.0
100
AcDbLayout
  1
Model
 70
     1
 71
     0
 10
0.0
 20
0.0
 11
12.0
 21
9.0
 12
0.0
 22
0.0
 32
0.0
 14
0.0
 24
0.0
 34
0.0
 15
0.0
 25
0.0
 35
0.0
146
0.0
 13
0.0
 23
0.0
 33
0.0
 16
1.0
 26
0.0
 36
0.0
 17
0.0
 27
1.0
 37
0.0
 76
     0
330
3D
331
2
  0
MATERIAL
  5
1000001
102
{ACAD_REACTORS
330
FFFFFF
102
}
330
FFFFFF
100
AcDbMaterial
  1
ByBlock
 72
     0
 73
     2
 77
     0
 78
     2
171
     0
172
     2
175
     0
176
     2
179
     0
270
     2
274
     2
 94
      127
  0
MATERIAL
  5
1000000
102
{ACAD_REACTORS
330
FFFFFF
102
}
330
FFFFFF
100
AcDbMaterial
  1
ByLayer
 72
     0
 73
     2
 77
     0
 78
     2
171
     0
172
     2
175
     0
176
     2
179
     0
270
     2
274
     2
 94
      127
  0
MATERIAL
  5
1000002
102
{ACAD_REACTORS
330
FFFFFF
102
}
330
FFFFFF
100
AcDbMaterial
  1
Global
 72
     0
 73
     2
 77
     0
 78
     2
171
     0
172
     2
175
     0
176
     2
179
     0
270
     2
274
     2
 94
      127
  0
MLEADERSTYLE
  5
1000020
102
{ACAD_REACTORS
330
100001F
102
}
330
100001F
100
AcDbMLeaderStyle
179
     2
170
     2
171
     1
172
     0
 90
        2
 40
0.0
 41
0.0
173
     1
 91
-1056964608
340
4
 92
       -2
290
     1
 42
0.4
291
     1
 43
2.0
  3
Standard
 44
0.18
300

342
34
174
     1
178
     1
175
     1
176
     0
 93
-1056964608
 45
0.2
292
     0
297
     0
 46
5.0
 94
-1056964608
 47
1.0
 49
1.0
140
1.0
293
     1
141
0.0
294
     1
177
     0
142
1.0
295
     0
296
     0
143
0.125
271
     0
272
     9
273
     9
298
     0
  0
MLINESTYLE
  5
7
330
512
100
AcDbMlineStyle
  2
L_0_02
 70
     0
  3

 62
   256
 51
90.0
 52
90.0
 71
     1
 49
0.0
 62
   256
  6
CONTINUOUS
  0
MLINESTYLE
  5
D
330
512
100
AcDbMlineStyle
  2
L_0_E3
 70
     0
  3

 62
   256
 51
90.0
 52
90.0
 71
     2
 49
0.0
 62
   256
  6
CONTINUOUS
 49
-0.5
 62
   256
  6
L_0_E3_00
  0
MLINESTYLE
  5
515
102
{ACAD_REACTORS
330
512
102
}
330
512
100
AcDbMlineStyle
  2
Standard
 70
     0
  3

 62
   256
 51
90.0
 52
90.0
 71
     2
 49
0.5
 62
   256
  6
BYLAYER
 49
-0.5
 62
   256
  6
BYLAYER
  0
ACDBPLACEHOLDER
  5
12
330
514
  0
SCALE
  5
1000022
102
{ACAD_REACTORS
330
1000021
102
}
330
1000021
100
AcDbScale
 70
     0
300
1:1
140
1.0
141
1.0
290
     1
  0
SCALE
  5
1000023
102
{ACAD_REACTORS
330
1000021
102
}
330
1000021
100
AcDbScale
 70
     0
300
1:2
140
1.0
141
2.0
290
     0
  0
SCALE
  5
1000024
102
{ACAD_REACTORS
330
1000021
102
}
330
1000021
100
AcDbScale
 70
     0
300
1:4
140
1.0
141
4.0
290
     0
  0
SCALE
  5
1000025
102
{ACAD_REACTORS
330
1000021
102
}
330
1000021
100
AcDbScale
 70
     0
300
1:5
140
1.0
141
5.0
290
     0
  0
SCALE
  5
1000026
102
{ACAD_REACTORS
330
1000021
102
}
330
1000021
100
AcDbScale
 70
     0
300
1:8
140
1.0
141
8.0
290
     0
  0
SCALE
  5
1000027
102
{ACAD_REACTORS
330
1000021
102
}
330
1000021
100
AcDbScale
 70
     0
300
1:10
140
1.0
141
10.0
290
     0
  0
SCALE
  5
1000028
102
{ACAD_REACTORS
330
1000021
102
}
330
1000021
100
AcDbScale
 70
     0
300
1:16
140
1.0
141
16.0
290
     0
  0
SCALE
  5
1000029
102
{ACAD_REACTORS
330
1000021
102
}
330
1000021
100
AcDbScale
 70
     0
300
1:20
140
1.0
141
20.0
290
     0
  0
SCALE
  5
100002A
102
{ACAD_REACTORS
330
1000021
102
}
330
1000021
100
AcDbScale
 70
     0
300
1:30
140
1.0
141
30.0
290
     0
  0
SCALE
  5
100002B
102
{ACAD_REACTORS
330
1000021
102
}
330
1000021
100
AcDbScale
 70
     0
300
1:40
140
1.0
141
40.0
290
     0
  0
SCALE
  5
100002C
102
{ACAD_REACTORS
330
1000021
102
}
330
1000021
100
AcDbScale
 70
     0
300
1:50
140
1.0
141
50.0
290
     0
  0
SCALE
  5
100002D
102
{ACAD_REACTORS
330
1000021
102
}
330
1000021
100
AcDbScale
 70
     0
300
1:100
140
1.0
141
100.0
290
     0
  0
SCALE
  5
100002E
102
{ACAD_REACTORS
330
1000021
102
}
330
1000021
100
AcDbScale
 70
     0
300
2:1
140
2.0
141
1.0
290
     0
  0
SCALE
  5
100002F
102
{ACAD_REACTORS
330
1000021
102
}
330
1000021
100
AcDbScale
 70
     0
300
4:1
140
4.0
141
1.0
290
     0
  0
SCALE
  5
1000030
102
{ACAD_REACTORS
330
1000021
102
}
330
1000021
100
AcDbScale
 70
     0
300
8:1
140
8.0
141
1.0
290
     0
  0
SCALE
  5
1000031
102
{ACAD_REACTORS
330
1000021
102
}
330
1000021
100
AcDbScale
 70
     0
300
10:1
140
10.0
141
1.0
290
     0
  0
SCALE
  5
1000032
102
{ACAD_REACTORS
330
1000021
102
}
330
1000021
100
AcDbScale
 70
     0
300
100:1
140
100.0
141
1.0
290
     0
  0
TABLESTYLE
  5
100001E
102
{ACAD_REACTORS
330
100001D
102
}
330
100001D
100
AcDbTableStyle
  3
Standard
 70
     0
 71
     0
 40
0.06
 41
0.06
280
     0
281
     0
  7
STANDARD
140
0.18
170
     2
 62
     7
 63
   257
283
     0
 90
        4
 91
        0
  1

274
    -2
284
     1
 64
     0
275
    -2
285
     1
 65
     0
276
    -2
286
     1
 66
     0
277
    -2
287
     1
 67
     0
278
    -2
288
     1
 68
     0
279
    -2
289
     1
 69
     0
  7
STANDARD
140
0.25
170
     5
 62
     7
 63
   257
283
     0
 90
        4
 91
        0
  1

274
    -2
284
     1
 64
     0
275
    -2
285
     1
 65
     0
276
    -2
286
     1
 66
     0
277
    -2
287
     1
 67
     0
278
    -2
288
     1
 68
     0
279
    -2
289
     1
 69
     0
  7
STANDARD
140
0.18
170
     5
 62
     7
 63
   257
283
     0
 90
        4
 91
        0
  1

274
    -2
284
     1
 64
     0
275
    -2
285
     1
 65
     0
276
    -2
286
     1
 66
     0
277
    -2
287
     1
 67
     0
278
    -2
288
     1
 68
     0
279
    -2
289
     1
 69
     0
  0
VISUALSTYLE
  5
1000008
102
{ACAD_REACTORS
330
1000003
102
}
330
1000003
100
AcDbVisualStyle
  2
2dWireframe
 70
     4
177
     3
291
     0
 70
    58
 90
        0
176
     1
 90
        2
176
     1
 90
        0
176
     1
 90
        0
176
     1
 40
0.6
176
     1
 40
30.0
176
     1
 62
     7
420
 16777215
176
     1
 90
        1
176
     1
 90
        4
176
     1
 62
     7
176
     1
 62
   257
176
     1
 90
        1
176
     1
 90
        1
176
     1
 40
1.0
176
     1
 90
        0
176
     1
 62
   257
176
     1
 40
1.0
176
     1
 90
        1
176
     1
 90
        6
176
     1
 90
        2
176
     1
 62
     7
176
     1
 90
        5
176
     1
 90
        0
176
     1
 90
        0
176
     1
290
     0
176
     1
 90
        1
176
     1
 40
0.0
176
     1
 90
        0
176
     1
290
     1
176
     1
290
     1
176
     1
290
     0
176
     1
290
     0
176
     1
290
     0
176
     1
290
     0
176
     1
290
     0
176
     1
290
     0
176
     1
290
     0
176
     1
 90
       50
176
     1
 40
0.0
176
     1
 40
1.0
176
     1
 90
        0
176
     1
 62
    18
420
        0
176
     1
 90
       50
176
     1
 90
        3
176
     1
 62
     5
420
      255
176
     1
290
     0
176
     1
 90
       50
176
     1
 90
       50
176
     1
 90
       50
176
     1
290
     0
176
     1
 90
       50
176
     1
 62
   256
176
     0
 40
1.0
176
     0
 90
        2
176
     1
  1
strokes_ogs.tif
176
     1
290
     0
176
     1
 40
1.0
176
     1
 40
1.0
176
     1
  0
VISUALSTYLE
  5
100000B
102
{ACAD_REACTORS
330
1000003
102
}
330
1000003
100
AcDbVisualStyle
  2
Basic
 70
     7
177
     3
291
     1
 70
    58
 90
        1
176
     1
 90
        0
176
     1
 90
        1
176
     1
 90
        0
176
     1
 40
0.6
176
     1
 40
30.0
176
     1
 62
     7
420
 16777215
176
     1
 90
        0
176
     1
 90
        4
176
     1
 62
     7
176
     1
 62
   257
176
     1
 90
        1
176
     1
 90
        1
176
     1
 40
1.0
176
     1
 90
        8
176
     1
 62
     7
176
     1
 40
1.0
176
     1
 90
        1
176
     1
 90
        6
176
     1
 90
        2
176
     1
 62
     7
176
     1
 90
        5
176
     1
 90
        0
176
     1
 90
        0
176
     1
290
     0
176
     1
 90
        1
176
     1
 40
0.0
176
     1
 90
        0
176
     1
290
     0
176
     1
290
     1
176
     1
290
     1
176
     1
290
     0
176
     1
290
     0
176
     1
290
     0
176
     1
290
     0
176
     1
290
     0
176
     1
290
     0
176
     1
 90
       50
176
     1
 40
0.0
176
     1
 40
1.0
176
     1
 90
        0
176
     1
 62
    18
420
        0
176
     1
 90
       50
176
     1
 90
        3
176
     1
 62
     5
420
      255
176
     1
290
     0
176
     1
 90
       50
176
     1
 90
       50
176
     1
 90
       50
176
     1
290
     0
176
     1
 90
       50
176
     1
 62
   256
176
     0
 40
1.0
176
     0
 90
        2
176
     1
  1
strokes_ogs.tif
176
     1
290
     0
176
     1
 40
1.0
176
     1
 40
1.0
176
     1
  0
VISUALSTYLE
  5
100000F
102
{ACAD_REACTORS
330
1000003
102
}
330
1000003
100
AcDbVisualStyle
  2
Brighten
 70
    12
177
     3
291
     1
 70
    58
 90
        2
176
     1
 90
        2
176
     1
 90
        0
176
     1
 90
        0
176
     1
 40
0.6
176
     1
 40
30.0
176
     1
 62
     7
420
 16777215
176
     1
 90
        1
176
     1
 90
        4
176
     1
 62
     7
176
     1
 62
   257
176
     1
 90
        1
176
     1
 90
        1
176
     1
 40
1.0
176
     1
 90
        8
176
     1
 62
     7
176
     1
 40
1.0
176
     1
 90
        1
176
     1
 90
        6
176
     1
 90
        2
176
     1
 62
     7
176
     1
 90
        5
176
     1
 90
        0
176
     1
 90
        0
176
     1
290
     0
176
     1
 90
        1
176
     1
 40
50.0
176
     1
 90
        0
176
     1
290
     0
176
     1
290
     1
176
     1
290
     1
176
     1
290
     0
176
     1
290
     0
176
     1
290
     0
176
     1
290
     0
176
     1
290
     0
176
     1
290
     0
176
     1
 90
       50
176
     1
 40
0.0
176
     1
 40
1.0
176
     1
 90
        0
176
     1
 62
    18
420
        0
176
     1
 90
       50
176
     1
 90
        3
176
     1
 62
     5
420
      255
176
     1
290
     0
176
     1
 90
       50
176
     1
 90
       50
176
     1
 90
       50
176
     1
290
     0
176
     1
 90
       50
176
     1
 62
   256
176
     0
 40
1.0
176
     0
 90
        2
176
     1
  1
strokes_ogs.tif
176
     1
290
     0
176
     1
 40
1.0
176
     1
 40
1.0
176
     1
  0
VISUALSTYLE
  5
1000013
102
{ACAD_REACTORS
330
1000003
102
}
330
1000003
100
AcDbVisualStyle
  2
ColorChange
 70
    16
177
     3
291
     1
 70
    58
 90
        2
176
     1
 90
        2
176
     1
 90
        3
176
     1
 90
        0
176
     1
 40
0.6
176
     1
 40
30.0
176
     1
 62
     8
420
  8421504
176
     1
 90
        1
176
     1
 90
        4
176
     1
 62
     7
176
     1
 62
   257
176
     1
 90
        1
176
     1
 90
        1
176
     1
 40
1.0
176
     1
 90
        8
176
     1
 62
     8
420
  8421504
176
     1
 40
1.0
176
     1
 90
        1
176
     1
 90
        6
176
     1
 90
        2
176
     1
 62
     7
176
     1
 90
        5
176
     1
 90
        0
176
     1
 90
        0
176
     1
290
     0
176
     1
 90
        1
176
     1
 40
0.0
176
     1
 90
        0
176
     1
290
     0
176
     1
290
     1
176
     1
290
     1
176
     1
290
     0
176
     1
290
     0
176
     1
290
     0
176
     1
290
     0
176
     1
290
     0
176
     1
290
     0
176
     1
 90
       50
176
     1
 40
0.0
176
     1
 40
1.0
176
     1
 90
        0
176
     1
 62
    18
420
        0
176
     1
 90
       50
176
     1
 90
        3
176
     1
 62
     5
420
      255
176
     1
290
     0
176
     1
 90
       50
176
     1
 90
       50
176
     1
 90
       50
176
     1
290
     0
176
     1
 90
       50
176
     1
 62
   256
176
     0
 40
1.0
176
     0
 90
        2
176
     1
  1
strokes_ogs.tif
176
     1
290
     0
176
     1
 40
1.0
176
     1
 40
1.0
176
     1
  0
VISUALSTYLE
  5
100000D
102
{ACAD_REACTORS
330
1000003
102
}
330
1000003
100
AcDbVisualStyle
  2
Conceptual
 70
     9
177
     3
291
     0
 70
    58
 90
        3
176
     1
 90
        2
176
     1
 90
        0
176
     1
 90
        0
176
     1
 40
0.6
176
     1
 40
30.0
176
     1
 62
     7
420
 16777215
176
     1
 90
        2
176
     1
 90
        2
176
     1
 62
     7
176
     1
 62
   257
176
     1
 90
        1
176
     1
 90
        1
176
     1
 40
179.0
176
     1
 90
        8
176
     1
 62
     7
176
     1
 40
1.0
176
     1
 90
        1
176
     1
 90
        6
176
     1
 90
        2
176
     1
 62
     7
176
     1
 90
        3
176
     1
 90
        0
176
     1
 90
        0
176
     1
290
     0
176
     1
 90
        1
176
     1
 40
0.0
176
     1
 90
        0
176
     1
290
     0
176
     1
290
     1
176
     1
290
     1
176
     1
290
     0
176
     1
290
     0
176
     1
290
     0
176
     1
290
     0
176
     1
290
     0
176
     1
290
     0
176
     1
 90
       50
176
     1
 40
0.0
176
     1
 40
1.0
176
     1
 90
        0
176
     1
 62
    18
420
        0
176
     1
 90
       50
176
     1
 90
        3
176
     1
 62
     5
420
      255
176
     1
290
     0
176
     1
 90
       50
176
     1
 90
       50
176
     1
 90
       50
176
     1
290
     0
176
     1
 90
       50
176
     1
 62
   256
176
     0
 40
1.0
176
     0
 90
        2
176
     1
  1
strokes_ogs.tif
176
     1
290
     0
176
     1
 40
1.0
176
     1
 40
1.0
176
     1
  0
VISUALSTYLE
  5
100000E
102
{ACAD_REACTORS
330
1000003
102
}
330
1000003
100
AcDbVisualStyle
  2
Dim
 70
    11
177
     3
291
     1
 70
    58
 90
        2
176
     1
 90
        2
176
     1
 90
        0
176
     1
 90
        0
176
     1
 40
0.6
176
     1
 40
30.0
176
     1
 62
     7
420
 16777215
176
     1
 90
        1
176
     1
 90
        4
176
     1
 62
     7
176
     1
 62
   257
176
     1
 90
        1
176
     1
 90
        1
176
     1
 40
1.0
176
     1
 90
        8
176
     1
 62
     7
176
     1
 40
1.0
176
     1
 90
        1
176
     1
 90
        6
176
     1
 90
        2
176
     1
 62
     7
176
     1
 90
        5
176
     1
 90
        0
176
     1
 90
        0
176
     1
290
     0
176
     1
 90
        1
176
     1
 40
-50.0
176
     1
 90
        0
176
     1
290
     0
176
     1
290
     1
176
     1
290
     1
176
     1
290
     0
176
     1
290
     0
176
     1
290
     0
176
     1
290
     0
176
     1
290
     0
176
     1
290
     0
176
     1
 90
       50
176
     1
 40
0.0
176
     1
 40
1.0
176
     1
 90
        0
176
     1
 62
    18
420
        0
176
     1
 90
       50
176
     1
 90
        3
176
     1
 62
     5
420
      255
176
     1
290
     0
176
     1
 90
       50
176
     1
 90
       50
176
     1
 90
       50
176
     1
290
     0
176
     1
 90
       50
176
     1
 62
   256
176
     0
 40
1.0
176
     0
 90
        2
176
     1
  1
strokes_ogs.tif
176
     1
290
     0
176
     1
 40
1.0
176
     1
 40
1.0
176
     1
  0
VISUALSTYLE
  5
1000016
102
{ACAD_REACTORS
330
1000003
102
}
330
1000003
100
AcDbVisualStyle
  2
EdgeColorOff
 70
    22
177
     3
291
     1
 70
    58
 90
        2
176
     0
 90
        2
176
     0
 90
        0
176
     0
 90
        0
176
     0
 40
0.6
176
     0
 40
30.0
176
     0
 62
     7
420
 16777215
176
     0
 90
        1
176
     0
 90
        4
176
     0
 62
     7
176
     0
 62
   257
176
     0
 90
        1
176
     0
 90
        1
176
     0
 40
1.0
176
     0
 90
        8
176
     2
 62
     7
176
     0
 40
1.0
176
     0
 90
        1
176
     0
 90
        6
176
     0
 90
        2
176
     0
 62
     7
176
     0
 90
        5
176
     0
 90
        0
176
     0
 90
        0
176
     0
290
     0
176
     0
 90
        1
176
     0
 40
0.0
176
     0
 90
        0
176
     0
290
     0
176
     0
290
     1
176
     0
290
     1
176
     0
290
     0
176
     0
290
     0
176
     0
290
     0
176
     0
290
     0
176
     0
290
     0
176
     0
290
     0
176
     0
 90
       50
176
     0
 40
0.0
176
     0
 40
1.0
176
     0
 90
        0
176
     0
 62
    18
420
        0
176
     0
 90
       50
176
     0
 90
        3
176
     0
 62
     5
420
      255
176
     0
290
     0
176
     0
 90
       50
176
     0
 90
       50
176
     0
 90
       50
176
     0
290
     0
176
     0
 90
       50
176
     0
 62
   256
176
     0
 40
1.0
176
     0
 90
        2
176
     0
  1
strokes_ogs.tif
176
     0
290
     0
176
     0
 40
1.0
176
     0
 40
1.0
176
     0
  0
VISUALSTYLE
  5
1000012
102
{ACAD_REACTORS
330
1000003
102
}
330
1000003
100
AcDbVisualStyle
  2
Facepattern
 70
    15
177
     3
291
     1
 70
    58
 90
        2
176
     1
 90
        2
176
     1
 90
        0
176
     1
 90
        0
176
     1
 40
0.6
176
     1
 40
30.0
176
     1
 62
     7
420
 16777215
176
     1
 90
        1
176
     1
 90
        4
176
     1
 62
     7
176
     1
 62
   257
176
     1
 90
        1
176
     1
 90
        1
176
     1
 40
1.0
176
     1
 90
        8
176
     1
 62
     7
176
     1
 40
1.0
176
     1
 90
        1
176
     1
 90
        6
176
     1
 90
        2
176
     1
 62
     7
176
     1
 90
        5
176
     1
 90
        0
176
     1
 90
        0
176
     1
290
     0
176
     1
 90
        1
176
     1
 40
0.0
176
     1
 90
        0
176
     1
290
     0
176
     1
290
     1
176
     1
290
     1
176
     1
290
     0
176
     1
290
     0
176
     1
290
     0
176
     1
290
     0
176
     1
290
     0
176
     1
290
     0
176
     1
 90
       50
176
     1
 40
0.0
176
     1
 40
1.0
176
     1
 90
        0
176
     1
 62
    18
420
        0
176
     1
 90
       50
176
     1
 90
        3
176
     1
 62
     5
420
      255
176
     1
290
     0
176
     1
 90
       50
176
     1
 90
       50
176
     1
 90
       50
176
     1
290
     0
176
     1
 90
       50
176
     1
 62
   256
176
     0
 40
1.0
176
     0
 90
        2
176
     1
  1
strokes_ogs.tif
176
     1
290
     0
176
     1
 40
1.0
176
     1
 40
1.0
176
     1
  0
VISUALSTYLE
  5
1000004
102
{ACAD_REACTORS
330
1000003
102
}
330
1000003
100
AcDbVisualStyle
  2
Flat
 70
     0
177
     3
291
     1
 70
    58
 90
        2
176
     1
 90
        1
176
     1
 90
        1
176
     1
 90
        2
176
     1
 40
0.6
176
     1
 40
30.0
176
     1
 62
     7
420
 16777215
176
     1
 90
        0
176
     1
 90
        0
176
     1
 62
     7
176
     1
 62
   257
176
     1
 90
        1
176
     1
 90
        1
176
     1
 40
1.0
176
     1
 90
        8
176
     1
 62
     7
176
     1
 40
1.0
176
     1
 90
        1
176
     1
 90
        6
176
     1
 90
        2
176
     1
 62
     7
176
     1
 90
        5
176
     1
 90
        0
176
     1
 90
        0
176
     1
290
     0
176
     1
 90
       13
176
     1
 40
0.0
176
     1
 90
        0
176
     1
290
     0
176
     1
290
     1
176
     1
290
     1
176
     1
290
     0
176
     1
290
     0
176
     1
290
     0
176
     1
290
     0
176
     1
290
     0
176
     1
290
     0
176
     1
 90
       50
176
     1
 40
0.0
176
     1
 40
1.0
176
     1
 90
        0
176
     1
 62
    18
420
        0
176
     1
 90
       50
176
     1
 90
        3
176
     1
 62
     5
420
      255
176
     1
290
     0
176
     1
 90
       50
176
     1
 90
       50
176
     1
 90
       50
176
     1
290
     0
176
     1
 90
       50
176
     1
 62
   256
176
     0
 40
1.0
176
     0
 90
        2
176
     1
  1
strokes_ogs.tif
176
     1
290
     0
176
     1
 40
1.0
176
     1
 40
1.0
176
     1
  0
VISUALSTYLE
  5
1000005
102
{ACAD_REACTORS
330
1000003
102
}
330
1000003
100
AcDbVisualStyle
  2
FlatWithEdges
 70
     1
177
     3
291
     1
 70
    58
 90
        2
176
     1
 90
        1
176
     1
 90
        1
176
     1
 90
        2
176
     1
 40
0.6
176
     1
 40
30.0
176
     1
 62
     7
420
 16777215
176
     1
 90
        1
176
     1
 90
        0
176
     1
 62
     7
176
     1
 62
   257
176
     1
 90
        1
176
     1
 90
        1
176
     1
 40
1.0
176
     1
 90
        0
176
     1
 62
   257
176
     1
 40
1.0
176
     1
 90
        1
176
     1
 90
        6
176
     1
 90
        2
176
     1
 62
     7
176
     1
 90
        5
176
     1
 90
        0
176
     1
 90
        0
176
     1
290
     0
176
     1
 90
       13
176
     1
 40
0.0
176
     1
 90
        0
176
     1
290
     0
176
     1
290
     1
176
     1
290
     1
176
     1
290
     0
176
     1
290
     0
176
     1
290
     0
176
     1
290
     0
176
     1
290
     0
176
     1
290
     0
176
     1
 90
       50
176
     1
 40
0.0
176
     1
 40
1.0
176
     1
 90
        0
176
     1
 62
    18
420
        0
176
     1
 90
       50
176
     1
 90
        3
176
     1
 62
     5
420
      255
176
     1
290
     0
176
     1
 90
       50
176
     1
 90
       50
176
     1
 90
       50
176
     1
290
     0
176
     1
 90
       50
176
     1
 62
   256
176
     0
 40
1.0
176
     0
 90
        2
176
     1
  1
strokes_ogs.tif
176
     1
290
     0
176
     1
 40
1.0
176
     1
 40
1.0
176
     1
  0
VISUALSTYLE
  5
1000006
102
{ACAD_REACTORS
330
1000003
102
}
330
1000003
100
AcDbVisualStyle
  2
Gouraud
 70
     2
177
     3
291
     1
 70
    58
 90
        2
176
     1
 90
        2
176
     1
 90
        1
176
     1
 90
        2
176
     1
 40
0.6
176
     1
 40
30.0
176
     1
 62
     7
420
 16777215
176
     1
 90
        0
176
     1
 90
        0
176
     1
 62
     7
176
     1
 62
   257
176
     1
 90
        1
176
     1
 90
        1
176
     1
 40
1.0
176
     1
 90
        0
176
     1
 62
     7
176
     1
 40
1.0
176
     1
 90
        1
176
     1
 90
        6
176
     1
 90
        2
176
     1
 62
     7
176
     1
 90
        5
176
     1
 90
        0
176
     1
 90
        0
176
     1
290
     0
176
     1
 90
       13
176
     1
 40
0.0
176
     1
 90
        0
176
     1
290
     0
176
     1
290
     1
176
     1
290
     1
176
     1
290
     0
176
     1
290
     0
176
     1
290
     0
176
     1
290
     0
176
     1
290
     0
176
     1
290
     0
176
     1
 90
       50
176
     1
 40
0.0
176
     1
 40
1.0
176
     1
 90
        0
176
     1
 62
    18
420
        0
176
     1
 90
       50
176
     1
 90
        3
176
     1
 62
     5
420
      255
176
     1
290
     0
176
     1
 90
       50
176
     1
 90
       50
176
     1
 90
       50
176
     1
290
     0
176
     1
 90
       50
176
     1
 62
   256
176
     0
 40
1.0
176
     0
 90
        2
176
     1
  1
strokes_ogs.tif
176
     1
290
     0
176
     1
 40
1.0
176
     1
 40
1.0
176
     1
  0
VISUALSTYLE
  5
1000007
102
{ACAD_REACTORS
330
1000003
102
}
330
1000003
100
AcDbVisualStyle
  2
GouraudWithEdges
 70
     3
177
     3
291
     1
 70
    58
 90
        2
176
     1
 90
        2
176
     1
 90
        1
176
     1
 90
        2
176
     1
 40
0.6
176
     1
 40
30.0
176
     1
 62
     7
420
 16777215
176
     1
 90
        1
176
     1
 90
        0
176
     1
 62
     7
176
     1
 62
   257
176
     1
 90
        1
176
     1
 90
        1
176
     1
 40
1.0
176
     1
 90
        0
176
     1
 62
   257
176
     1
 40
1.0
176
     1
 90
        1
176
     1
 90
        6
176
     1
 90
        2
176
     1
 62
     7
176
     1
 90
        5
176
     1
 90
        0
176
     1
 90
        0
176
     1
290
     0
176
     1
 90
       13
176
     1
 40
0.0
176
     1
 90
        0
176
     1
290
     0
176
     1
290
     1
176
     1
290
     1
176
     1
290
     0
176
     1
290
     0
176
     1
290
     0
176
     1
290
     0
176
     1
290
     0
176
     1
290
     0
176
     1
 90
       50
176
     1
 40
0.0
176
     1
 40
1.0
176
     1
 90
        0
176
     1
 62
    18
420
        0
176
     1
 90
       50
176
     1
 90
        3
176
     1
 62
     5
420
      255
176
     1
290
     0
176
     1
 90
       50
176
     1
 90
       50
176
     1
 90
       50
176
     1
290
     0
176
     1
 90
       50
176
     1
 62
   256
176
     0
 40
1.0
176
     0
 90
        2
176
     1
  1
strokes_ogs.tif
176
     1
290
     0
176
     1
 40
1.0
176
     1
 40
1.0
176
     1
  0
VISUALSTYLE
  5
100000A
102
{ACAD_REACTORS
330
1000003
102
}
330
1000003
100
AcDbVisualStyle
  2
Hidden
 70
     6
177
     3
291
     0
 70
    58
 90
        1
176
     1
 90
        2
176
     1
 90
        2
176
     1
 90
        0
176
     1
 40
0.6
176
     1
 40
30.0
176
     1
 62
     7
420
 16777215
176
     1
 90
        2
176
     1
 90
        2
176
     1
 62
     7
176
     1
 62
   257
176
     1
 90
        2
176
     1
 90
        1
176
     1
 40
40.0
176
     1
 90
        0
176
     1
 62
   257
176
     1
 40
1.0
176
     1
 90
        1
176
     1
 90
        6
176
     1
 90
        2
176
     1
 62
     7
176
     1
 90
        3
176
     1
 90
        0
176
     1
 90
        0
176
     1
290
     0
176
     1
 90
        1
176
     1
 40
0.0
176
     1
 90
        0
176
     1
290
     0
176
     1
290
     1
176
     1
290
     1
176
     1
290
     0
176
     1
290
     0
176
     1
290
     0
176
     1
290
     0
176
     1
290
     0
176
     1
290
     0
176
     1
 90
       50
176
     1
 40
0.0
176
     1
 40
1.0
176
     1
 90
        0
176
     1
 62
    18
420
        0
176
     1
 90
       50
176
     1
 90
        3
176
     1
 62
     5
420
      255
176
     1
290
     0
176
     1
 90
       50
176
     1
 90
       50
176
     1
 90
       50
176
     1
290
     0
176
     1
 90
       50
176
     1
 62
   256
176
     0
 40
1.0
176
     0
 90
        2
176
     1
  1
strokes_ogs.tif
176
     1
290
     0
176
     1
 40
1.0
176
     1
 40
1.0
176
     1
  0
VISUALSTYLE
  5
1000014
102
{ACAD_REACTORS
330
1000003
102
}
330
1000003
100
AcDbVisualStyle
  2
JitterOff
 70
    20
177
     3
291
     1
 70
    58
 90
        2
176
     0
 90
        2
176
     0
 90
        0
176
     0
 90
        0
176
     0
 40
0.6
176
     0
 40
30.0
176
     0
 62
     7
420
 16777215
176
     0
 90
        1
176
     0
 90
        4
176
     0
 62
     7
176
     0
 62
   257
176
     0
 90
        1
176
     0
 90
        1
176
     0
 40
1.0
176
     0
 90
       10
176
     2
 62
     7
176
     0
 40
1.0
176
     0
 90
        1
176
     0
 90
        6
176
     0
 90
        2
176
     0
 62
     7
176
     0
 90
        5
176
     0
 90
        0
176
     0
 90
        0
176
     0
290
     0
176
     0
 90
        1
176
     0
 40
0.0
176
     0
 90
        0
176
     0
290
     0
176
     0
290
     1
176
     0
290
     1
176
     0
290
     0
176
     0
290
     0
176
     0
290
     0
176
     0
290
     0
176
     0
290
     0
176
     0
290
     0
176
     0
 90
       50
176
     0
 40
0.0
176
     0
 40
1.0
176
     0
 90
        0
176
     0
 62
    18
420
        0
176
     0
 90
       50
176
     0
 90
        3
176
     0
 62
     5
420
      255
176
     0
290
     0
176
     0
 90
       50
176
     0
 90
       50
176
     0
 90
       50
176
     0
290
     0
176
     0
 90
       50
176
     0
 62
   256
176
     0
 40
1.0
176
     0
 90
        2
176
     0
  1
strokes_ogs.tif
176
     0
290
     0
176
     0
 40
1.0
176
     0
 40
1.0
176
     0
  0
VISUALSTYLE
  5
1000011
102
{ACAD_REACTORS
330
1000003
102
}
330
1000003
100
AcDbVisualStyle
  2
Linepattern
 70
    14
177
     3
291
     1
 70
    58
 90
        2
176
     1
 90
        2
176
     1
 90
        0
176
     1
 90
        0
176
     1
 40
0.6
176
     1
 40
30.0
176
     1
 62
     7
420
 16777215
176
     1
 90
        1
176
     1
 90
        4
176
     1
 62
     7
176
     1
 62
   257
176
     1
 90
        7
176
     1
 90
        7
176
     1
 40
1.0
176
     1
 90
        8
176
     1
 62
     7
176
     1
 40
1.0
176
     1
 90
        1
176
     1
 90
        6
176
     1
 90
        2
176
     1
 62
     7
176
     1
 90
        5
176
     1
 90
        0
176
     1
 90
        0
176
     1
290
     0
176
     1
 90
        1
176
     1
 40
0.0
176
     1
 90
        0
176
     1
290
     0
176
     1
290
     1
176
     1
290
     1
176
     1
290
     0
176
     1
290
     0
176
     1
290
     0
176
     1
290
     0
176
     1
290
     0
176
     1
290
     0
176
     1
 90
       50
176
     1
 40
0.0
176
     1
 40
1.0
176
     1
 90
        0
176
     1
 62
    18
420
        0
176
     1
 90
       50
176
     1
 90
        3
176
     1
 62
     5
420
      255
176
     1
290
     0
176
     1
 90
       50
176
     1
 90
       50
176
     1
 90
       50
176
     1
290
     0
176
     1
 90
       50
176
     1
 62
   256
176
     0
 40
1.0
176
     0
 90
        2
176
     1
  1
strokes_ogs.tif
176
     1
290
     0
176
     1
 40
1.0
176
     1
 40
1.0
176
     1
  0
VISUALSTYLE
  5
1000015
102
{ACAD_REACTORS
330
1000003
102
}
330
1000003
100
AcDbVisualStyle
  2
OverhangOff
 70
    21
177
     3
291
     1
 70
    58
 90
        2
176
     0
 90
        2
176
     0
 90
        0
176
     0
 90
        0
176
     0
 40
0.6
176
     0
 40
30.0
176
     0
 62
     7
420
 16777215
176
     0
 90
        1
176
     0
 90
        4
176
     0
 62
     7
176
     0
 62
   257
176
     0
 90
        1
176
     0
 90
        1
176
     0
 40
1.0
176
     0
 90
        9
176
     2
 62
     7
176
     0
 40
1.0
176
     0
 90
        1
176
     0
 90
        6
176
     0
 90
        2
176
     0
 62
     7
176
     0
 90
        5
176
     0
 90
        0
176
     0
 90
        0
176
     0
290
     0
176
     0
 90
        1
176
     0
 40
0.0
176
     0
 90
        0
176
     0
290
     0
176
     0
290
     1
176
     0
290
     1
176
     0
290
     0
176
     0
290
     0
176
     0
290
     0
176
     0
290
     0
176
     0
290
     0
176
     0
290
     0
176
     0
 90
       50
176
     0
 40
0.0
176
     0
 40
1.0
176
     0
 90
        0
176
     0
 62
    18
420
        0
176
     0
 90
       50
176
     0
 90
        3
176
     0
 62
     5
420
      255
176
     0
290
     0
176
     0
 90
       50
176
     0
 90
       50
176
     0
 90
       50
176
     0
290
     0
176
     0
 90
       50
176
     0
 62
   256
176
     0
 40
1.0
176
     0
 90
        2
176
     0
  1
strokes_ogs.tif
176
     0
290
     0
176
     0
 40
1.0
176
     0
 40
1.0
176
     0
  0
VISUALSTYLE
  5
100000C
102
{ACAD_REACTORS
330
1000003
102
}
330
1000003
100
AcDbVisualStyle
  2
Realistic
 70
     8
177
     3
291
     0
 70
    58
 90
        2
176
     1
 90
        3
176
     1
 90
        0
176
     1
 90
        2
176
     1
 40
0.6
176
     1
 40
30.0
176
     1
 62
     7
420
 16777215
176
     1
 90
        0
176
     1
 90
        0
176
     1
 62
     7
176
     1
 62
   257
176
     1
 90
        1
176
     1
 90
        1
176
     1
 40
1.0
176
     1
 90
        8
176
     1
 62
   257
176
     1
 40
1.0
176
     1
 90
        1
176
     1
 90
        6
176
     1
 90
        2
176
     1
 62
     7
176
     1
 90
        3
176
     1
 90
        0
176
     1
 90
        0
176
     1
290
     0
176
     1
 90
       13
176
     1
 40
0.0
176
     1
 90
        0
176
     1
290
     0
176
     1
290
     1
176
     1
290
     1
176
     1
290
     0
176
     1
290
     0
176
     1
290
     0
176
     1
290
     0
176
     1
290
     0
176
     1
290
     0
176
     1
 90
       50
176
     1
 40
0.0
176
     1
 40
1.0
176
     1
 90
        0
176
     1
 62
    18
420
        0
176
     1
 90
       50
176
     1
 90
        3
176
     1
 62
     5
420
      255
176
     1
290
     0
176
     1
 90
       50
176
     1
 90
       50
176
     1
 90
       50
176
     1
290
     0
176
     1
 90
       50
176
     1
 62
   256
176
     0
 40
1.0
176
     0
 90
        2
176
     1
  1
strokes_ogs.tif
176
     1
290
     0
176
     1
 40
1.0
176
     1
 40
1.0
176
     1
  0
VISUALSTYLE
  5
100001B
102
{ACAD_REACTORS
330
1000003
102
}
330
1000003
100
AcDbVisualStyle
  2
Shaded
 70
    27
177
     3
291
     0
 70
    58
 90
        2
176
     1
 90
        2
176
     1
 90
        1
176
     1
 90
        2
176
     1
 40
0.6
176
     1
 40
30.0
176
     1
 62
     7
420
 16777215
176
     1
 90
        0
176
     1
 90
        4
176
     1
 62
     7
176
     1
 62
   257
176
     1
 90
        1
176
     1
 90
        1
176
     1
 40
1.0
176
     1
 90
        8
176
     1
 62
   257
176
     1
 40
1.0
176
     1
 90
        1
176
     1
 90
        6
176
     1
 90
        2
176
     1
 62
     8
420
  7895160
176
     1
 90
        3
176
     1
 90
        0
176
     1
 90
        0
176
     1
290
     0
176
     1
 90
        5
176
     1
 40
0.0
176
     1
 90
        0
176
     1
290
     0
176
     1
290
     1
176
     1
290
     1
176
     1
290
     0
176
     1
290
     0
176
     1
290
     0
176
     1
290
     0
176
     1
290
     0
176
     1
290
     0
176
     1
 90
       50
176
     1
 40
0.0
176
     1
 40
1.0
176
     1
 90
        0
176
     1
 62
    18
420
        0
176
     1
 90
       50
176
     1
 90
        3
176
     1
 62
     5
420
      255
176
     1
290
     0
176
     1
 90
       50
176
     1
 90
       50
176
     1
 90
       50
176
     1
290
     0
176
     1
 90
       50
176
     1
 62
   256
176
     0
 40
1.0
176
     0
 90
        2
176
     1
  1
strokes_ogs.tif
176
     1
290
     0
176
     1
 40
1.0
176
     1
 40
1.0
176
     1
  0
VISUALSTYLE
  5
100001A
102
{ACAD_REACTORS
330
1000003
102
}
330
1000003
100
AcDbVisualStyle
  2
Shaded with edges
 70
    26
177
     3
291
     0
 70
    58
 90
        2
176
     1
 90
        2
176
     1
 90
        1
176
     1
 90
        2
176
     1
 40
0.6
176
     1
 40
30.0
176
     1
 62
     7
420
 16777215
176
     1
 90
        1
176
     1
 90
       10
176
     1
 62
     7
176
     1
 62
   257
176
     1
 90
        2
176
     1
 90
        1
176
     1
 40
1.0
176
     1
 90
        8
176
     1
 62
   257
176
     1
 40
1.0
176
     1
 90
        1
176
     1
 90
        6
176
     1
 90
        2
176
     1
 62
     7
176
     1
 90
        3
176
     1
 90
        0
176
     1
 90
        0
176
     1
290
     0
176
     1
 90
        5
176
     1
 40
0.0
176
     1
 90
        0
176
     1
290
     0
176
     1
290
     1
176
     1
290
     1
176
     1
290
     0
176
     1
290
     0
176
     1
290
     0
176
     1
290
     0
176
     1
290
     0
176
     1
290
     0
176
     1
 90
       50
176
     1
 40
0.0
176
     1
 40
1.0
176
     1
 90
        0
176
     1
 62
    18
420
        0
176
     1
 90
       50
176
     1
 90
        3
176
     1
 62
     5
420
      255
176
     1
290
     0
176
     1
 90
       50
176
     1
 90
       50
176
     1
 90
       50
176
     1
290
     0
176
     1
 90
       50
176
     1
 62
   256
176
     0
 40
1.0
176
     0
 90
        2
176
     1
  1
strokes_ogs.tif
176
     1
290
     0
176
     1
 40
1.0
176
     1
 40
1.0
176
     1
  0
VISUALSTYLE
  5
1000017
102
{ACAD_REACTORS
330
1000003
102
}
330
1000003
100
AcDbVisualStyle
  2
Shades of Gray
 70
    23
177
     3
291
     0
 70
    58
 90
        2
176
     1
 90
        2
176
     1
 90
        3
176
     1
 90
        0
176
     1
 40
0.6
176
     1
 40
30.0
176
     1
 62
     7
420
 16777215
176
     1
 90
        2
176
     1
 90
        2
176
     1
 62
     7
176
     1
 62
     7
176
     1
 90
        1
176
     1
 90
        1
176
     1
 40
40.0
176
     1
 90
        8
176
     1
 62
     7
176
     1
 40
1.0
176
     1
 90
        1
176
     1
 90
        6
176
     1
 90
        2
176
     1
 62
     7
176
     1
 90
        3
176
     1
 90
        0
176
     1
 90
        0
176
     1
290
     0
176
     1
 90
        1
176
     1
 40
0.0
176
     1
 90
        0
176
     1
290
     0
176
     1
290
     1
176
     1
290
     1
176
     1
290
     0
176
     1
290
     0
176
     1
290
     0
176
     1
290
     0
176
     1
290
     0
176
     1
290
     0
176
     1
 90
       50
176
     1
 40
0.0
176
     1
 40
1.0
176
     1
 90
        0
176
     1
 62
    18
420
        0
176
     1
 90
       50
176
     1
 90
        3
176
     1
 62
     5
420
      255
176
     1
290
     0
176
     1
 90
       50
176
     1
 90
       50
176
     1
 90
       50
176
     1
290
     0
176
     1
 90
       50
176
     1
 62
   256
176
     0
 40
1.0
176
     0
 90
        2
176
     1
  1
strokes_ogs.tif
176
     1
290
     0
176
     1
 40
1.0
176
     1
 40
1.0
176
     1
  0
VISUALSTYLE
  5
1000018
102
{ACAD_REACTORS
330
1000003
102
}
330
1000003
100
AcDbVisualStyle
  2
Sketchy
 70
    24
177
     3
291
     0
 70
    58
 90
        1
176
     1
 90
        2
176
     1
 90
        2
176
     1
 90
        0
176
     1
 40
0.6
176
     1
 40
30.0
176
     1
 62
     7
420
 16777215
176
     1
 90
        2
176
     1
 90
        2
176
     1
 62
     7
176
     1
 62
     7
176
     1
 90
        1
176
     1
 90
        1
176
     1
 40
40.0
176
     1
 90
       11
176
     1
 62
     7
176
     1
 40
1.0
176
     1
 90
        1
176
     1
 90
        6
176
     1
 90
        2
176
     1
 62
     7
176
     1
 90
        6
176
     1
 90
        0
176
     1
 90
        0
176
     1
290
     0
176
     1
 90
        1
176
     1
 40
0.0
176
     1
 90
        0
176
     1
290
     0
176
     1
290
     1
176
     1
290
     1
176
     1
290
     0
176
     1
290
     0
176
     1
290
     0
176
     1
290
     0
176
     1
290
     0
176
     1
290
     0
176
     1
 90
       50
176
     1
 40
0.0
176
     1
 40
1.0
176
     1
 90
        0
176
     1
 62
    18
420
        0
176
     1
 90
       50
176
     1
 90
        3
176
     1
 62
     5
420
      255
176
     1
290
     0
176
     1
 90
       50
176
     1
 90
       50
176
     1
 90
       50
176
     1
290
     0
176
     1
 90
       50
176
     1
 62
   256
176
     0
 40
1.0
176
     0
 90
        2
176
     1
  1
strokes_ogs.tif
176
     1
290
     0
176
     1
 40
1.0
176
     1
 40
1.0
176
     1
  0
VISUALSTYLE
  5
1000010
102
{ACAD_REACTORS
330
1000003
102
}
330
1000003
100
AcDbVisualStyle
  2
Thicken
 70
    13
177
     3
291
     1
 70
    58
 90
        2
176
     1
 90
        2
176
     1
 90
        0
176
     1
 90
        0
176
     1
 40
0.6
176
     1
 40
30.0
176
     1
 62
     7
420
 16777215
176
     1
 90
        1
176
     1
 90
        4
176
     1
 62
     7
176
     1
 62
   257
176
     1
 90
        1
176
     1
 90
        1
176
     1
 40
1.0
176
     1
 90
       12
176
     1
 62
     7
176
     1
 40
1.0
176
     1
 90
        1
176
     1
 90
        6
176
     1
 90
        2
176
     1
 62
     7
176
     1
 90
        5
176
     1
 90
        0
176
     1
 90
        0
176
     1
290
     0
176
     1
 90
        1
176
     1
 40
0.0
176
     1
 90
        0
176
     1
290
     0
176
     1
290
     1
176
     1
290
     1
176
     1
290
     0
176
     1
290
     0
176
     1
290
     0
176
     1
290
     0
176
     1
290
     0
176
     1
290
     0
176
     1
 90
       50
176
     1
 40
0.0
176
     1
 40
1.0
176
     1
 90
        0
176
     1
 62
    18
420
        0
176
     1
 90
       50
176
     1
 90
        3
176
     1
 62
     5
420
      255
176
     1
290
     0
176
     1
 90
       50
176
     1
 90
       50
176
     1
 90
       50
176
     1
290
     0
176
     1
 90
       50
176
     1
 62
   256
176
     0
 40
1.0
176
     0
 90
        2
176
     1
  1
strokes_ogs.tif
176
     1
290
     0
176
     1
 40
1.0
176
     1
 40
1.0
176
     1
  0
VISUALSTYLE
  5
1000009
102
{ACAD_REACTORS
330
1000003
102
}
330
1000003
100
AcDbVisualStyle
  2
Wireframe
 70
     5
177
     3
291
     0
 70
    58
 90
        0
176
     1
 90
        2
176
     1
 90
        0
176
     1
 90
        0
176
     1
 40
0.6
176
     1
 40
30.0
176
     1
 62
     7
420
 16777215
176
     1
 90
        1
176
     1
 90
        4
176
     1
 62
     7
176
     1
 62
   257
176
     1
 90
        1
176
     1
 90
        1
176
     1
 40
1.0
176
     1
 90
        0
176
     1
 62
   257
176
     1
 40
1.0
176
     1
 90
        1
176
     1
 90
        6
176
     1
 90
        2
176
     1
 62
     7
176
     1
 90
        3
176
     1
 90
        0
176
     1
 90
        0
176
     1
290
     0
176
     1
 90
        1
176
     1
 40
0.0
176
     1
 90
        0
176
     1
290
     0
176
     1
290
     1
176
     1
290
     1
176
     1
290
     0
176
     1
290
     0
176
     1
290
     0
176
     1
290
     0
176
     1
290
     0
176
     1
290
     0
176
     1
 90
       50
176
     1
 40
0.0
176
     1
 40
1.0
176
     1
 90
        0
176
     1
 62
    18
420
        0
176
     1
 90
       50
176
     1
 90
        3
176
     1
 62
     5
420
      255
176
     1
290
     0
176
     1
 90
       50
176
     1
 90
       50
176
     1
 90
       50
176
     1
290
     0
176
     1
 90
       50
176
     1
 62
   256
176
     0
 40
1.0
176
     0
 90
        2
176
     1
  1
strokes_ogs.tif
176
     1
290
     0
176
     1
 40
1.0
176
     1
 40
1.0
176
     1
  0
VISUALSTYLE
  5
1000019
102
{ACAD_REACTORS
330
1000003
102
}
330
1000003
100
AcDbVisualStyle
  2
X-Ray
 70
    25
177
     3
291
     0
 70
    58
 90
        2
176
     1
 90
        2
176
     1
 90
        1
176
     1
 90
        1
176
     1
 40
0.5
176
     1
 40
30.0
176
     1
 62
     7
420
 16777215
176
     1
 90
        1
176
     1
 90
        0
176
     1
 62
     7
176
     1
 62
   257
176
     1
 90
        1
176
     1
 90
        1
176
     1
 40
1.0
176
     1
 90
        8
176
     1
 62
     7
176
     1
 40
1.0
176
     1
 90
        1
176
     1
 90
        6
176
     1
 90
        2
176
     1
 62
     7
176
     1
 90
        3
176
     1
 90
        0
176
     1
 90
        0
176
     1
290
     0
176
     1
 90
       13
176
     1
 40
0.0
176
     1
 90
        0
176
     1
290
     0
176
     1
290
     1
176
     1
290
     1
176
     1
290
     0
176
     1
290
     0
176
     1
290
     0
176
     1
290
     0
176
     1
290
     0
176
     1
290
     0
176
     1
 90
       50
176
     1
 40
0.0
176
     1
 40
1.0
176
     1
 90
        0
176
     1
 62
    18
420
        0
176
     1
 90
       50
176
     1
 90
        3
176
     1
 62
     5
420
      255
176
     1
290
     0
176
     1
 90
       50
176
     1
 90
       50
176
     1
 90
       50
176
     1
290
     0
176
     1
 90
       50
176
     1
 62
   256
176
     0
 40
1.0
176
     0
 90
        2
176
     1
  1
strokes_ogs.tif
176
     1
290
     0
176
     1
 40
1.0
176
     1
 40
1.0
176
     1
  0
DICTIONARYVAR
  5
1000038
102
{ACAD_REACTORS
330
1000034
102
}
330
1000034
100
DictionaryVariables
280
     0
  1
1:1
  0
DICTIONARYVAR
  5
1000036
102
{ACAD_REACTORS
330
1000034
102
}
330
1000034
100
DictionaryVariables
280
     0
  1
Standard
  0
DICTIONARYVAR
  5
1000035
102
{ACAD_REACTORS
330
1000034
102
}
330
1000034
100
DictionaryVariables
280
     0
  1
Standard
  0
DICTIONARYVAR
  5
1000037
102
{ACAD_REACTORS
330
1000034
102
}
330
1000034
100
DictionaryVariables
280
     0
  1
0
  0
ENDSEC
  0
SECTION
  2
ACDSDATA
 70
     2
 71
     2
  0
ACDSSCHEMA
 90
        0
  1
AcDb3DSolid_ASM_Data
  2
AcDbDs::ID
280
    10
 91
        0
  2
ASM_Data
280
    15
 91
        0
101
ACDSRECORD
 95
        0
 90
        1
  2
AcDbDs::TreatedAsObjectData
280
     1
291
     1
101
ACDSRECORD
 95
        0
 90
        2
  2
AcDbDs::Legacy
280
     1
291
     1
101
ACDSRECORD
  1
AcDbDs::ID
 90
        3
  2
AcDs:Indexable
280
     1
291
     1
101
ACDSRECORD
  1
AcDbDs::ID
 90
        4
  2
AcDbDs::HandleAttribute
280
     7
282
     1
  0
ACDSSCHEMA
 90
        1
  1
AcDbDs::TreatedAsObjectDataSchema
  2
AcDbDs::TreatedAsObjectData
280
     1
 91
        0
  0
ACDSSCHEMA
 90
        2
  1
AcDbDs::LegacySchema
  2
AcDbDs::Legacy
280
     1
 91
        0
  0
ACDSSCHEMA
 90
        3
  1
AcDbDs::IndexedPropertySchema
  2
AcDs:Indexable
280
     1
 91
        0
  0
ACDSSCHEMA
 90
        4
  1
AcDbDs::HandleAttributeSchema
  2
AcDbDs::HandleAttribute
280
     7
 91
        8
  0
ENDSEC
  0
EOF
