  0
SECTION
  2
HEADER
  9
$ACADVER
  1
AC1018
  9
$HANDSEED
  5
FFFFFF
  9
$EXTMAX
 10
7577756.6799999997
 20
5726575.95000000019
 30
1000000.00
  9
$EXTMIN
 10
7577709.69000000041
 20
5726464.46999999974
 30
0.00
  9
$LIMMIN
 10
7577709.69000000041
 20
5726464.46999999974
  9
$LIMMAX
 10
7577756.6799999997
 20
5726575.95000000019
  9
$DIMASZ
 40
2.5
  9
$DIMGAP
 40
0.625
  9
$INSUNITS
 70
6
  9
$DIMEXO
 40
0.625
  9
$DIMTXT
 40
2.5
  9
$DIMSTYLE
  2
Standard
  9
$PLIMMIN
 10
0.0
 20
0.0
  9
$PLIMMAX
 10
210.0
 20
297.0
  9
$DIMEXE
 40
1.25
  9
$TEXTSIZE
 40
2.5
  9
$TEXTSTYLE
  7
Standard
  9
$LWDISPLAY
290
1
  9
$TDCREATE
 40
45072.582197894
  9
$TDUCREATE
 40
45072.498864560
  9
$TDUPDATE
 40
45072.582197894
  9
$TDUUPDATE
 40
45072.498864560
  9
$TDINDWG
 40
0.0
  9
$TDUSRTIMER
 40
0.0
  9
$USRTIMER
 70
1
  0
ENDSEC
  0
SECTION
  2
CLASSES
  0
CLASS
  1
WIPEOUT
  2
AcDbWipeout
  3
WipeOut
 90
127
 91
1
280
0
281
1
  0
CLASS
  1
WIPEOUTVARIABLES
  2
AcDbWipeoutVariables
  3
WipeOut
 90
0
 91
1
280
0
281
0
  0
ENDSEC
  0
SECTION
  2
TABLES
  0
TABLE
  2
VPORT
  5
1
100
AcDbSymbolTable
 70
1
  0
VPORT
  5
2
100
AcDbSymbolTableRecord
100
AcDbViewportTableRecord
  2
*ACTIVE
 70
0
 10
0.0
 20
0.0
 11
1.0
 21
1.0
 12
7577733.19
 22
5726520.21
 13
0.0
 23
0.0
 14
1.0
 24
1.0
 15
0.0
 25
0.0
 16
0.0
 26
0.0
 36
1.0
 17
0.0
 27
0.0
 37
0.0
 40
111.48
 41
0.42
 42
50.0
 43
0.0
 44
0.0
 50
0.0
 51
0.0
 71
0
 72
100
 73
1
 74
1
 75
0
 76
0
 77
0
 78
0
  0
ENDTAB
  0
TABLE
  2
LTYPE
  5
3
100
AcDbSymbolTable
 70
3
  0
LTYPE
  5
4
100
AcDbSymbolTableRecord
100
AcDbLinetypeTableRecord
  2
ByBlock
 70
0
  3

 72
65
 73
0
 40
0.0
  0
LTYPE
  5
5
100
AcDbSymbolTableRecord
100
AcDbLinetypeTableRecord
  2
ByLayer
 70
0
  3

 72
65
 73
0
 40
0.0
  0
LTYPE
  5
6
100
AcDbSymbolTableRecord
100
AcDbLinetypeTableRecord
  2
CONTINUOUS
 70
0
  3
Solid line
 72
65
 73
0
 40
0.0
  0
LTYPE
  5
8
100
AcDbSymbolTableRecord
100
AcDbLinetypeTableRecord
  2
L_0_02
 70
0
  3
Dzialka_ewidencyjna (MLineStyle)
 72
65
 73
0
 40
0.0
  0
LTYPE
  5
9
100
AcDbSymbolTableRecord
100
AcDbLinetypeTableRecord
  2
L_0_03
 70
0
  3
Uzytek_gruntowy
 72
65
 73
2
 40
1.0
 49
0.5
 74
0
 49
-0.5
 74
0
  0
LTYPE
  5
A
100
AcDbSymbolTableRecord
100
AcDbLinetypeTableRecord
  2
L_0_06
 70
0
  3
Granica_konturu_klasyfikacyjnego_Krawedz_chodnika
 72
65
 73
2
 40
2.0
 49
1.5
 74
0
 49
-0.5
 74
0
  0
LTYPE
  5
B
100
AcDbSymbolTableRecord
100
AcDbLinetypeTableRecord
  2
L_0_15_SHX
 70
0
  3
Ogrodzenie_trwale
 72
65
 73
12
 40
7.5
 49
0.0
 74
0
 49
-0.375
 74
0
 49
-0.75
 74
0
 49
-0.75
 74
0
 49
-0.75
 74
0
 49
-0.75
 74
0
 49
-0.75
 74
4
 75
1
340
C
 46
0.05
 50
0.0
 44
0.0
 45
0.0
 49
-0.75
 74
0
 49
-0.75
 74
0
 49
-0.75
 74
0
 49
-0.75
 74
0
 49
-0.375
 74
0
  0
LTYPE
  5
E
100
AcDbSymbolTableRecord
100
AcDbLinetypeTableRecord
  2
L_0_15
 70
0
  3
Ogrodzenie_trwale (MLineStyle)
 72
65
 73
0
 40
0.0
  0
LTYPE
  5
F
100
AcDbSymbolTableRecord
100
AcDbLinetypeTableRecord
  2
L_0_4E
 70
0
  3
L_0_4E
 72
65
 73
2
 40
2.5
 49
1.5
 74
0
 49
-1.0
 74
0
  0
LTYPE
  5
11
100
AcDbSymbolTableRecord
100
AcDbLinetypeTableRecord
  2
L_2_20
 70
0
  3
Brama___w_prawo__1_500 (MLineStyle)
 72
65
 73
0
 40
0.0
  0
ENDTAB
  0
TABLE
  2
LAYER
  5
12
100
AcDbSymbolTable
 70
9
  0
LAYER
  5
13
100
AcDbSymbolTableRecord
100
AcDbLayerTableRecord
  2
0
 70
0
 62
7
  6
CONTINUOUS
370
18
390
14
  0
LAYER
  5
15
100
AcDbSymbolTableRecord
100
AcDbLayerTableRecord
  2
Budynek
 70
0
 62
7
  6
CONTINUOUS
370
35
390
14
  0
LAYER
  5
16
100
AcDbSymbolTableRecord
100
AcDbLayerTableRecord
  2
en_pkt
 70
0
 62
1
  6
CONTINUOUS
370
18
390
14
  0
LAYER
  5
17
100
AcDbSymbolTableRecord
100
AcDbLayerTableRecord
  2
inne
 70
0
 62
202
  6
CONTINUOUS
370
18
390
14
  0
LAYER
  5
18
100
AcDbSymbolTableRecord
100
AcDbLayerTableRecord
  2
kanalizacja_pkt
 70
0
 62
36
  6
CONTINUOUS
370
18
390
14
  0
LAYER
  5
19
100
AcDbSymbolTableRecord
100
AcDbLayerTableRecord
  2
kostka
 70
0
 62
110
  6
CONTINUOUS
370
35
390
14
  0
LAYER
  5
1A
100
AcDbSymbolTableRecord
100
AcDbLayerTableRecord
  2
ogrodzenie
 70
0
 62
7
  6
L_0_15
370
35
390
14
  0
LAYER
  5
1B
100
AcDbSymbolTableRecord
100
AcDbLayerTableRecord
  2
woda_pkt
 70
0
 62
5
  6
CONTINUOUS
370
35
390
14
  0
LAYER
  5
1C
100
AcDbSymbolTableRecord
100
AcDbLayerTableRecord
  2
siatka
 70
0
 62
7
  6
CONTINUOUS
370
35
390
14
  0
ENDTAB
  0
TABLE
  2
STYLE
  5
1D
100
AcDbSymbolTable
 70
3
  0
STYLE
  5
1E
100
AcDbSymbolTableRecord
100
AcDbTextStyleTableRecord
  2
STANDARD
 70
0
 40
0.0
 41
1.0
 50
0.0
 71
0
  3
simplex.shx
  4

  0
STYLE
  5
1F
100
AcDbSymbolTableRecord
100
AcDbTextStyleTableRecord
  2
STANDARD_ITALIC
 70
0
 40
0.0
 41
1.0
 50
15.0
 71
0
  3
simplex.shx
  4

  0
STYLE
  5
C
100
AcDbSymbolTableRecord
100
AcDbTextStyleTableRecord
  2

 70
1
 40
0.0
 41
0.050
 50
0.0
 71
0
  3
zawitala-tyczenie-ZM.shx
  4

  0
ENDTAB
  0
TABLE
  2
VIEW
  5
20
100
AcDbSymbolTable
 70
0
  0
ENDTAB
  0
TABLE
  2
UCS
  5
21
100
AcDbSymbolTable
 70
0
  0
ENDTAB
  0
TABLE
  2
APPID
  5
22
100
AcDbSymbolTable
 70
1
  0
APPID
  5
23
100
AcDbSymbolTableRecord
100
AcDbRegAppTableRecord
  2
ACAD
 70
0
  0
ENDTAB
  0
TABLE
  2
DIMSTYLE
  5
24
100
AcDbSymbolTable
 70
1
100
AcDbDimStyleTable
  0
DIMSTYLE
105
25
100
AcDbSymbolTableRecord
100
AcDbDimStyleTableRecord
  2
Standard
 70
0
340
1E
  0
ENDTAB
  0
TABLE
  2
BLOCK_RECORD
  5
26
100
AcDbSymbolTable
 70
6
  0
BLOCK_RECORD
  5
27
100
AcDbSymbolTableRecord
100
AcDbBlockTableRecord
  2
*Model_Space
340
28
  0
BLOCK_RECORD
  5
29
100
AcDbSymbolTableRecord
100
AcDbBlockTableRecord
  2
*Paper_Space
340
2A
  0
BLOCK_RECORD
  5
2B
100
AcDbSymbolTableRecord
100
AcDbBlockTableRecord
  2
L_0_02_1
340
2C
  0
BLOCK_RECORD
  5
2D
100
AcDbSymbolTableRecord
100
AcDbBlockTableRecord
  2
L_0_02_2
340
2E
  0
BLOCK_RECORD
  5
2F
100
AcDbSymbolTableRecord
100
AcDbBlockTableRecord
  2
L_2_20_3
340
30
  0
BLOCK_RECORD
  5
31
100
AcDbSymbolTableRecord
100
AcDbBlockTableRecord
  2
L_2_56_1
340
32
  0
ENDTAB
  0
ENDSEC
  0
SECTION
  2
BLOCKS
  0
BLOCK
  5
33
100
AcDbEntity
  8
0
100
AcDbBlockBegin
  2
*Model_Space
 70
0
 10
0.0
 20
0.0
 30
0.0
  3
*Model_Space
  1

  0
ENDBLK
  5
34
100
AcDbEntity
  8
0
100
AcDbBlockEnd
  0
BLOCK
  5
35
100
AcDbEntity
 67
1
  8
0
100
AcDbBlockBegin
  2
*Paper_Space
 70
0
 10
0.0
 20
0.0
 30
0.0
  3
*Paper_Space
  1

  0
ENDBLK
  5
36
100
AcDbEntity
 67
1
  8
0
100
AcDbBlockEnd
  0
BLOCK
  5
2C
100
AcDbEntity
  8
0
100
AcDbBlockBegin
 62
0
370
13
  2
L_0_02_1
 70
0
 10
0
 20
0
 30
0
  3
L_0_02_1
  0
POINT
  5
37
100
AcDbEntity
  8
0
100
AcDbPoint
 62
0
 10
0.0
 20
0.0
 30
0.000
  0
ENDBLK
  5
38
100
AcDbEntity
  8
0
100
AcDbBlockEnd
  0
BLOCK
  5
2E
100
AcDbEntity
  8
0
100
AcDbBlockBegin
 62
0
370
13
  2
L_0_02_2
 70
0
 10
0
 20
0
 30
0
  3
L_0_02_2
  0
POINT
  5
39
100
AcDbEntity
  8
0
100
AcDbPoint
 62
0
 10
-0.0
 20
-0.0
 30
0.000
  0
ENDBLK
  5
3A
100
AcDbEntity
  8
0
100
AcDbBlockEnd
  0
BLOCK
  5
30
100
AcDbEntity
  8
0
100
AcDbBlockBegin
 62
0
370
13
  2
L_2_20_3
 70
0
 10
0
 20
0
 30
0
  3
L_2_20_3
  0
ARC
  5
3B
100
AcDbEntity
  8
0
  6
CONTINUOUS
 62
0
370
13
100
AcDbCircle
 10
-3.0000000000
 20
0.0000000000
 30
0
 40
3.0000000000
100
AcDbArc
 50
299.9816393688
 51
0.0000000000
  0
ARC
  5
3C
100
AcDbEntity
  8
0
  6
CONTINUOUS
 62
0
370
13
100
AcDbCircle
 10
3.0000000000
 20
0.0000000000
 30
0
 40
3.0000000000
100
AcDbArc
 50
180.0000000000
 51
240.0183606312
  0
ENDBLK
  5
3D
100
AcDbEntity
  8
0
100
AcDbBlockEnd
  0
BLOCK
  5
32
100
AcDbEntity
  8
0
100
AcDbBlockBegin
 62
0
370
13
  2
L_2_56_1
 70
0
 10
0
 20
0
 30
0
  3
L_2_56_1
  0
ARC
  5
3E
100
AcDbEntity
  8
0
  6
CONTINUOUS
 62
0
370
13
100
AcDbCircle
 10
3.0000000000
 20
0.0000000000
 30
0
 40
3.0000000000
100
AcDbArc
 50
180.0000000000
 51
240.0183606312
  0
ENDBLK
  5
3F
100
AcDbEntity
  8
0
100
AcDbBlockEnd
  0
ENDSEC
  0
SECTION
  2
ENTITIES
  0
POLYLINE
  5
40
100
AcDbEntity
  8
siatka
  6
CONTINUOUS
 62
7
370
13
100
AcDb2dPolyline
 66
1
 70
128
  0
VERTEX
  5
41
100
AcDbEntity
  8
siatka
100
AcDbVertex
100
AcDb2dVertex
 10
7577697.5
 20
5726450.0
  0
VERTEX
  5
42
100
AcDbEntity
  8
siatka
100
AcDbVertex
100
AcDb2dVertex
 10
7577702.5
 20
5726450.0
  0
SEQEND
  5
43
100
AcDbEntity
  8
siatka
  0
POLYLINE
  5
44
100
AcDbEntity
  8
siatka
  6
CONTINUOUS
 62
7
370
13
100
AcDb2dPolyline
 66
1
 70
128
  0
VERTEX
  5
45
100
AcDbEntity
  8
siatka
100
AcDbVertex
100
AcDb2dVertex
 10
7577700.0
 20
5726447.5
  0
VERTEX
  5
46
100
AcDbEntity
  8
siatka
100
AcDbVertex
100
AcDb2dVertex
 10
7577700.0
 20
5726452.5
  0
SEQEND
  5
47
100
AcDbEntity
  8
siatka
  0
POLYLINE
  5
48
100
AcDbEntity
  8
siatka
  6
CONTINUOUS
 62
7
370
13
100
AcDb2dPolyline
 66
1
 70
128
  0
VERTEX
  5
49
100
AcDbEntity
  8
siatka
100
AcDbVertex
100
AcDb2dVertex
 10
7577747.5
 20
5726450.0
  0
VERTEX
  5
4A
100
AcDbEntity
  8
siatka
100
AcDbVertex
100
AcDb2dVertex
 10
7577752.5
 20
5726450.0
  0
SEQEND
  5
4B
100
AcDbEntity
  8
siatka
  0
POLYLINE
  5
4C
100
AcDbEntity
  8
siatka
  6
CONTINUOUS
 62
7
370
13
100
AcDb2dPolyline
 66
1
 70
128
  0
VERTEX
  5
4D
100
AcDbEntity
  8
siatka
100
AcDbVertex
100
AcDb2dVertex
 10
7577750.0
 20
5726447.5
  0
VERTEX
  5
4E
100
AcDbEntity
  8
siatka
100
AcDbVertex
100
AcDb2dVertex
 10
7577750.0
 20
5726452.5
  0
SEQEND
  5
4F
100
AcDbEntity
  8
siatka
  0
POLYLINE
  5
50
100
AcDbEntity
  8
siatka
  6
CONTINUOUS
 62
7
370
13
100
AcDb2dPolyline
 66
1
 70
128
  0
VERTEX
  5
51
100
AcDbEntity
  8
siatka
100
AcDbVertex
100
AcDb2dVertex
 10
7577697.5
 20
5726500.0
  0
VERTEX
  5
52
100
AcDbEntity
  8
siatka
100
AcDbVertex
100
AcDb2dVertex
 10
7577702.5
 20
5726500.0
  0
SEQEND
  5
53
100
AcDbEntity
  8
siatka
  0
POLYLINE
  5
54
100
AcDbEntity
  8
siatka
  6
CONTINUOUS
 62
7
370
13
100
AcDb2dPolyline
 66
1
 70
128
  0
VERTEX
  5
55
100
AcDbEntity
  8
siatka
100
AcDbVertex
100
AcDb2dVertex
 10
7577700.0
 20
5726497.5
  0
VERTEX
  5
56
100
AcDbEntity
  8
siatka
100
AcDbVertex
100
AcDb2dVertex
 10
7577700.0
 20
5726502.5
  0
SEQEND
  5
57
100
AcDbEntity
  8
siatka
  0
POLYLINE
  5
58
100
AcDbEntity
  8
siatka
  6
CONTINUOUS
 62
7
370
13
100
AcDb2dPolyline
 66
1
 70
128
  0
VERTEX
  5
59
100
AcDbEntity
  8
siatka
100
AcDbVertex
100
AcDb2dVertex
 10
7577747.5
 20
5726500.0
  0
VERTEX
  5
5A
100
AcDbEntity
  8
siatka
100
AcDbVertex
100
AcDb2dVertex
 10
7577752.5
 20
5726500.0
  0
SEQEND
  5
5B
100
AcDbEntity
  8
siatka
  0
POLYLINE
  5
5C
100
AcDbEntity
  8
siatka
  6
CONTINUOUS
 62
7
370
13
100
AcDb2dPolyline
 66
1
 70
128
  0
VERTEX
  5
5D
100
AcDbEntity
  8
siatka
100
AcDbVertex
100
AcDb2dVertex
 10
7577750.0
 20
5726497.5
  0
VERTEX
  5
5E
100
AcDbEntity
  8
siatka
100
AcDbVertex
100
AcDb2dVertex
 10
7577750.0
 20
5726502.5
  0
SEQEND
  5
5F
100
AcDbEntity
  8
siatka
  0
POLYLINE
  5
60
100
AcDbEntity
  8
siatka
  6
CONTINUOUS
 62
7
370
13
100
AcDb2dPolyline
 66
1
 70
128
  0
VERTEX
  5
61
100
AcDbEntity
  8
siatka
100
AcDbVertex
100
AcDb2dVertex
 10
7577697.5
 20
5726550.0
  0
VERTEX
  5
62
100
AcDbEntity
  8
siatka
100
AcDbVertex
100
AcDb2dVertex
 10
7577702.5
 20
5726550.0
  0
SEQEND
  5
63
100
AcDbEntity
  8
siatka
  0
POLYLINE
  5
64
100
AcDbEntity
  8
siatka
  6
CONTINUOUS
 62
7
370
13
100
AcDb2dPolyline
 66
1
 70
128
  0
VERTEX
  5
65
100
AcDbEntity
  8
siatka
100
AcDbVertex
100
AcDb2dVertex
 10
7577700.0
 20
5726547.5
  0
VERTEX
  5
66
100
AcDbEntity
  8
siatka
100
AcDbVertex
100
AcDb2dVertex
 10
7577700.0
 20
5726552.5
  0
SEQEND
  5
67
100
AcDbEntity
  8
siatka
  0
POLYLINE
  5
68
100
AcDbEntity
  8
siatka
  6
CONTINUOUS
 62
7
370
13
100
AcDb2dPolyline
 66
1
 70
128
  0
VERTEX
  5
69
100
AcDbEntity
  8
siatka
100
AcDbVertex
100
AcDb2dVertex
 10
7577747.5
 20
5726550.0
  0
VERTEX
  5
6A
100
AcDbEntity
  8
siatka
100
AcDbVertex
100
AcDb2dVertex
 10
7577752.5
 20
5726550.0
  0
SEQEND
  5
6B
100
AcDbEntity
  8
siatka
  0
POLYLINE
  5
6C
100
AcDbEntity
  8
siatka
  6
CONTINUOUS
 62
7
370
13
100
AcDb2dPolyline
 66
1
 70
128
  0
VERTEX
  5
6D
100
AcDbEntity
  8
siatka
100
AcDbVertex
100
AcDb2dVertex
 10
7577750.0
 20
5726547.5
  0
VERTEX
  5
6E
100
AcDbEntity
  8
siatka
100
AcDbVertex
100
AcDb2dVertex
 10
7577750.0
 20
5726552.5
  0
SEQEND
  5
6F
100
AcDbEntity
  8
siatka
  0
POLYLINE
  5
70
100
AcDbEntity
  8
Budynek
  6
CONTINUOUS
370
35
100
AcDb2dPolyline
 66
1
 70
129
  0
VERTEX
  5
71
100
AcDbEntity
  8
Budynek
100
AcDbVertex
100
AcDb2dVertex
 10
7577736.8669617679
 20
5726530.32074254286
  0
VERTEX
  5
72
100
AcDbEntity
  8
Budynek
100
AcDbVertex
100
AcDb2dVertex
 10
7577743.44382537156
 20
5726529.28306747787
  0
VERTEX
  5
73
100
AcDbEntity
  8
Budynek
100
AcDbVertex
100
AcDb2dVertex
 10
7577741.35833798535
 20
5726516.11928979028
  0
VERTEX
  5
74
100
AcDbEntity
  8
Budynek
100
AcDbVertex
100
AcDb2dVertex
 10
7577734.73087487929
 20
5726517.12690018397
  0
SEQEND
  5
75
100
AcDbEntity
  8
Budynek
  0
POLYLINE
  5
76
100
AcDbEntity
  8
en_pkt
  6
CONTINUOUS
370
35
100
AcDb2dPolyline
 66
1
 70
128
  0
VERTEX
  5
77
100
AcDbEntity
  8
en_pkt
100
AcDbVertex
100
AcDb2dVertex
 10
7577740.34999999963
 20
5726516.23000000045
  0
VERTEX
  5
78
100
AcDbEntity
  8
en_pkt
100
AcDbVertex
100
AcDb2dVertex
 10
7577740.16999999993
 20
5726515.29000000004
  0
VERTEX
  5
79
100
AcDbEntity
  8
en_pkt
100
AcDbVertex
100
AcDb2dVertex
 10
7577737.58000000007
 20
5726515.6799999997
  0
VERTEX
  5
7A
100
AcDbEntity
  8
en_pkt
100
AcDbVertex
100
AcDb2dVertex
 10
7577732.20000000019
 20
5726516.5
  0
VERTEX
  5
7B
100
AcDbEntity
  8
en_pkt
100
AcDbVertex
100
AcDb2dVertex
 10
7577731.46999999974
 20
5726516.61000000034
  0
VERTEX
  5
7C
100
AcDbEntity
  8
en_pkt
100
AcDbVertex
100
AcDb2dVertex
 10
7577721.33000000007
 20
5726518.15000000037
  0
VERTEX
  5
7D
100
AcDbEntity
  8
en_pkt
100
AcDbVertex
100
AcDb2dVertex
 10
7577719.6799999997
 20
5726508.54000000004
  0
VERTEX
  5
7E
100
AcDbEntity
  8
en_pkt
100
AcDbVertex
100
AcDb2dVertex
 10
7577720.87999999989
 20
5726507.54999999981
  0
SEQEND
  5
7F
100
AcDbEntity
  8
en_pkt
  0
POLYLINE
  5
80
100
AcDbEntity
  8
en_pkt
  6
CONTINUOUS
370
35
100
AcDb2dPolyline
 66
1
 70
128
  0
VERTEX
  5
81
100
AcDbEntity
  8
en_pkt
100
AcDbVertex
100
AcDb2dVertex
 10
7577740.70000000019
 20
5726516.1799999997
  0
VERTEX
  5
82
100
AcDbEntity
  8
en_pkt
100
AcDbVertex
100
AcDb2dVertex
 10
7577738.46999999974
 20
5726504.25999999978
  0
VERTEX
  5
83
100
AcDbEntity
  8
en_pkt
100
AcDbVertex
100
AcDb2dVertex
 10
7577738.16999999993
 20
5726504.05999999959
  0
VERTEX
  5
84
100
AcDbEntity
  8
en_pkt
100
AcDbVertex
100
AcDb2dVertex
 10
7577736.9299999997
 20
5726504.29000000004
  0
SEQEND
  5
85
100
AcDbEntity
  8
en_pkt
  0
POLYLINE
  5
86
100
AcDbEntity
  8
en_pkt
  6
CONTINUOUS
370
35
100
AcDb2dPolyline
 66
1
 70
128
  0
VERTEX
  5
87
100
AcDbEntity
  8
en_pkt
100
AcDbVertex
100
AcDb2dVertex
 10
7577740.63999999966
 20
5726516.19000000041
  0
VERTEX
  5
88
100
AcDbEntity
  8
en_pkt
100
AcDbVertex
100
AcDb2dVertex
 10
7577735.05999999959
 20
5726486.37999999989
  0
VERTEX
  5
89
100
AcDbEntity
  8
en_pkt
100
AcDbVertex
100
AcDb2dVertex
 10
7577734.76999999955
 20
5726486.1799999997
  0
VERTEX
  5
8A
100
AcDbEntity
  8
en_pkt
100
AcDbVertex
100
AcDb2dVertex
 10
7577731.21999999974
 20
5726486.83999999985
  0
SEQEND
  5
8B
100
AcDbEntity
  8
en_pkt
  0
POLYLINE
  5
8C
100
AcDbEntity
  8
en_pkt
  6
CONTINUOUS
370
35
100
AcDb2dPolyline
 66
1
 70
128
  0
VERTEX
  5
8D
100
AcDbEntity
  8
en_pkt
100
AcDbVertex
100
AcDb2dVertex
 10
7577735.05999999959
 20
5726486.37999999989
  0
VERTEX
  5
8E
100
AcDbEntity
  8
en_pkt
100
AcDbVertex
100
AcDb2dVertex
 10
7577733.34999999963
 20
5726477.26999999955
  0
VERTEX
  5
8F
100
AcDbEntity
  8
en_pkt
100
AcDbVertex
100
AcDb2dVertex
 10
7577733.05999999959
 20
5726477.0700000003
  0
VERTEX
  5
90
100
AcDbEntity
  8
en_pkt
100
AcDbVertex
100
AcDb2dVertex
 10
7577722.33999999985
 20
5726479.0700000003
  0
SEQEND
  5
91
100
AcDbEntity
  8
en_pkt
  0
POLYLINE
  5
92
100
AcDbEntity
  8
en_pkt
  6
CONTINUOUS
370
35
100
AcDb2dPolyline
 66
1
 70
128
  0
VERTEX
  5
93
100
AcDbEntity
  8
en_pkt
100
AcDbVertex
100
AcDb2dVertex
 10
7577736.9299999997
 20
5726504.29000000004
  0
VERTEX
  5
94
100
AcDbEntity
  8
en_pkt
100
AcDbVertex
100
AcDb2dVertex
 10
7577736.03000000026
 20
5726499.48000000045
  0
SEQEND
  5
95
100
AcDbEntity
  8
en_pkt
  0
POLYLINE
  5
96
100
AcDbEntity
  8
en_pkt
  6
CONTINUOUS
370
35
100
AcDb2dPolyline
 66
1
 70
128
  0
VERTEX
  5
97
100
AcDbEntity
  8
en_pkt
100
AcDbVertex
100
AcDb2dVertex
 10
7577743.21999999974
 20
5726528.16000000015
  0
VERTEX
  5
98
100
AcDbEntity
  8
en_pkt
100
AcDbVertex
100
AcDb2dVertex
 10
7577744.38999999966
 20
5726527.96999999974
  0
VERTEX
  5
99
100
AcDbEntity
  8
en_pkt
100
AcDbVertex
100
AcDb2dVertex
 10
7577747.46999999974
 20
5726544.41000000015
  0
VERTEX
  5
9A
100
AcDbEntity
  8
en_pkt
100
AcDbVertex
100
AcDb2dVertex
 10
7577747.50999999978
 20
5726548.33000000007
  0
VERTEX
  5
9B
100
AcDbEntity
  8
en_pkt
100
AcDbVertex
100
AcDb2dVertex
 10
7577748.80999999959
 20
5726555.28000000026
  0
SEQEND
  5
9C
100
AcDbEntity
  8
en_pkt
  0
CIRCLE
  5
9D
100
AcDbEntity
  8
inne
  6
CONTINUOUS
 62
6
370
35
100
AcDbCircle
 10
7577733.16999999993
 20
5726498.19000000041
 40
2.79200644698
  0
POLYLINE
  5
9E
100
AcDbEntity
  8
inne
  6
CONTINUOUS
 62
6
370
35
100
AcDb2dPolyline
 66
1
 70
129
  0
VERTEX
  5
9F
100
AcDbEntity
  8
inne
100
AcDbVertex
100
AcDb2dVertex
 10
7577749.25999999978
 20
5726553.4299999997
  0
VERTEX
  5
A0
100
AcDbEntity
  8
inne
100
AcDbVertex
100
AcDb2dVertex
 10
7577738.53000000026
 20
5726553.54000000004
  0
VERTEX
  5
A1
100
AcDbEntity
  8
inne
100
AcDbVertex
100
AcDb2dVertex
 10
7577738.55999999959
 20
5726556.45999999996
  0
VERTEX
  5
A2
100
AcDbEntity
  8
inne
100
AcDbVertex
100
AcDb2dVertex
 10
7577749.29000000004
 20
5726556.36000000034
  0
SEQEND
  5
A3
100
AcDbEntity
  8
inne
  0
POLYLINE
  5
A4
100
AcDbEntity
  8
inne
  6
CONTINUOUS
 62
6
370
35
100
AcDb2dPolyline
 66
1
 70
129
  0
VERTEX
  5
A5
100
AcDbEntity
  8
inne
100
AcDbVertex
100
AcDb2dVertex
 10
7577748.0
 20
5726549.41999999993
  0
VERTEX
  5
A6
100
AcDbEntity
  8
inne
100
AcDbVertex
100
AcDb2dVertex
 10
7577747.96999999974
 20
5726546.49000000022
  0
VERTEX
  5
A7
100
AcDbEntity
  8
inne
100
AcDbVertex
100
AcDb2dVertex
 10
7577737.24000000022
 20
5726546.58999999985
  0
VERTEX
  5
A8
100
AcDbEntity
  8
inne
100
AcDbVertex
100
AcDb2dVertex
 10
7577737.26999999955
 20
5726549.51999999955
  0
SEQEND
  5
A9
100
AcDbEntity
  8
inne
  0
POLYLINE
  5
AA
100
AcDbEntity
  8
inne
  6
CONTINUOUS
 62
6
370
35
100
AcDb2dPolyline
 66
1
 70
129
  0
VERTEX
  5
AB
100
AcDbEntity
  8
inne
100
AcDbVertex
100
AcDb2dVertex
 10
7577733.3200000003
 20
5726504.78000000026
  0
VERTEX
  5
AC
100
AcDbEntity
  8
inne
100
AcDbVertex
100
AcDb2dVertex
 10
7577735.09999999963
 20
5726504.53000000026
  0
VERTEX
  5
AD
100
AcDbEntity
  8
inne
100
AcDbVertex
100
AcDb2dVertex
 10
7577734.4299999997
 20
5726500.20999999996
  0
VERTEX
  5
AE
100
AcDbEntity
  8
inne
100
AcDbVertex
100
AcDb2dVertex
 10
7577732.69000000041
 20
5726500.48000000045
  0
SEQEND
  5
AF
100
AcDbEntity
  8
inne
  0
POLYLINE
  5
B0
100
AcDbEntity
  8
kanalizacja_pkt
  6
CONTINUOUS
370
35
100
AcDb2dPolyline
 66
1
 70
128
  0
VERTEX
  5
B1
100
AcDbEntity
  8
kanalizacja_pkt
100
AcDbVertex
100
AcDb2dVertex
 10
7577734.69000000041
 20
5726504.20000000019
  0
VERTEX
  5
B2
100
AcDbEntity
  8
kanalizacja_pkt
100
AcDbVertex
100
AcDb2dVertex
 10
7577734.5700000003
 20
5726503.40000000037
  0
VERTEX
  5
B3
100
AcDbEntity
  8
kanalizacja_pkt
100
AcDbVertex
100
AcDb2dVertex
 10
7577734.29000000004
 20
5726501.61000000034
  0
VERTEX
  5
B4
100
AcDbEntity
  8
kanalizacja_pkt
100
AcDbVertex
100
AcDb2dVertex
 10
7577734.24000000022
 20
5726501.25999999978
  0
VERTEX
  5
B5
100
AcDbEntity
  8
kanalizacja_pkt
100
AcDbVertex
100
AcDb2dVertex
 10
7577734.12999999989
 20
5726500.5700000003
  0
SEQEND
  5
B6
100
AcDbEntity
  8
kanalizacja_pkt
  0
POLYLINE
  5
B7
100
AcDbEntity
  8
kanalizacja_pkt
  6
CONTINUOUS
370
35
100
AcDb2dPolyline
 66
1
 70
128
  0
VERTEX
  5
B8
100
AcDbEntity
  8
kanalizacja_pkt
100
AcDbVertex
100
AcDb2dVertex
 10
7577733.73000000045
 20
5726500.62999999989
  0
VERTEX
  5
B9
100
AcDbEntity
  8
kanalizacja_pkt
100
AcDbVertex
100
AcDb2dVertex
 10
7577733.83999999985
 20
5726501.33000000007
  0
VERTEX
  5
BA
100
AcDbEntity
  8
kanalizacja_pkt
100
AcDbVertex
100
AcDb2dVertex
 10
7577734.24000000022
 20
5726501.25999999978
  0
SEQEND
  5
BB
100
AcDbEntity
  8
kanalizacja_pkt
  0
POLYLINE
  5
BC
100
AcDbEntity
  8
kanalizacja_pkt
  6
CONTINUOUS
370
35
100
AcDb2dPolyline
 66
1
 70
128
  0
VERTEX
  5
BD
100
AcDbEntity
  8
kanalizacja_pkt
100
AcDbVertex
100
AcDb2dVertex
 10
7577734.28000000026
 20
5726504.25999999978
  0
VERTEX
  5
BE
100
AcDbEntity
  8
kanalizacja_pkt
100
AcDbVertex
100
AcDb2dVertex
 10
7577734.16999999993
 20
5726503.45999999996
  0
VERTEX
  5
BF
100
AcDbEntity
  8
kanalizacja_pkt
100
AcDbVertex
100
AcDb2dVertex
 10
7577734.5700000003
 20
5726503.40000000037
  0
SEQEND
  5
C0
100
AcDbEntity
  8
kanalizacja_pkt
  0
POLYLINE
  5
C1
100
AcDbEntity
  8
kanalizacja_pkt
  6
CONTINUOUS
370
35
100
AcDb2dPolyline
 66
1
 70
128
  0
VERTEX
  5
C2
100
AcDbEntity
  8
kanalizacja_pkt
100
AcDbVertex
100
AcDb2dVertex
 10
7577737.73000000045
 20
5726516.66999999993
  0
VERTEX
  5
C3
100
AcDbEntity
  8
kanalizacja_pkt
100
AcDbVertex
100
AcDb2dVertex
 10
7577737.36000000034
 20
5726514.28000000026
  0
SEQEND
  5
C4
100
AcDbEntity
  8
kanalizacja_pkt
  0
POLYLINE
  5
C5
100
AcDbEntity
  8
kanalizacja_pkt
  6
CONTINUOUS
370
35
100
AcDb2dPolyline
 66
1
 70
128
  0
VERTEX
  5
C6
100
AcDbEntity
  8
kanalizacja_pkt
100
AcDbVertex
100
AcDb2dVertex
 10
7577733.83999999985
 20
5726501.33000000007
  0
VERTEX
  5
C7
100
AcDbEntity
  8
kanalizacja_pkt
100
AcDbVertex
100
AcDb2dVertex
 10
7577720.62999999989
 20
5726504.1799999997
  0
SEQEND
  5
C8
100
AcDbEntity
  8
kanalizacja_pkt
  0
POLYLINE
  5
C9
100
AcDbEntity
  8
kostka
  6
CONTINUOUS
370
35
100
AcDb2dPolyline
 66
1
 70
128
  0
VERTEX
  5
CA
100
AcDbEntity
  8
kostka
100
AcDbVertex
100
AcDb2dVertex
 10
7577738.91999999993
 20
5726530.04000000004
  0
VERTEX
  5
CB
100
AcDbEntity
  8
kostka
100
AcDbVertex
100
AcDb2dVertex
 10
7577740.36000000034
 20
5726538.55999999959
  0
VERTEX
  5
CC
100
AcDbEntity
  8
kostka
100
AcDbVertex
100
AcDb2dVertex
 10
7577730.40000000037
 20
5726540.20999999996
  0
VERTEX
  5
CD
100
AcDbEntity
  8
kostka
100
AcDbVertex
100
AcDb2dVertex
 10
7577728.70000000019
 20
5726530.19000000041
  0
VERTEX
  5
CE
100
AcDbEntity
  8
kostka
100
AcDbVertex
100
AcDb2dVertex
 10
7577718.0
 20
5726532.0
  0
VERTEX
  5
CF
100
AcDbEntity
  8
kostka
100
AcDbVertex
100
AcDb2dVertex
 10
7577717.79000000004
 20
5726530.79999999981
  0
VERTEX
  5
D0
100
AcDbEntity
  8
kostka
100
AcDbVertex
100
AcDb2dVertex
 10
7577729.61000000034
 20
5726528.79999999981
  0
VERTEX
  5
D1
100
AcDbEntity
  8
kostka
100
AcDbVertex
100
AcDb2dVertex
 10
7577724.33000000007
 20
5726497.59999999963
  0
VERTEX
  5
D2
100
AcDbEntity
  8
kostka
100
AcDbVertex
100
AcDb2dVertex
 10
7577724.25
 20
5726496.70000000019
  0
VERTEX
  5
D3
100
AcDbEntity
  8
kostka
100
AcDbVertex
100
AcDb2dVertex
 10
7577724.04999999981
 20
5726495.96999999974
  0
VERTEX
  5
D4
100
AcDbEntity
  8
kostka
100
AcDbVertex
100
AcDb2dVertex
 10
7577723.71999999974
 20
5726495.20999999996
  0
VERTEX
  5
D5
100
AcDbEntity
  8
kostka
100
AcDbVertex
100
AcDb2dVertex
 10
7577723.25
 20
5726494.5
  0
VERTEX
  5
D6
100
AcDbEntity
  8
kostka
100
AcDbVertex
100
AcDb2dVertex
 10
7577722.45999999996
 20
5726493.69000000041
  0
VERTEX
  5
D7
100
AcDbEntity
  8
kostka
100
AcDbVertex
100
AcDb2dVertex
 10
7577721.75999999978
 20
5726493.21999999974
  0
VERTEX
  5
D8
100
AcDbEntity
  8
kostka
100
AcDbVertex
100
AcDb2dVertex
 10
7577720.78000000026
 20
5726492.78000000026
  0
VERTEX
  5
D9
100
AcDbEntity
  8
kostka
100
AcDbVertex
100
AcDb2dVertex
 10
7577719.5
 20
5726492.55999999959
  0
VERTEX
  5
DA
100
AcDbEntity
  8
kostka
100
AcDbVertex
100
AcDb2dVertex
 10
7577718.59999999963
 20
5726492.58999999985
  0
VERTEX
  5
DB
100
AcDbEntity
  8
kostka
100
AcDbVertex
100
AcDb2dVertex
 10
7577718.24000000022
 20
5726492.66000000015
  0
VERTEX
  5
DC
100
AcDbEntity
  8
kostka
100
AcDbVertex
100
AcDb2dVertex
 10
7577716.0
 20
5726493.04000000004
  0
VERTEX
  5
DD
100
AcDbEntity
  8
kostka
100
AcDbVertex
100
AcDb2dVertex
 10
7577715.34999999963
 20
5726493.23000000045
  0
VERTEX
  5
DE
100
AcDbEntity
  8
kostka
100
AcDbVertex
100
AcDb2dVertex
 10
7577715.03000000026
 20
5726493.34999999963
  0
VERTEX
  5
DF
100
AcDbEntity
  8
kostka
100
AcDbVertex
100
AcDb2dVertex
 10
7577714.70000000019
 20
5726493.5
  0
VERTEX
  5
E0
100
AcDbEntity
  8
kostka
100
AcDbVertex
100
AcDb2dVertex
 10
7577714.37999999989
 20
5726493.70999999996
  0
VERTEX
  5
E1
100
AcDbEntity
  8
kostka
100
AcDbVertex
100
AcDb2dVertex
 10
7577713.87000000011
 20
5726494.04999999981
  0
VERTEX
  5
E2
100
AcDbEntity
  8
kostka
100
AcDbVertex
100
AcDb2dVertex
 10
7577713.41000000015
 20
5726494.45000000019
  0
VERTEX
  5
E3
100
AcDbEntity
  8
kostka
100
AcDbVertex
100
AcDb2dVertex
 10
7577713.04000000004
 20
5726494.86000000034
  0
VERTEX
  5
E4
100
AcDbEntity
  8
kostka
100
AcDbVertex
100
AcDb2dVertex
 10
7577712.78000000026
 20
5726495.21999999974
  0
VERTEX
  5
E5
100
AcDbEntity
  8
kostka
100
AcDbVertex
100
AcDb2dVertex
 10
7577712.46999999974
 20
5726495.73000000045
  0
VERTEX
  5
E6
100
AcDbEntity
  8
kostka
100
AcDbVertex
100
AcDb2dVertex
 10
7577712.29000000004
 20
5726496.11000000034
  0
VERTEX
  5
E7
100
AcDbEntity
  8
kostka
100
AcDbVertex
100
AcDb2dVertex
 10
7577712.11000000034
 20
5726496.59999999963
  0
VERTEX
  5
E8
100
AcDbEntity
  8
kostka
100
AcDbVertex
100
AcDb2dVertex
 10
7577711.98000000045
 20
5726497.12000000011
  0
VERTEX
  5
E9
100
AcDbEntity
  8
kostka
100
AcDbVertex
100
AcDb2dVertex
 10
7577711.91999999993
 20
5726497.54999999981
  0
VERTEX
  5
EA
100
AcDbEntity
  8
kostka
100
AcDbVertex
100
AcDb2dVertex
 10
7577711.87999999989
 20
5726497.98000000045
  0
VERTEX
  5
EB
100
AcDbEntity
  8
kostka
100
AcDbVertex
100
AcDb2dVertex
 10
7577711.88999999966
 20
5726498.50999999978
  0
VERTEX
  5
EC
100
AcDbEntity
  8
kostka
100
AcDbVertex
100
AcDb2dVertex
 10
7577709.69000000041
 20
5726486.01999999955
  0
VERTEX
  5
ED
100
AcDbEntity
  8
kostka
100
AcDbVertex
100
AcDb2dVertex
 10
7577709.86000000034
 20
5726486.54999999981
  0
VERTEX
  5
EE
100
AcDbEntity
  8
kostka
100
AcDbVertex
100
AcDb2dVertex
 10
7577710.11000000034
 20
5726487.12000000011
  0
VERTEX
  5
EF
100
AcDbEntity
  8
kostka
100
AcDbVertex
100
AcDb2dVertex
 10
7577710.38999999966
 20
5726487.59999999963
  0
VERTEX
  5
F0
100
AcDbEntity
  8
kostka
100
AcDbVertex
100
AcDb2dVertex
 10
7577710.78000000026
 20
5726488.12000000011
  0
VERTEX
  5
F1
100
AcDbEntity
  8
kostka
100
AcDbVertex
100
AcDb2dVertex
 10
7577711.20000000019
 20
5726488.5700000003
  0
VERTEX
  5
F2
100
AcDbEntity
  8
kostka
100
AcDbVertex
100
AcDb2dVertex
 10
7577711.71999999974
 20
5726489.00999999978
  0
VERTEX
  5
F3
100
AcDbEntity
  8
kostka
100
AcDbVertex
100
AcDb2dVertex
 10
7577712.0700000003
 20
5726489.25
  0
VERTEX
  5
F4
100
AcDbEntity
  8
kostka
100
AcDbVertex
100
AcDb2dVertex
 10
7577712.54999999981
 20
5726489.5
  0
VERTEX
  5
F5
100
AcDbEntity
  8
kostka
100
AcDbVertex
100
AcDb2dVertex
 10
7577713.11000000034
 20
5726489.74000000022
  0
VERTEX
  5
F6
100
AcDbEntity
  8
kostka
100
AcDbVertex
100
AcDb2dVertex
 10
7577713.74000000022
 20
5726489.91999999993
  0
VERTEX
  5
F7
100
AcDbEntity
  8
kostka
100
AcDbVertex
100
AcDb2dVertex
 10
7577714.45000000019
 20
5726490.03000000026
  0
VERTEX
  5
F8
100
AcDbEntity
  8
kostka
100
AcDbVertex
100
AcDb2dVertex
 10
7577715.28000000026
 20
5726490.04999999981
  0
VERTEX
  5
F9
100
AcDbEntity
  8
kostka
100
AcDbVertex
100
AcDb2dVertex
 10
7577716.00999999978
 20
5726489.95000000019
  0
VERTEX
  5
FA
100
AcDbEntity
  8
kostka
100
AcDbVertex
100
AcDb2dVertex
 10
7577717.61000000034
 20
5726489.6799999997
  0
VERTEX
  5
FB
100
AcDbEntity
  8
kostka
100
AcDbVertex
100
AcDb2dVertex
 10
7577718.20999999996
 20
5726489.58000000007
  0
VERTEX
  5
FC
100
AcDbEntity
  8
kostka
100
AcDbVertex
100
AcDb2dVertex
 10
7577718.87000000011
 20
5726489.37999999989
  0
VERTEX
  5
FD
100
AcDbEntity
  8
kostka
100
AcDbVertex
100
AcDb2dVertex
 10
7577719.54000000004
 20
5726489.05999999959
  0
VERTEX
  5
FE
100
AcDbEntity
  8
kostka
100
AcDbVertex
100
AcDb2dVertex
 10
7577720.25999999978
 20
5726488.58000000007
  0
VERTEX
  5
FF
100
AcDbEntity
  8
kostka
100
AcDbVertex
100
AcDb2dVertex
 10
7577720.8200000003
 20
5726488.04000000004
  0
VERTEX
  5
100
100
AcDbEntity
  8
kostka
100
AcDbVertex
100
AcDb2dVertex
 10
7577721.33999999985
 20
5726487.36000000034
  0
VERTEX
  5
101
100
AcDbEntity
  8
kostka
100
AcDbVertex
100
AcDb2dVertex
 10
7577721.75
 20
5726486.58999999985
  0
VERTEX
  5
102
100
AcDbEntity
  8
kostka
100
AcDbVertex
100
AcDb2dVertex
 10
7577722.03000000026
 20
5726485.75999999978
  0
VERTEX
  5
103
100
AcDbEntity
  8
kostka
100
AcDbVertex
100
AcDb2dVertex
 10
7577722.12999999989
 20
5726484.63999999966
  0
VERTEX
  5
104
100
AcDbEntity
  8
kostka
100
AcDbVertex
100
AcDb2dVertex
 10
7577721.86000000034
 20
5726482.99000000022
  0
VERTEX
  5
105
100
AcDbEntity
  8
kostka
100
AcDbVertex
100
AcDb2dVertex
 10
7577721.5700000003
 20
5726481.29999999981
  0
VERTEX
  5
106
100
AcDbEntity
  8
kostka
100
AcDbVertex
100
AcDb2dVertex
 10
7577724.63999999966
 20
5726480.78000000026
  0
VERTEX
  5
107
100
AcDbEntity
  8
kostka
100
AcDbVertex
100
AcDb2dVertex
 10
7577728.45999999996
 20
5726503.36000000034
  0
VERTEX
  5
108
100
AcDbEntity
  8
kostka
100
AcDbVertex
100
AcDb2dVertex
 10
7577732.96999999974
 20
5726502.59999999963
  0
VERTEX
  5
109
100
AcDbEntity
  8
kostka
100
AcDbVertex
100
AcDb2dVertex
 10
7577733.12999999989
 20
5726503.49000000022
  0
VERTEX
  5
10A
100
AcDbEntity
  8
kostka
100
AcDbVertex
100
AcDb2dVertex
 10
7577728.61000000034
 20
5726504.25
  0
VERTEX
  5
10B
100
AcDbEntity
  8
kostka
100
AcDbVertex
100
AcDb2dVertex
 10
7577732.46999999974
 20
5726527.08000000007
  0
VERTEX
  5
10C
100
AcDbEntity
  8
kostka
100
AcDbVertex
100
AcDb2dVertex
 10
7577736.23000000045
 20
5726526.44000000041
  0
VERTEX
  5
10D
100
AcDbEntity
  8
kostka
100
AcDbVertex
100
AcDb2dVertex
 10
7577736.8669617679
 20
5726530.32074254286
  0
VERTEX
  5
10E
100
AcDbEntity
  8
kostka
100
AcDbVertex
100
AcDb2dVertex
 10
7577738.91999999993
 20
5726530.04000000004
  0
SEQEND
  5
10F
100
AcDbEntity
  8
kostka
  0
POLYLINE
  5
110
100
AcDbEntity
  8
kostka
  6
CONTINUOUS
370
35
100
AcDb2dPolyline
 66
1
 70
128
  0
VERTEX
  5
111
100
AcDbEntity
  8
kostka
100
AcDbVertex
100
AcDb2dVertex
 10
7577720.62000000011
 20
5726480.78000000026
  0
VERTEX
  5
112
100
AcDbEntity
  8
kostka
100
AcDbVertex
100
AcDb2dVertex
 10
7577720.30999999959
 20
5726479.49000000022
  0
VERTEX
  5
113
100
AcDbEntity
  8
kostka
100
AcDbVertex
100
AcDb2dVertex
 10
7577722.12999999989
 20
5726479.04000000004
  0
VERTEX
  5
114
100
AcDbEntity
  8
kostka
100
AcDbVertex
100
AcDb2dVertex
 10
7577722.44000000041
 20
5726480.33999999985
  0
VERTEX
  5
115
100
AcDbEntity
  8
kostka
100
AcDbVertex
100
AcDb2dVertex
 10
7577720.62000000011
 20
5726480.78000000026
  0
SEQEND
  5
116
100
AcDbEntity
  8
kostka
  0
POLYLINE
  5
117
100
AcDbEntity
  8
kostka
  6
CONTINUOUS
370
35
100
AcDb2dPolyline
 66
1
 70
128
  0
VERTEX
  5
118
100
AcDbEntity
  8
kostka
100
AcDbVertex
100
AcDb2dVertex
 10
7577729.16999999993
 20
5726486.66999999993
  0
VERTEX
  5
119
100
AcDbEntity
  8
kostka
100
AcDbVertex
100
AcDb2dVertex
 10
7577728.87000000011
 20
5726485.37000000011
  0
VERTEX
  5
11A
100
AcDbEntity
  8
kostka
100
AcDbVertex
100
AcDb2dVertex
 10
7577730.69000000041
 20
5726484.91999999993
  0
VERTEX
  5
11B
100
AcDbEntity
  8
kostka
100
AcDbVertex
100
AcDb2dVertex
 10
7577731.0
 20
5726486.21999999974
  0
VERTEX
  5
11C
100
AcDbEntity
  8
kostka
100
AcDbVertex
100
AcDb2dVertex
 10
7577729.16999999993
 20
5726486.66999999993
  0
SEQEND
  5
11D
100
AcDbEntity
  8
kostka
  0
MLINE
  5
11E
100
AcDbEntity
  8
ogrodzenie
  6
L_0_15
370
35
100
AcDbMline
  2
L_0_15
340
D
 40
1.0
 70
1
 71
1
 72
6
 73
2
 10
7577723.19000000041
 20
5726531.12000000011
210
0.0
220
0.0
230
1.0
 11
7577723.19000000041
 21
5726531.12000000011
 12
0.169281109262
 22
0.985567808954
 13
-0.985567808954
 23
0.169281109262
 74
2
 41
0.0
 41
0.0
 75
0
 74
2
 41
0.0
 41
0.0
 75
0
 11
7577730.88999999966
 21
5726575.95000000019
 12
0.982979890541
 22
-0.183713186223
 13
-0.571199733598
 23
0.820811101495
 74
2
 41
0.0
 41
0.0
 75
0
 74
2
 41
0.0
 41
0.0
 75
0
 11
7577756.6799999997
 21
5726571.12999999989
 12
-0.183587358897
 22
-0.983003398597
 13
0.824940412508
 23
0.565219705788
 74
2
 41
0.0
 41
0.0
 75
0
 74
2
 41
0.0
 41
0.0
 75
0
 11
7577736.75999999978
 21
5726464.46999999974
 12
-0.980329970689
 22
0.197365520213
 13
0.55946976357
 23
-0.828850760783
 74
2
 41
0.0
 41
0.0
 75
0
 74
2
 41
0.0
 41
0.0
 75
0
 11
7577712.62000000011
 21
5726469.33000000007
 12
0.169004604969
 22
0.985615261397
 13
-0.824683802506
 23
-0.565594046896
 74
2
 41
0.0
 41
0.0
 75
0
 74
2
 41
0.0
 41
0.0
 75
0
 11
7577716.0700000003
 21
5726489.45000000019
 12
0.169004604969
 22
0.985615261397
 13
-0.985615261397
 23
0.169004604969
 74
2
 41
0.0
 41
0.0
 75
0
 74
2
 41
0.0
 41
0.0
 75
0
  0
MLINE
  5
11F
100
AcDbEntity
  8
ogrodzenie
  6
L_0_15
370
35
100
AcDbMline
  2
L_0_15
340
D
 40
1.0
 70
1
 71
1
 72
2
 73
2
 10
7577716.75
 20
5726493.44000000041
210
0.0
220
0.0
230
1.0
 11
7577716.75
 21
5726493.44000000041
 12
0.168514063477
 22
0.985699249472
 13
-0.985699249472
 23
0.168514063477
 74
2
 41
0.0
 41
0.0
 75
0
 74
2
 41
0.0
 41
0.0
 75
0
 11
7577722.99000000022
 21
5726529.94000000041
 12
0.168514063477
 22
0.985699249472
 13
-0.985699249472
 23
0.168514063477
 74
2
 41
0.0
 41
0.0
 75
0
 74
2
 41
0.0
 41
0.0
 75
0
  0
POLYLINE
  5
120
100
AcDbEntity
  8
woda_pkt
  6
CONTINUOUS
370
35
100
AcDb2dPolyline
 66
1
 70
128
  0
VERTEX
  5
121
100
AcDbEntity
  8
woda_pkt
100
AcDbVertex
100
AcDb2dVertex
 10
7577735.83000000008
 20
5726523.49000000022
  0
VERTEX
  5
122
100
AcDbEntity
  8
woda_pkt
100
AcDbVertex
100
AcDb2dVertex
 10
7577733.5
 20
5726523.87999999989
  0
VERTEX
  5
123
100
AcDbEntity
  8
woda_pkt
100
AcDbVertex
100
AcDb2dVertex
 10
7577732.83000000007
 20
5726520.08999999985
  0
VERTEX
  5
124
100
AcDbEntity
  8
woda_pkt
100
AcDbVertex
100
AcDb2dVertex
 10
7577732.71999999974
 20
5726519.46999999974
  0
VERTEX
  5
125
100
AcDbEntity
  8
woda_pkt
100
AcDbVertex
100
AcDb2dVertex
 10
7577732.50999999978
 20
5726518.20999999996
  0
VERTEX
  5
126
100
AcDbEntity
  8
woda_pkt
100
AcDbVertex
100
AcDb2dVertex
 10
7577732.41999999993
 20
5726517.75999999978
  0
VERTEX
  5
127
100
AcDbEntity
  8
woda_pkt
100
AcDbVertex
100
AcDb2dVertex
 10
7577729.79000000004
 20
5726502.83999999985
  0
VERTEX
  5
128
100
AcDbEntity
  8
woda_pkt
100
AcDbVertex
100
AcDb2dVertex
 10
7577733.25
 20
5726502.29000000004
  0
SEQEND
  5
129
100
AcDbEntity
  8
woda_pkt
  0
POLYLINE
  5
12A
100
AcDbEntity
  8
woda_pkt
  6
CONTINUOUS
370
35
100
AcDb2dPolyline
 66
1
 70
128
  0
VERTEX
  5
12B
100
AcDbEntity
  8
woda_pkt
100
AcDbVertex
100
AcDb2dVertex
 10
7577735.20000000019
 20
5726519.40000000037
  0
VERTEX
  5
12C
100
AcDbEntity
  8
woda_pkt
100
AcDbVertex
100
AcDb2dVertex
 10
7577719.69000000041
 20
5726522.11000000034
  0
VERTEX
  5
12D
100
AcDbEntity
  8
woda_pkt
100
AcDbVertex
100
AcDb2dVertex
 10
7577720.37999999989
 20
5726526.08000000007
  0
SEQEND
  5
12E
100
AcDbEntity
  8
woda_pkt
  0
POLYLINE
  5
12F
100
AcDbEntity
  8
woda_pkt
  6
CONTINUOUS
370
35
100
AcDb2dPolyline
 66
1
 70
128
  0
VERTEX
  5
130
100
AcDbEntity
  8
woda_pkt
100
AcDbVertex
100
AcDb2dVertex
 10
7577734.90000000037
 20
5726517.65000000037
  0
VERTEX
  5
131
100
AcDbEntity
  8
woda_pkt
100
AcDbVertex
100
AcDb2dVertex
 10
7577731.74000000022
 20
5726518.1799999997
  0
VERTEX
  5
132
100
AcDbEntity
  8
woda_pkt
100
AcDbVertex
100
AcDb2dVertex
 10
7577726.30999999959
 20
5726486.41999999993
  0
VERTEX
  5
133
100
AcDbEntity
  8
woda_pkt
100
AcDbVertex
100
AcDb2dVertex
 10
7577730.08000000007
 20
5726485.75999999978
  0
SEQEND
  5
134
100
AcDbEntity
  8
woda_pkt
  0
POLYLINE
  5
135
100
AcDbEntity
  8
woda_pkt
  6
CONTINUOUS
370
35
100
AcDb2dPolyline
 66
1
 70
128
  0
VERTEX
  5
136
100
AcDbEntity
  8
woda_pkt
100
AcDbVertex
100
AcDb2dVertex
 10
7577726.30999999959
 20
5726486.41999999993
  0
VERTEX
  5
137
100
AcDbEntity
  8
woda_pkt
100
AcDbVertex
100
AcDb2dVertex
 10
7577725.08000000007
 20
5726479.25999999978
  0
VERTEX
  5
138
100
AcDbEntity
  8
woda_pkt
100
AcDbVertex
100
AcDb2dVertex
 10
7577721.46999999974
 20
5726479.88999999966
  0
SEQEND
  5
139
100
AcDbEntity
  8
woda_pkt
  0
POLYLINE
  5
13A
100
AcDbEntity
  8
woda_pkt
  6
CONTINUOUS
370
35
100
AcDb2dPolyline
 66
1
 70
128
  0
VERTEX
  5
13B
100
AcDbEntity
  8
woda_pkt
100
AcDbVertex
100
AcDb2dVertex
 10
7577733.00999999978
 20
5726500.73000000045
  0
VERTEX
  5
13C
100
AcDbEntity
  8
woda_pkt
100
AcDbVertex
100
AcDb2dVertex
 10
7577733.05999999959
 20
5726501.04000000004
  0
VERTEX
  5
13D
100
AcDbEntity
  8
woda_pkt
100
AcDbVertex
100
AcDb2dVertex
 10
7577733.50999999978
 20
5726503.98000000045
  0
VERTEX
  5
13E
100
AcDbEntity
  8
woda_pkt
100
AcDbVertex
100
AcDb2dVertex
 10
7577733.5700000003
 20
5726504.36000000034
  0
SEQEND
  5
13F
100
AcDbEntity
  8
woda_pkt
  0
POLYLINE
  5
140
100
AcDbEntity
  8
woda_pkt
  6
CONTINUOUS
370
35
100
AcDb2dPolyline
 66
1
 70
128
  0
VERTEX
  5
141
100
AcDbEntity
  8
woda_pkt
100
AcDbVertex
100
AcDb2dVertex
 10
7577733.94000000041
 20
5726504.3200000003
  0
VERTEX
  5
142
100
AcDbEntity
  8
woda_pkt
100
AcDbVertex
100
AcDb2dVertex
 10
7577733.87999999989
 20
5726503.91999999993
  0
VERTEX
  5
143
100
AcDbEntity
  8
woda_pkt
100
AcDbVertex
100
AcDb2dVertex
 10
7577733.75999999978
 20
5726503.12999999989
  0
VERTEX
  5
144
100
AcDbEntity
  8
woda_pkt
100
AcDbVertex
100
AcDb2dVertex
 10
7577733.4299999997
 20
5726501.0
  0
VERTEX
  5
145
100
AcDbEntity
  8
woda_pkt
100
AcDbVertex
100
AcDb2dVertex
 10
7577733.37999999989
 20
5726500.6799999997
  0
SEQEND
  5
146
100
AcDbEntity
  8
woda_pkt
  0
POLYLINE
  5
147
100
AcDbEntity
  8
woda_pkt
  6
CONTINUOUS
370
35
100
AcDb2dPolyline
 66
1
 70
128
  0
VERTEX
  5
148
100
AcDbEntity
  8
woda_pkt
100
AcDbVertex
100
AcDb2dVertex
 10
7577733.75999999978
 20
5726503.12999999989
  0
VERTEX
  5
149
100
AcDbEntity
  8
woda_pkt
100
AcDbVertex
100
AcDb2dVertex
 10
7577741.21999999974
 20
5726501.73000000045
  0
VERTEX
  5
14A
100
AcDbEntity
  8
woda_pkt
100
AcDbVertex
100
AcDb2dVertex
 10
7577744.40000000037
 20
5726518.6799999997
  0
VERTEX
  5
14B
100
AcDbEntity
  8
woda_pkt
100
AcDbVertex
100
AcDb2dVertex
 10
7577741.87999999989
 20
5726519.16000000015
  0
SEQEND
  5
14C
100
AcDbEntity
  8
woda_pkt
  0
POINT
  5
14D
100
AcDbEntity
  8
en_pkt
100
AcDbPoint
 62
256
 10
7577743.21999999974
 20
5726528.16000000015
  0
POINT
  5
14E
100
AcDbEntity
  8
en_pkt
100
AcDbPoint
 62
256
 10
7577744.38999999966
 20
5726527.96999999974
  0
POINT
  5
14F
100
AcDbEntity
  8
en_pkt
100
AcDbPoint
 62
256
 10
7577747.46999999974
 20
5726544.41000000015
  0
POINT
  5
150
100
AcDbEntity
  8
en_pkt
100
AcDbPoint
 62
256
 10
7577747.50999999978
 20
5726548.33000000007
  0
POINT
  5
151
100
AcDbEntity
  8
en_pkt
100
AcDbPoint
 62
256
 10
7577748.80999999959
 20
5726555.28000000026
  0
POINT
  5
152
100
AcDbEntity
  8
en_pkt
100
AcDbPoint
 62
256
 10
7577740.70000000019
 20
5726516.1799999997
  0
POINT
  5
153
100
AcDbEntity
  8
en_pkt
100
AcDbPoint
 62
256
 10
7577738.46999999974
 20
5726504.25999999978
  0
POINT
  5
154
100
AcDbEntity
  8
en_pkt
100
AcDbPoint
 62
256
 10
7577738.16999999993
 20
5726504.05999999959
  0
POINT
  5
155
100
AcDbEntity
  8
en_pkt
100
AcDbPoint
 62
256
 10
7577736.9299999997
 20
5726504.29000000004
  0
POINT
  5
156
100
AcDbEntity
  8
en_pkt
100
AcDbPoint
 62
256
 10
7577736.03000000026
 20
5726499.48000000045
  0
POINT
  5
157
100
AcDbEntity
  8
en_pkt
100
AcDbPoint
 62
256
 10
7577740.63999999966
 20
5726516.19000000041
  0
POINT
  5
158
100
AcDbEntity
  8
en_pkt
100
AcDbPoint
 62
256
 10
7577735.05999999959
 20
5726486.37999999989
  0
POINT
  5
159
100
AcDbEntity
  8
en_pkt
100
AcDbPoint
 62
256
 10
7577734.76999999955
 20
5726486.1799999997
  0
POINT
  5
15A
100
AcDbEntity
  8
en_pkt
100
AcDbPoint
 62
256
 10
7577731.21999999974
 20
5726486.83999999985
  0
POINT
  5
15B
100
AcDbEntity
  8
en_pkt
100
AcDbPoint
 62
256
 10
7577733.34999999963
 20
5726477.26999999955
  0
POINT
  5
15C
100
AcDbEntity
  8
en_pkt
100
AcDbPoint
 62
256
 10
7577733.05999999959
 20
5726477.0700000003
  0
POINT
  5
15D
100
AcDbEntity
  8
en_pkt
100
AcDbPoint
 62
256
 10
7577722.33999999985
 20
5726479.0700000003
  0
POINT
  5
15E
100
AcDbEntity
  8
en_pkt
100
AcDbPoint
 62
256
 10
7577740.34999999963
 20
5726516.23000000045
  0
POINT
  5
15F
100
AcDbEntity
  8
en_pkt
100
AcDbPoint
 62
256
 10
7577740.16999999993
 20
5726515.29000000004
  0
POINT
  5
160
100
AcDbEntity
  8
en_pkt
100
AcDbPoint
 62
256
 10
7577732.20000000019
 20
5726516.5
  0
POINT
  5
161
100
AcDbEntity
  8
en_pkt
100
AcDbPoint
 62
256
 10
7577731.46999999974
 20
5726516.61000000034
  0
POINT
  5
162
100
AcDbEntity
  8
en_pkt
100
AcDbPoint
 62
256
 10
7577737.58000000007
 20
5726515.6799999997
  0
POINT
  5
163
100
AcDbEntity
  8
en_pkt
100
AcDbPoint
 62
256
 10
7577721.33000000007
 20
5726518.15000000037
  0
POINT
  5
164
100
AcDbEntity
  8
en_pkt
100
AcDbPoint
 62
256
 10
7577719.6799999997
 20
5726508.54000000004
  0
POINT
  5
165
100
AcDbEntity
  8
en_pkt
100
AcDbPoint
 62
256
 10
7577720.87999999989
 20
5726507.54999999981
  0
POINT
  5
166
100
AcDbEntity
  8
inne
100
AcDbPoint
 62
256
 10
7577747.96999999974
 20
5726546.49000000022
  0
POINT
  5
167
100
AcDbEntity
  8
inne
100
AcDbPoint
 62
256
 10
7577737.24000000022
 20
5726546.58999999985
  0
POINT
  5
168
100
AcDbEntity
  8
inne
100
AcDbPoint
 62
256
 10
7577737.26999999955
 20
5726549.51999999955
  0
POINT
  5
169
100
AcDbEntity
  8
inne
100
AcDbPoint
 62
256
 10
7577748.0
 20
5726549.41999999993
  0
POINT
  5
16A
100
AcDbEntity
  8
inne
100
AcDbPoint
 62
256
 10
7577749.25999999978
 20
5726553.4299999997
  0
POINT
  5
16B
100
AcDbEntity
  8
inne
100
AcDbPoint
 62
256
 10
7577749.29000000004
 20
5726556.36000000034
  0
POINT
  5
16C
100
AcDbEntity
  8
inne
100
AcDbPoint
 62
256
 10
7577738.55999999959
 20
5726556.45999999996
  0
POINT
  5
16D
100
AcDbEntity
  8
inne
100
AcDbPoint
 62
256
 10
7577738.53000000026
 20
5726553.54000000004
  0
POINT
  5
16E
100
AcDbEntity
  8
inne
100
AcDbPoint
 62
256
 10
7577733.3200000003
 20
5726504.78000000026
  0
POINT
  5
16F
100
AcDbEntity
  8
inne
100
AcDbPoint
 62
256
 10
7577735.09999999963
 20
5726504.53000000026
  0
POINT
  5
170
100
AcDbEntity
  8
inne
100
AcDbPoint
 62
256
 10
7577734.4299999997
 20
5726500.20999999996
  0
POINT
  5
171
100
AcDbEntity
  8
inne
100
AcDbPoint
 62
256
 10
7577732.69000000041
 20
5726500.48000000045
  0
POINT
  5
172
100
AcDbEntity
  8
inne
100
AcDbPoint
 62
256
 10
7577738.91999999993
 20
5726530.04000000004
  0
POINT
  5
173
100
AcDbEntity
  8
inne
100
AcDbPoint
 62
256
 10
7577740.36000000034
 20
5726538.55999999959
  0
POINT
  5
174
100
AcDbEntity
  8
inne
100
AcDbPoint
 62
256
 10
7577730.40000000037
 20
5726540.20999999996
  0
POINT
  5
175
100
AcDbEntity
  8
inne
100
AcDbPoint
 62
256
 10
7577728.70000000019
 20
5726530.19000000041
  0
POINT
  5
176
100
AcDbEntity
  8
inne
100
AcDbPoint
 62
256
 10
7577718.0
 20
5726532.0
  0
POINT
  5
177
100
AcDbEntity
  8
inne
100
AcDbPoint
 62
256
 10
7577717.79000000004
 20
5726530.79999999981
  0
POINT
  5
178
100
AcDbEntity
  8
inne
100
AcDbPoint
 62
256
 10
7577729.61000000034
 20
5726528.79999999981
  0
POINT
  5
179
100
AcDbEntity
  8
inne
100
AcDbPoint
 62
256
 10
7577724.33000000007
 20
5726497.59999999963
  0
POINT
  5
17A
100
AcDbEntity
  8
inne
100
AcDbPoint
 62
256
 10
7577724.25
 20
5726496.70000000019
  0
POINT
  5
17B
100
AcDbEntity
  8
inne
100
AcDbPoint
 62
256
 10
7577724.04999999981
 20
5726495.96999999974
  0
POINT
  5
17C
100
AcDbEntity
  8
inne
100
AcDbPoint
 62
256
 10
7577723.71999999974
 20
5726495.20999999996
  0
POINT
  5
17D
100
AcDbEntity
  8
inne
100
AcDbPoint
 62
256
 10
7577723.25
 20
5726494.5
  0
POINT
  5
17E
100
AcDbEntity
  8
inne
100
AcDbPoint
 62
256
 10
7577722.45999999996
 20
5726493.69000000041
  0
POINT
  5
17F
100
AcDbEntity
  8
inne
100
AcDbPoint
 62
256
 10
7577721.75999999978
 20
5726493.21999999974
  0
POINT
  5
180
100
AcDbEntity
  8
inne
100
AcDbPoint
 62
256
 10
7577720.78000000026
 20
5726492.78000000026
  0
POINT
  5
181
100
AcDbEntity
  8
inne
100
AcDbPoint
 62
256
 10
7577719.5
 20
5726492.55999999959
  0
POINT
  5
182
100
AcDbEntity
  8
inne
100
AcDbPoint
 62
256
 10
7577718.59999999963
 20
5726492.58999999985
  0
POINT
  5
183
100
AcDbEntity
  8
inne
100
AcDbPoint
 62
256
 10
7577718.24000000022
 20
5726492.66000000015
  0
POINT
  5
184
100
AcDbEntity
  8
inne
100
AcDbPoint
 62
256
 10
7577716.0
 20
5726493.04000000004
  0
POINT
  5
185
100
AcDbEntity
  8
inne
100
AcDbPoint
 62
256
 10
7577715.34999999963
 20
5726493.23000000045
  0
POINT
  5
186
100
AcDbEntity
  8
inne
100
AcDbPoint
 62
256
 10
7577715.03000000026
 20
5726493.34999999963
  0
POINT
  5
187
100
AcDbEntity
  8
inne
100
AcDbPoint
 62
256
 10
7577714.70000000019
 20
5726493.5
  0
POINT
  5
188
100
AcDbEntity
  8
inne
100
AcDbPoint
 62
256
 10
7577714.37999999989
 20
5726493.70999999996
  0
POINT
  5
189
100
AcDbEntity
  8
inne
100
AcDbPoint
 62
256
 10
7577713.87000000011
 20
5726494.04999999981
  0
POINT
  5
18A
100
AcDbEntity
  8
inne
100
AcDbPoint
 62
256
 10
7577713.41000000015
 20
5726494.45000000019
  0
POINT
  5
18B
100
AcDbEntity
  8
inne
100
AcDbPoint
 62
256
 10
7577713.04000000004
 20
5726494.86000000034
  0
POINT
  5
18C
100
AcDbEntity
  8
inne
100
AcDbPoint
 62
256
 10
7577712.78000000026
 20
5726495.21999999974
  0
POINT
  5
18D
100
AcDbEntity
  8
inne
100
AcDbPoint
 62
256
 10
7577712.46999999974
 20
5726495.73000000045
  0
POINT
  5
18E
100
AcDbEntity
  8
inne
100
AcDbPoint
 62
256
 10
7577712.29000000004
 20
5726496.11000000034
  0
POINT
  5
18F
100
AcDbEntity
  8
inne
100
AcDbPoint
 62
256
 10
7577712.11000000034
 20
5726496.59999999963
  0
POINT
  5
190
100
AcDbEntity
  8
inne
100
AcDbPoint
 62
256
 10
7577711.98000000045
 20
5726497.12000000011
  0
POINT
  5
191
100
AcDbEntity
  8
inne
100
AcDbPoint
 62
256
 10
7577711.91999999993
 20
5726497.54999999981
  0
POINT
  5
192
100
AcDbEntity
  8
inne
100
AcDbPoint
 62
256
 10
7577711.87999999989
 20
5726497.98000000045
  0
POINT
  5
193
100
AcDbEntity
  8
inne
100
AcDbPoint
 62
256
 10
7577711.88999999966
 20
5726498.50999999978
  0
POINT
  5
194
100
AcDbEntity
  8
inne
100
AcDbPoint
 62
256
 10
7577709.69000000041
 20
5726486.01999999955
  0
POINT
  5
195
100
AcDbEntity
  8
inne
100
AcDbPoint
 62
256
 10
7577709.86000000034
 20
5726486.54999999981
  0
POINT
  5
196
100
AcDbEntity
  8
inne
100
AcDbPoint
 62
256
 10
7577710.11000000034
 20
5726487.12000000011
  0
POINT
  5
197
100
AcDbEntity
  8
inne
100
AcDbPoint
 62
256
 10
7577710.38999999966
 20
5726487.59999999963
  0
POINT
  5
198
100
AcDbEntity
  8
inne
100
AcDbPoint
 62
256
 10
7577710.78000000026
 20
5726488.12000000011
  0
POINT
  5
199
100
AcDbEntity
  8
inne
100
AcDbPoint
 62
256
 10
7577711.20000000019
 20
5726488.5700000003
  0
POINT
  5
19A
100
AcDbEntity
  8
inne
100
AcDbPoint
 62
256
 10
7577711.71999999974
 20
5726489.00999999978
  0
POINT
  5
19B
100
AcDbEntity
  8
inne
100
AcDbPoint
 62
256
 10
7577712.0700000003
 20
5726489.25
  0
POINT
  5
19C
100
AcDbEntity
  8
inne
100
AcDbPoint
 62
256
 10
7577712.54999999981
 20
5726489.5
  0
POINT
  5
19D
100
AcDbEntity
  8
inne
100
AcDbPoint
 62
256
 10
7577713.11000000034
 20
5726489.74000000022
  0
POINT
  5
19E
100
AcDbEntity
  8
inne
100
AcDbPoint
 62
256
 10
7577713.74000000022
 20
5726489.91999999993
  0
POINT
  5
19F
100
AcDbEntity
  8
inne
100
AcDbPoint
 62
256
 10
7577714.45000000019
 20
5726490.03000000026
  0
POINT
  5
1A0
100
AcDbEntity
  8
inne
100
AcDbPoint
 62
256
 10
7577715.28000000026
 20
5726490.04999999981
  0
POINT
  5
1A1
100
AcDbEntity
  8
inne
100
AcDbPoint
 62
256
 10
7577716.00999999978
 20
5726489.95000000019
  0
POINT
  5
1A2
100
AcDbEntity
  8
inne
100
AcDbPoint
 62
256
 10
7577717.61000000034
 20
5726489.6799999997
  0
POINT
  5
1A3
100
AcDbEntity
  8
inne
100
AcDbPoint
 62
256
 10
7577718.20999999996
 20
5726489.58000000007
  0
POINT
  5
1A4
100
AcDbEntity
  8
inne
100
AcDbPoint
 62
256
 10
7577718.87000000011
 20
5726489.37999999989
  0
POINT
  5
1A5
100
AcDbEntity
  8
inne
100
AcDbPoint
 62
256
 10
7577719.54000000004
 20
5726489.05999999959
  0
POINT
  5
1A6
100
AcDbEntity
  8
inne
100
AcDbPoint
 62
256
 10
7577720.25999999978
 20
5726488.58000000007
  0
POINT
  5
1A7
100
AcDbEntity
  8
inne
100
AcDbPoint
 62
256
 10
7577720.8200000003
 20
5726488.04000000004
  0
POINT
  5
1A8
100
AcDbEntity
  8
inne
100
AcDbPoint
 62
256
 10
7577721.33999999985
 20
5726487.36000000034
  0
POINT
  5
1A9
100
AcDbEntity
  8
inne
100
AcDbPoint
 62
256
 10
7577721.75
 20
5726486.58999999985
  0
POINT
  5
1AA
100
AcDbEntity
  8
inne
100
AcDbPoint
 62
256
 10
7577722.03000000026
 20
5726485.75999999978
  0
POINT
  5
1AB
100
AcDbEntity
  8
inne
100
AcDbPoint
 62
256
 10
7577722.12999999989
 20
5726484.63999999966
  0
POINT
  5
1AC
100
AcDbEntity
  8
inne
100
AcDbPoint
 62
256
 10
7577721.86000000034
 20
5726482.99000000022
  0
POINT
  5
1AD
100
AcDbEntity
  8
inne
100
AcDbPoint
 62
256
 10
7577721.5700000003
 20
5726481.29999999981
  0
POINT
  5
1AE
100
AcDbEntity
  8
inne
100
AcDbPoint
 62
256
 10
7577724.63999999966
 20
5726480.78000000026
  0
POINT
  5
1AF
100
AcDbEntity
  8
inne
100
AcDbPoint
 62
256
 10
7577728.45999999996
 20
5726503.36000000034
  0
POINT
  5
1B0
100
AcDbEntity
  8
inne
100
AcDbPoint
 62
256
 10
7577732.96999999974
 20
5726502.59999999963
  0
POINT
  5
1B1
100
AcDbEntity
  8
inne
100
AcDbPoint
 62
256
 10
7577733.12999999989
 20
5726503.49000000022
  0
POINT
  5
1B2
100
AcDbEntity
  8
inne
100
AcDbPoint
 62
256
 10
7577728.61000000034
 20
5726504.25
  0
POINT
  5
1B3
100
AcDbEntity
  8
inne
100
AcDbPoint
 62
256
 10
7577732.46999999974
 20
5726527.08000000007
  0
POINT
  5
1B4
100
AcDbEntity
  8
inne
100
AcDbPoint
 62
256
 10
7577736.23000000045
 20
5726526.44000000041
  0
POINT
  5
1B5
100
AcDbEntity
  8
inne
100
AcDbPoint
 62
256
 10
7577729.16999999993
 20
5726486.66999999993
  0
POINT
  5
1B6
100
AcDbEntity
  8
inne
100
AcDbPoint
 62
256
 10
7577731.0
 20
5726486.21999999974
  0
POINT
  5
1B7
100
AcDbEntity
  8
inne
100
AcDbPoint
 62
256
 10
7577730.69000000041
 20
5726484.91999999993
  0
POINT
  5
1B8
100
AcDbEntity
  8
inne
100
AcDbPoint
 62
256
 10
7577728.87000000011
 20
5726485.37000000011
  0
POINT
  5
1B9
100
AcDbEntity
  8
inne
100
AcDbPoint
 62
256
 10
7577722.44000000041
 20
5726480.33999999985
  0
POINT
  5
1BA
100
AcDbEntity
  8
inne
100
AcDbPoint
 62
256
 10
7577722.12999999989
 20
5726479.04000000004
  0
POINT
  5
1BB
100
AcDbEntity
  8
inne
100
AcDbPoint
 62
256
 10
7577720.30999999959
 20
5726479.49000000022
  0
POINT
  5
1BC
100
AcDbEntity
  8
inne
100
AcDbPoint
 62
256
 10
7577720.62000000011
 20
5726480.78000000026
  0
POINT
  5
1BD
100
AcDbEntity
  8
inne
100
AcDbPoint
 62
256
 10
7577733.16999999993
 20
5726498.19000000041
  0
POINT
  5
1BE
100
AcDbEntity
  8
inne
100
AcDbPoint
 62
256
 10
7577730.4299999997
 20
5726498.76999999955
  0
POINT
  5
1BF
100
AcDbEntity
  8
inne
100
AcDbPoint
 62
256
 10
7577735.24000000022
 20
5726500.08000000007
  0
POINT
  5
1C0
100
AcDbEntity
  8
inne
100
AcDbPoint
 62
256
 10
7577734.84999999963
 20
5726495.95999999996
  0
POINT
  5
1C1
100
AcDbEntity
  8
kanalizacja_pkt
100
AcDbPoint
 62
256
 10
7577737.73000000045
 20
5726516.66999999993
  0
POINT
  5
1C2
100
AcDbEntity
  8
kanalizacja_pkt
100
AcDbPoint
 62
256
 10
7577737.36000000034
 20
5726514.28000000026
  0
POINT
  5
1C3
100
AcDbEntity
  8
kanalizacja_pkt
100
AcDbPoint
 62
256
 10
7577734.28000000026
 20
5726504.25999999978
  0
POINT
  5
1C4
100
AcDbEntity
  8
kanalizacja_pkt
100
AcDbPoint
 62
256
 10
7577734.69000000041
 20
5726504.20000000019
  0
POINT
  5
1C5
100
AcDbEntity
  8
kanalizacja_pkt
100
AcDbPoint
 62
256
 10
7577734.16999999993
 20
5726503.45999999996
  0
POINT
  5
1C6
100
AcDbEntity
  8
kanalizacja_pkt
100
AcDbPoint
 62
256
 10
7577734.5700000003
 20
5726503.40000000037
  0
POINT
  5
1C7
100
AcDbEntity
  8
kanalizacja_pkt
100
AcDbPoint
 62
256
 10
7577734.29000000004
 20
5726501.61000000034
  0
POINT
  5
1C8
100
AcDbEntity
  8
kanalizacja_pkt
100
AcDbPoint
 62
256
 10
7577734.12999999989
 20
5726500.5700000003
  0
POINT
  5
1C9
100
AcDbEntity
  8
kanalizacja_pkt
100
AcDbPoint
 62
256
 10
7577734.24000000022
 20
5726501.25999999978
  0
POINT
  5
1CA
100
AcDbEntity
  8
kanalizacja_pkt
100
AcDbPoint
 62
256
 10
7577733.83999999985
 20
5726501.33000000007
  0
POINT
  5
1CB
100
AcDbEntity
  8
kanalizacja_pkt
100
AcDbPoint
 62
256
 10
7577733.73000000045
 20
5726500.62999999989
  0
POINT
  5
1CC
100
AcDbEntity
  8
kanalizacja_pkt
100
AcDbPoint
 62
256
 10
7577720.62999999989
 20
5726504.1799999997
  0
POINT
  5
1CD
100
AcDbEntity
  8
ogrodzenie
100
AcDbPoint
 62
256
 10
7577722.99000000022
 20
5726529.94000000041
  0
POINT
  5
1CE
100
AcDbEntity
  8
ogrodzenie
100
AcDbPoint
 62
256
 10
7577712.62000000011
 20
5726469.33000000007
  0
POINT
  5
1CF
100
AcDbEntity
  8
ogrodzenie
100
AcDbPoint
 62
256
 10
7577736.75999999978
 20
5726464.46999999974
  0
POINT
  5
1D0
100
AcDbEntity
  8
ogrodzenie
100
AcDbPoint
 62
256
 10
7577756.6799999997
 20
5726571.12999999989
  0
POINT
  5
1D1
100
AcDbEntity
  8
ogrodzenie
100
AcDbPoint
 62
256
 10
7577730.88999999966
 20
5726575.95000000019
  0
POINT
  5
1D2
100
AcDbEntity
  8
ogrodzenie
100
AcDbPoint
 62
256
 10
7577723.19000000041
 20
5726531.12000000011
  0
POINT
  5
1D3
100
AcDbEntity
  8
ogrodzenie
100
AcDbPoint
 62
256
 10
7577716.75
 20
5726493.44000000041
  0
POINT
  5
1D4
100
AcDbEntity
  8
ogrodzenie
100
AcDbPoint
 62
256
 10
7577716.0700000003
 20
5726489.45000000019
  0
POINT
  5
1D5
100
AcDbEntity
  8
woda_pkt
100
AcDbPoint
 62
256
 10
7577735.83000000008
 20
5726523.49000000022
  0
POINT
  5
1D6
100
AcDbEntity
  8
woda_pkt
100
AcDbPoint
 62
256
 10
7577733.5
 20
5726523.87999999989
  0
POINT
  5
1D7
100
AcDbEntity
  8
woda_pkt
100
AcDbPoint
 62
256
 10
7577732.83000000007
 20
5726520.08999999985
  0
POINT
  5
1D8
100
AcDbEntity
  8
woda_pkt
100
AcDbPoint
 62
256
 10
7577732.71999999974
 20
5726519.46999999974
  0
POINT
  5
1D9
100
AcDbEntity
  8
woda_pkt
100
AcDbPoint
 62
256
 10
7577732.50999999978
 20
5726518.20999999996
  0
POINT
  5
1DA
100
AcDbEntity
  8
woda_pkt
100
AcDbPoint
 62
256
 10
7577732.41999999993
 20
5726517.75999999978
  0
POINT
  5
1DB
100
AcDbEntity
  8
woda_pkt
100
AcDbPoint
 62
256
 10
7577729.79000000004
 20
5726502.83999999985
  0
POINT
  5
1DC
100
AcDbEntity
  8
woda_pkt
100
AcDbPoint
 62
256
 10
7577733.25
 20
5726502.29000000004
  0
POINT
  5
1DD
100
AcDbEntity
  8
woda_pkt
100
AcDbPoint
 62
256
 10
7577733.75999999978
 20
5726503.12999999989
  0
POINT
  5
1DE
100
AcDbEntity
  8
woda_pkt
100
AcDbPoint
 62
256
 10
7577741.21999999974
 20
5726501.73000000045
  0
POINT
  5
1DF
100
AcDbEntity
  8
woda_pkt
100
AcDbPoint
 62
256
 10
7577744.40000000037
 20
5726518.6799999997
  0
POINT
  5
1E0
100
AcDbEntity
  8
woda_pkt
100
AcDbPoint
 62
256
 10
7577741.87999999989
 20
5726519.16000000015
  0
POINT
  5
1E1
100
AcDbEntity
  8
woda_pkt
100
AcDbPoint
 62
256
 10
7577735.20000000019
 20
5726519.40000000037
  0
POINT
  5
1E2
100
AcDbEntity
  8
woda_pkt
100
AcDbPoint
 62
256
 10
7577719.69000000041
 20
5726522.11000000034
  0
POINT
  5
1E3
100
AcDbEntity
  8
woda_pkt
100
AcDbPoint
 62
256
 10
7577720.37999999989
 20
5726526.08000000007
  0
POINT
  5
1E4
100
AcDbEntity
  8
woda_pkt
100
AcDbPoint
 62
256
 10
7577734.90000000037
 20
5726517.65000000037
  0
POINT
  5
1E5
100
AcDbEntity
  8
woda_pkt
100
AcDbPoint
 62
256
 10
7577731.74000000022
 20
5726518.1799999997
  0
POINT
  5
1E6
100
AcDbEntity
  8
woda_pkt
100
AcDbPoint
 62
256
 10
7577726.30999999959
 20
5726486.41999999993
  0
POINT
  5
1E7
100
AcDbEntity
  8
woda_pkt
100
AcDbPoint
 62
256
 10
7577730.08000000007
 20
5726485.75999999978
  0
POINT
  5
1E8
100
AcDbEntity
  8
woda_pkt
100
AcDbPoint
 62
256
 10
7577725.08000000007
 20
5726479.25999999978
  0
POINT
  5
1E9
100
AcDbEntity
  8
woda_pkt
100
AcDbPoint
 62
256
 10
7577721.46999999974
 20
5726479.88999999966
  0
POINT
  5
1EA
100
AcDbEntity
  8
woda_pkt
100
AcDbPoint
 62
256
 10
7577733.5700000003
 20
5726504.36000000034
  0
POINT
  5
1EB
100
AcDbEntity
  8
woda_pkt
100
AcDbPoint
 62
256
 10
7577733.94000000041
 20
5726504.3200000003
  0
POINT
  5
1EC
100
AcDbEntity
  8
woda_pkt
100
AcDbPoint
 62
256
 10
7577733.50999999978
 20
5726503.98000000045
  0
POINT
  5
1ED
100
AcDbEntity
  8
woda_pkt
100
AcDbPoint
 62
256
 10
7577733.87999999989
 20
5726503.91999999993
  0
POINT
  5
1EE
100
AcDbEntity
  8
woda_pkt
100
AcDbPoint
 62
256
 10
7577733.37999999989
 20
5726500.6799999997
  0
POINT
  5
1EF
100
AcDbEntity
  8
woda_pkt
100
AcDbPoint
 62
256
 10
7577733.00999999978
 20
5726500.73000000045
  0
POINT
  5
1F0
100
AcDbEntity
  8
woda_pkt
100
AcDbPoint
 62
256
 10
7577733.05999999959
 20
5726501.04000000004
  0
POINT
  5
1F1
100
AcDbEntity
  8
woda_pkt
100
AcDbPoint
 62
256
 10
7577733.4299999997
 20
5726501.0
  0
ENDSEC
  0
SECTION
  2
OBJECTS
  0
DICTIONARY
  5
1F2
330
0
100
AcDbDictionary
280
0
281
1
  3
ACAD_GROUP
350
1F3
  3
ACAD_LAYOUT
350
1F4
  3
ACAD_MLINESTYLE
350
1F5
  3
ACAD_PLOTSETTINGS
350
1F6
  3
ACAD_PLOTSTYLENAME
350
1F7
  3
ACAD_WIPEOUT_VARS
350
1F8
  0
DICTIONARY
  5
1F3
102
{ACAD_REACTORS
330
1F2
102
}
330
1F2
100
AcDbDictionary
280
0
281
1
  0
DICTIONARY
  5
1F4
102
{ACAD_REACTORS
330
1F2
102
}
330
1F2
100
AcDbDictionary
280
0
281
1
  3
Layout
350
2A
  3
Model
350
28
  0
DICTIONARY
  5
1F5
102
{ACAD_REACTORS
330
1F2
102
}
330
1F2
100
AcDbDictionary
280
0
281
1
  3
Standard
350
1F9
  3
L_0_02
350
7
  3
L_0_15
350
D
  3
L_2_20
350
10
  0
DICTIONARY
  5
1F6
102
{ACAD_REACTORS
330
1F2
102
}
330
1F2
100
AcDbDictionary
280
0
281
1
  0
ACDBDICTIONARYWDFLT
  5
1F7
102
{ACAD_REACTORS
330
1F2
102
}
330
1F2
100
AcDbDictionary
281
1
  3
Normal
350
14
100
AcDbDictionaryWithDefault
340
14
  0
WIPEOUTVARIABLES
  5
1F8
102
{ACAD_REACTORS
330
1F2
102
}
330
1F2
100
AcDbWipeoutVariables
 70
0
  0
LAYOUT
  5
2A
100
AcDbPlotSettings
  1

  2

  4

  6

 40
0.0
 41
0.0
 42
0.0
 43
0.0
 44
0.0
 45
0.0
 46
0.0
 47
0.0
 48
0.0
 49
0.0
140
0.0
141
0.0
142
1.0
143
1.0
 70
688
 72
1
 73
0
 74
5
  7

 75
0
147
1.0
148
0.0
149
0.0
100
AcDbLayout
  1
Layout
 70
1
 71
1
 10
0.0
 20
0.0
 11
420.0
 21
297.0
 12
0.0
 22
0.0
 32
0.0
 14
100000000000000000000.0
 24
100000000000000000000.0
 34
100000000000000000000.0
 15
-100000000000000000000.0
 25
-100000000000000000000.0
 35
-100000000000000000000.0
146
0.0
 13
0.0
 23
0.0
 33
0.0
 16
1.0
 26
0.0
 36
0.0
 17
0.0
 27
1.0
 37
0.0
 76
0
330
29
  0
LAYOUT
  5
28
100
AcDbPlotSettings
  1

  2

  4

  6

 40
0.0
 41
0.0
 42
0.0
 43
0.0
 44
0.0
 45
0.0
 46
0.0
 47
0.0
 48
0.0
 49
0.0
140
0.0
141
0.0
142
1.0
143
1.0
 70
1712
 72
1
 73
0
 74
0
  7

 75
0
147
1.0
148
0.0
149
0.0
100
AcDbLayout
  1
Model
 70
1
 71
0
 10
0.0
 20
0.0
 11
12.0
 21
9.0
 12
0.0
 22
0.0
 32
0.0
 14
0.0
 24
0.0
 34
0.0
 15
0.0
 25
0.0
 35
0.0
146
0.0
 13
0.0
 23
0.0
 33
0.0
 16
1.0
 26
0.0
 36
0.0
 17
0.0
 27
1.0
 37
0.0
 76
0
330
27
  0
MLINESTYLE
  5
1F9
102
{ACAD_REACTORS
330
1F5
102
}
330
1F5
100
AcDbMlineStyle
  2
Standard
 70
0
  3

 62
256
 51
90.0
 52
90.0
  2
Standard
 71
2
 49
0.5
 62
256
  6
ByLayer
 49
-0.5
 62
256
  6
ByLayer
  0
MLINESTYLE
  5
7
100
AcDbMlineStyle
  2
L_0_02
 70
0
  3

 51
90.0
 52
90.0
 71
1
 49
0.0
 62
256
  6
CONTINUOUS
  0
MLINESTYLE
  5
D
100
AcDbMlineStyle
  2
L_0_15
 70
0
  3

 51
90.0
 52
90.0
 71
2
 49
0.0
 62
256
  6
CONTINUOUS
 49
0.0
 62
256
  6
L_0_15_SHX
  0
MLINESTYLE
  5
10
100
AcDbMlineStyle
  2
L_2_20
 70
0
  3

 51
90.0
 52
90.0
 71
1
 49
0.0
 62
256
  6
CONTINUOUS
  0
ACDBPLACEHOLDER
  5
14
  0
ENDSEC
  0
EOF
