  0
SECTION
  2
HEADER
  9
$ACADVER
  1
AC1018
  9
$HANDSEED
  5
FFFFFF
  9
$EXTMAX
 10
7578518.37000000011
 20
5719999.75
 30
1000000.00
  9
$EXTMIN
 10
7578442.08000000007
 20
5719883.12000000011
 30
0.00
  9
$LIMMIN
 10
7578442.08000000007
 20
5719883.12000000011
  9
$LIMMAX
 10
7578518.37000000011
 20
5719999.75
  9
$DIMASZ
 40
2.5
  9
$DIMGAP
 40
0.625
  9
$INSUNITS
 70
6
  9
$MEASUREMENT
 70
1
  9
$DIMEXO
 40
0.625
  9
$DIMTXT
 40
2.5
  9
$DIMSTYLE
  2
Standard
  9
$PLIMMIN
 10
0.0
 20
0.0
  9
$PLIMMAX
 10
210.0
 20
297.0
  9
$DIMEXE
 40
1.25
  9
$TEXTSIZE
 40
2.5
  9
$TEXTSTYLE
  7
Standard
  9
$LWDISPLAY
290
1
  9
$TDCREATE
 40
45355.491727512
  9
$TDUCREATE
 40
45355.450060856
  9
$TDUPDATE
 40
45355.491727523
  9
$TDUUPDATE
 40
45355.450060856
  9
$TDINDWG
 40
0.0
  9
$TDUSRTIMER
 40
0.0
  9
$USRTIMER
 70
1
  0
ENDSEC
  0
SECTION
  2
CLASSES
  0
CLASS
  1
WIPEOUT
  2
AcDbWipeout
  3
WipeOut
 90
127
 91
1
280
0
281
1
  0
CLASS
  1
WIPEOUTVARIABLES
  2
AcDbWipeoutVariables
  3
WipeOut
 90
0
 91
1
280
0
281
0
  0
ENDSEC
  0
SECTION
  2
TABLES
  0
TABLE
  2
VPORT
  5
1
100
AcDbSymbolTable
 70
1
  0
VPORT
  5
2
100
AcDbSymbolTableRecord
100
AcDbViewportTableRecord
  2
*ACTIVE
 70
0
 10
0.0
 20
0.0
 11
1.0
 21
1.0
 12
7578480.22
 22
5719941.44
 13
0.0
 23
0.0
 14
1.0
 24
1.0
 15
0.0
 25
0.0
 16
0.0
 26
0.0
 36
1.0
 17
0.0
 27
0.0
 37
0.0
 40
116.63
 41
0.65
 42
50.0
 43
0.0
 44
0.0
 50
0.0
 51
0.0
 71
0
 72
100
 73
1
 74
1
 75
0
 76
0
 77
0
 78
0
  0
ENDTAB
  0
TABLE
  2
LTYPE
  5
3
100
AcDbSymbolTable
 70
3
  0
LTYPE
  5
4
100
AcDbSymbolTableRecord
100
AcDbLinetypeTableRecord
  2
ByBlock
 70
0
  3

 72
65
 73
0
 40
0.0
  0
LTYPE
  5
5
100
AcDbSymbolTableRecord
100
AcDbLinetypeTableRecord
  2
ByLayer
 70
0
  3

 72
65
 73
0
 40
0.0
  0
LTYPE
  5
6
100
AcDbSymbolTableRecord
100
AcDbLinetypeTableRecord
  2
CONTINUOUS
 70
0
  3
Solid line
 72
65
 73
0
 40
0.0
  0
LTYPE
  5
8
100
AcDbSymbolTableRecord
100
AcDbLinetypeTableRecord
  2
L_0_02
 70
0
  3
Dzialka_ewidencyjna (MLineStyle)
 72
65
 73
0
 40
0.0
  0
LTYPE
  5
9
100
AcDbSymbolTableRecord
100
AcDbLinetypeTableRecord
  2
L_0_03
 70
0
  3
Uzytek_gruntowy
 72
65
 73
2
 40
1.0
 49
0.5
 74
0
 49
-0.5
 74
0
  0
LTYPE
  5
A
100
AcDbSymbolTableRecord
100
AcDbLinetypeTableRecord
  2
L_0_04
 70
0
  3
Budynek_projektowany
 72
65
 73
2
 40
1.5
 49
1.0
 74
0
 49
-0.5
 74
0
  0
LTYPE
  5
B
100
AcDbSymbolTableRecord
100
AcDbLinetypeTableRecord
  2
L_0_06
 70
0
  3
Granica_konturu_klasyfikacyjnego_Krawedz_chodnika
 72
65
 73
2
 40
2.0
 49
1.5
 74
0
 49
-0.5
 74
0
  0
LTYPE
  5
C
100
AcDbSymbolTableRecord
100
AcDbLinetypeTableRecord
  2
L_0_15_SHX
 70
0
  3
Ogrodzenie_trwale
 72
65
 73
12
 40
7.5
 49
0.0
 74
0
 49
-0.375
 74
0
 49
-0.75
 74
0
 49
-0.75
 74
0
 49
-0.75
 74
0
 49
-0.75
 74
0
 49
-0.75
 74
4
 75
1
340
D
 46
0.05
 50
0.0
 44
0.0
 45
0.0
 49
-0.75
 74
0
 49
-0.75
 74
0
 49
-0.75
 74
0
 49
-0.75
 74
0
 49
-0.375
 74
0
  0
LTYPE
  5
F
100
AcDbSymbolTableRecord
100
AcDbLinetypeTableRecord
  2
L_0_15
 70
0
  3
Ogrodzenie_trwale (MLineStyle)
 72
65
 73
0
 40
0.0
  0
LTYPE
  5
10
100
AcDbSymbolTableRecord
100
AcDbLinetypeTableRecord
  2
L_0_7E
 70
0
  3
Przepust_PSS_symbol_1_500
 72
65
 73
2
 40
1.0
 49
0.5
 74
0
 49
-0.5
 74
0
  0
LTYPE
  5
12
100
AcDbSymbolTableRecord
100
AcDbLinetypeTableRecord
  2
L_0_C5
 70
0
  3
Brama__1_500 (MLineStyle)
 72
65
 73
0
 40
0.0
  0
ENDTAB
  0
TABLE
  2
LAYER
  5
13
100
AcDbSymbolTable
 70
327
  0
LAYER
  5
14
100
AcDbSymbolTableRecord
100
AcDbLayerTableRecord
  2
0
 70
0
 62
7
  6
CONTINUOUS
370
18
390
15
  0
LAYER
  5
16
100
AcDbSymbolTableRecord
100
AcDbLayerTableRecord
  2
Dzialki
 70
0
 62
7
  6
L_0_02
370
18
390
15
  0
LAYER
  5
17
100
AcDbSymbolTableRecord
100
AcDbLayerTableRecord
  2
EADTD_T_0
 70
0
 62
214
  6
CONTINUOUS
370
25
390
15
  0
LAYER
  5
18
100
AcDbSymbolTableRecord
100
AcDbLayerTableRecord
  2
EAPADR_T_0
 70
0
 62
-214
  6
CONTINUOUS
370
18
390
15
  0
LAYER
  5
19
100
AcDbSymbolTableRecord
100
AcDbLayerTableRecord
  2
EGBA
 70
0
 62
7
  6
CONTINUOUS
370
18
390
15
  0
LAYER
  5
1A
100
AcDbSymbolTableRecord
100
AcDbLayerTableRecord
  2
EGBB_E_T_0
 70
0
 62
7
  6
CONTINUOUS
370
13
390
15
  0
LAYER
  5
1B
100
AcDbSymbolTableRecord
100
AcDbLayerTableRecord
  2
EGBB_E_T_1
 70
0
 62
-7
  6
CONTINUOUS
370
18
390
15
  0
LAYER
  5
1C
100
AcDbSymbolTableRecord
100
AcDbLayerTableRecord
  2
EGBB_L_0
 70
0
 62
7
  6
CONTINUOUS
370
50
390
15
  0
LAYER
  5
1D
100
AcDbSymbolTableRecord
100
AcDbLayerTableRecord
  2
EGBC_L_3
 70
0
 62
7
  6
CONTINUOUS
370
50
390
15
  0
LAYER
  5
1E
100
AcDbSymbolTableRecord
100
AcDbLayerTableRecord
  2
EGBD
 70
0
 62
7
  6
CONTINUOUS
370
18
390
15
  0
LAYER
  5
1F
100
AcDbSymbolTableRecord
100
AcDbLayerTableRecord
  2
EGBE_L_0
 70
0
 62
7
  6
CONTINUOUS
370
18
390
15
  0
LAYER
  5
20
100
AcDbSymbolTableRecord
100
AcDbLayerTableRecord
  2
EGBE_L_3
 70
0
 62
7
  6
CONTINUOUS
370
18
390
15
  0
LAYER
  5
21
100
AcDbSymbolTableRecord
100
AcDbLayerTableRecord
  2
EGBI
 70
0
 62
7
  6
CONTINUOUS
370
18
390
15
  0
LAYER
  5
22
100
AcDbSymbolTableRecord
100
AcDbLayerTableRecord
  2
EGBJ
 70
0
 62
7
  6
CONTINUOUS
370
18
390
15
  0
LAYER
  5
23
100
AcDbSymbolTableRecord
100
AcDbLayerTableRecord
  2
EGBL
 70
0
 62
7
  6
CONTINUOUS
370
18
390
15
  0
LAYER
  5
24
100
AcDbSymbolTableRecord
100
AcDbLayerTableRecord
  2
EGBN
 70
0
 62
7
  6
CONTINUOUS
370
13
390
15
  0
LAYER
  5
25
100
AcDbSymbolTableRecord
100
AcDbLayerTableRecord
  2
EGBO
 70
0
 62
7
  6
CONTINUOUS
370
18
390
15
  0
LAYER
  5
26
100
AcDbSymbolTableRecord
100
AcDbLayerTableRecord
  2
EGBO_P
 70
0
 62
7
  6
CONTINUOUS
370
18
390
15
  0
LAYER
  5
27
100
AcDbSymbolTableRecord
100
AcDbLayerTableRecord
  2
EGBP
 70
0
 62
7
  6
CONTINUOUS
370
18
390
15
  0
LAYER
  5
28
100
AcDbSymbolTableRecord
100
AcDbLayerTableRecord
  2
EGBR
 70
0
 62
7
  6
CONTINUOUS
370
18
390
15
  0
LAYER
  5
29
100
AcDbSymbolTableRecord
100
AcDbLayerTableRecord
  2
EGBS
 70
0
 62
7
  6
CONTINUOUS
370
18
390
15
  0
LAYER
  5
2A
100
AcDbSymbolTableRecord
100
AcDbLayerTableRecord
  2
EGBT
 70
0
 62
7
  6
CONTINUOUS
370
18
390
15
  0
LAYER
  5
2B
100
AcDbSymbolTableRecord
100
AcDbLayerTableRecord
  2
EGBU
 70
0
 62
7
  6
CONTINUOUS
370
13
390
15
  0
LAYER
  5
2C
100
AcDbSymbolTableRecord
100
AcDbLayerTableRecord
  2
EGBW
 70
0
 62
7
  6
CONTINUOUS
370
18
390
15
  0
LAYER
  5
2D
100
AcDbSymbolTableRecord
100
AcDbLayerTableRecord
  2
EGBY
 70
0
 62
7
  6
CONTINUOUS
370
18
390
15
  0
LAYER
  5
2E
100
AcDbSymbolTableRecord
100
AcDbLayerTableRecord
  2
EGBZ
 70
0
 62
7
  6
CONTINUOUS
370
18
390
15
  0
LAYER
  5
2F
100
AcDbSymbolTableRecord
100
AcDbLayerTableRecord
  2
EGB_AdresNieruchomosci
 70
0
 62
7
  6
CONTINUOUS
370
18
390
15
  0
LAYER
  5
30
100
AcDbSymbolTableRecord
100
AcDbLayerTableRecord
  2
EGB_BlokBudynku
 70
0
 62
7
  6
CONTINUOUS
370
18
390
15
  0
LAYER
  5
31
100
AcDbSymbolTableRecord
100
AcDbLayerTableRecord
  2
EGB_Budynek
 70
0
 62
7
  6
CONTINUOUS
370
50
390
15
  0
LAYER
  5
32
100
AcDbSymbolTableRecord
100
AcDbLayerTableRecord
  2
EGB_DzialkaEwidencyjna
 70
0
 62
7
  6
L_0_02
370
18
390
15
  0
LAYER
  5
33
100
AcDbSymbolTableRecord
100
AcDbLayerTableRecord
  2
EGB_JednostkaEwidencyjna
 70
0
 62
7
  6
CONTINUOUS
370
18
390
15
  0
LAYER
  5
34
100
AcDbSymbolTableRecord
100
AcDbLayerTableRecord
  2
EGB_Klasouzytek
 70
0
 62
96
  6
L_0_03
370
18
390
15
  0
LAYER
  5
35
100
AcDbSymbolTableRecord
100
AcDbLayerTableRecord
  2
EGB_KonturKlasyfikacyjny
 70
0
 62
96
  6
L_0_06
370
18
390
15
  0
LAYER
  5
36
100
AcDbSymbolTableRecord
100
AcDbLayerTableRecord
  2
EGB_KonturUzytkuGruntowego
 70
0
 62
96
  6
L_0_03
370
18
390
15
  0
LAYER
  5
37
100
AcDbSymbolTableRecord
100
AcDbLayerTableRecord
  2
EGB_ObiektTrwaleZwiazanyZBudynkiem
 70
0
 62
7
  6
CONTINUOUS
370
18
390
15
  0
LAYER
  5
38
100
AcDbSymbolTableRecord
100
AcDbLayerTableRecord
  2
EGB_ObiektTrwaleZwiazanyZBudynkiem_P
 70
0
 62
7
  6
CONTINUOUS
370
18
390
15
  0
LAYER
  5
39
100
AcDbSymbolTableRecord
100
AcDbLayerTableRecord
  2
EGB_ObrebEwidencyjny
 70
0
 62
7
  6
CONTINUOUS
370
18
390
15
  0
LAYER
  5
3A
100
AcDbSymbolTableRecord
100
AcDbLayerTableRecord
  2
EGB_PunktGraniczny
 70
0
 62
7
  6
CONTINUOUS
370
18
390
15
  0
LAYER
  5
3B
100
AcDbSymbolTableRecord
100
AcDbLayerTableRecord
  2
EGDE
 70
0
 62
7
  6
CONTINUOUS
370
13
390
15
  0
LAYER
  5
3C
100
AcDbSymbolTableRecord
100
AcDbLayerTableRecord
  2
EGJE
 70
0
 62
7
  6
CONTINUOUS
370
13
390
15
  0
LAYER
  5
3D
100
AcDbSymbolTableRecord
100
AcDbLayerTableRecord
  2
EGKK
 70
0
 62
7
  6
CONTINUOUS
370
13
390
15
  0
LAYER
  5
3E
100
AcDbSymbolTableRecord
100
AcDbLayerTableRecord
  2
EGOE
 70
0
 62
7
  6
CONTINUOUS
370
13
390
15
  0
LAYER
  5
3F
100
AcDbSymbolTableRecord
100
AcDbLayerTableRecord
  2
EGPG_N
 70
0
 62
7
  6
CONTINUOUS
370
13
390
15
  0
LAYER
  5
40
100
AcDbSymbolTableRecord
100
AcDbLayerTableRecord
  2
EGUG
 70
0
 62
7
  6
CONTINUOUS
370
13
390
15
  0
LAYER
  5
41
100
AcDbSymbolTableRecord
100
AcDbLayerTableRecord
  2
GES_InneUrzadzeniaTowarzyszace
 70
0
 62
7
  6
CONTINUOUS
370
18
390
15
  0
LAYER
  5
42
100
AcDbSymbolTableRecord
100
AcDbLayerTableRecord
  2
GES_InneUrzadzeniaTowarzyszace_Projektowane
 70
0
 62
7
  6
CONTINUOUS
370
18
390
15
  0
LAYER
  5
43
100
AcDbSymbolTableRecord
100
AcDbLayerTableRecord
  2
GES_InneUrzadzeniaTowarzyszace_P
 70
0
 62
7
  6
CONTINUOUS
370
18
390
15
  0
LAYER
  5
44
100
AcDbSymbolTableRecord
100
AcDbLayerTableRecord
  2
GES_InneUrzadzeniaTowarzyszace_P_Projektowane
 70
0
 62
7
  6
CONTINUOUS
370
18
390
15
  0
LAYER
  5
45
100
AcDbSymbolTableRecord
100
AcDbLayerTableRecord
  2
GES_PrzewodCieplowniczy
 70
0
 62
212
  6
CONTINUOUS
370
18
390
15
  0
LAYER
  5
46
100
AcDbSymbolTableRecord
100
AcDbLayerTableRecord
  2
GES_PrzewodCieplowniczy_Projektowany
 70
0
 62
7
  6
CONTINUOUS
370
18
390
15
  0
LAYER
  5
47
100
AcDbSymbolTableRecord
100
AcDbLayerTableRecord
  2
GES_PrzewodElektroenergetyczny
 70
0
 62
1
  6
CONTINUOUS
370
18
390
15
  0
LAYER
  5
48
100
AcDbSymbolTableRecord
100
AcDbLayerTableRecord
  2
GES_PrzewodElektroenergetyczny_Projektowany
 70
0
 62
7
  6
CONTINUOUS
370
18
390
15
  0
LAYER
  5
49
100
AcDbSymbolTableRecord
100
AcDbLayerTableRecord
  2
GES_PrzewodGazowy
 70
0
 62
52
  6
CONTINUOUS
370
18
390
15
  0
LAYER
  5
4A
100
AcDbSymbolTableRecord
100
AcDbLayerTableRecord
  2
GES_PrzewodGazowy_Projektowany
 70
0
 62
7
  6
CONTINUOUS
370
18
390
15
  0
LAYER
  5
4B
100
AcDbSymbolTableRecord
100
AcDbLayerTableRecord
  2
GES_PrzewodKanalizacyjny
 70
0
 62
36
  6
CONTINUOUS
370
18
390
15
  0
LAYER
  5
4C
100
AcDbSymbolTableRecord
100
AcDbLayerTableRecord
  2
GES_PrzewodKanalizacyjny_Projektowany
 70
0
 62
7
  6
CONTINUOUS
370
18
390
15
  0
LAYER
  5
4D
100
AcDbSymbolTableRecord
100
AcDbLayerTableRecord
  2
GES_PrzewodNiezidentyfikowany
 70
0
 62
7
  6
CONTINUOUS
370
18
390
15
  0
LAYER
  5
4E
100
AcDbSymbolTableRecord
100
AcDbLayerTableRecord
  2
GES_PrzewodNiezidentyfikowany_Projektowany
 70
0
 62
7
  6
CONTINUOUS
370
18
390
15
  0
LAYER
  5
4F
100
AcDbSymbolTableRecord
100
AcDbLayerTableRecord
  2
GES_PrzewodSpecjalny
 70
0
 62
7
  6
CONTINUOUS
370
18
390
15
  0
LAYER
  5
50
100
AcDbSymbolTableRecord
100
AcDbLayerTableRecord
  2
GES_PrzewodSpecjalny_Projektowany
 70
0
 62
7
  6
CONTINUOUS
370
18
390
15
  0
LAYER
  5
51
100
AcDbSymbolTableRecord
100
AcDbLayerTableRecord
  2
GES_PrzewodTelekomunikacyjny
 70
0
 62
30
  6
CONTINUOUS
370
18
390
15
  0
LAYER
  5
52
100
AcDbSymbolTableRecord
100
AcDbLayerTableRecord
  2
GES_PrzewodTelekomunikacyjny_Projektowany
 70
0
 62
7
  6
CONTINUOUS
370
18
390
15
  0
LAYER
  5
53
100
AcDbSymbolTableRecord
100
AcDbLayerTableRecord
  2
GES_PrzewodWodociagowy
 70
0
 62
5
  6
CONTINUOUS
370
18
390
15
  0
LAYER
  5
54
100
AcDbSymbolTableRecord
100
AcDbLayerTableRecord
  2
GES_PrzewodWodociagowy_Projektowany
 70
0
 62
7
  6
CONTINUOUS
370
18
390
15
  0
LAYER
  5
55
100
AcDbSymbolTableRecord
100
AcDbLayerTableRecord
  2
GES_Rzedna
 70
0
 62
7
  6
CONTINUOUS
370
18
390
15
  0
LAYER
  5
56
100
AcDbSymbolTableRecord
100
AcDbLayerTableRecord
  2
GES_UrzadzeniaSiecCieplownicza
 70
0
 62
7
  6
CONTINUOUS
370
18
390
15
  0
LAYER
  5
57
100
AcDbSymbolTableRecord
100
AcDbLayerTableRecord
  2
GES_UrzadzeniaSiecCieplownicza_Projektowane
 70
0
 62
7
  6
CONTINUOUS
370
18
390
15
  0
LAYER
  5
58
100
AcDbSymbolTableRecord
100
AcDbLayerTableRecord
  2
GES_UrzadzeniaSiecCieplownicza_P
 70
0
 62
7
  6
CONTINUOUS
370
18
390
15
  0
LAYER
  5
59
100
AcDbSymbolTableRecord
100
AcDbLayerTableRecord
  2
GES_UrzadzeniaSiecCieplownicza_P_Projektowane
 70
0
 62
7
  6
CONTINUOUS
370
18
390
15
  0
LAYER
  5
5A
100
AcDbSymbolTableRecord
100
AcDbLayerTableRecord
  2
GES_UrzadzeniaSiecElektroenergetyczna
 70
0
 62
7
  6
CONTINUOUS
370
18
390
15
  0
LAYER
  5
5B
100
AcDbSymbolTableRecord
100
AcDbLayerTableRecord
  2
GES_UrzadzeniaSiecElektroenergetyczna_Projektowane
 70
0
 62
7
  6
CONTINUOUS
370
18
390
15
  0
LAYER
  5
5C
100
AcDbSymbolTableRecord
100
AcDbLayerTableRecord
  2
GES_UrzadzeniaSiecElektroenergetyczna_P
 70
0
 62
7
  6
CONTINUOUS
370
18
390
15
  0
LAYER
  5
5D
100
AcDbSymbolTableRecord
100
AcDbLayerTableRecord
  2
GES_UrzadzeniaSiecElektroenergetyczna_P_Projektowane
 70
0
 62
7
  6
CONTINUOUS
370
18
390
15
  0
LAYER
  5
5E
100
AcDbSymbolTableRecord
100
AcDbLayerTableRecord
  2
GES_UrzadzeniaSiecGazowa
 70
0
 62
7
  6
CONTINUOUS
370
18
390
15
  0
LAYER
  5
5F
100
AcDbSymbolTableRecord
100
AcDbLayerTableRecord
  2
GES_UrzadzeniaSiecGazowa_Projektowane
 70
0
 62
7
  6
CONTINUOUS
370
18
390
15
  0
LAYER
  5
60
100
AcDbSymbolTableRecord
100
AcDbLayerTableRecord
  2
GES_UrzadzeniaSiecGazowa_P
 70
0
 62
7
  6
CONTINUOUS
370
18
390
15
  0
LAYER
  5
61
100
AcDbSymbolTableRecord
100
AcDbLayerTableRecord
  2
GES_UrzadzeniaSiecGazowa_P_Projektowane
 70
0
 62
7
  6
CONTINUOUS
370
18
390
15
  0
LAYER
  5
62
100
AcDbSymbolTableRecord
100
AcDbLayerTableRecord
  2
GES_UrzadzeniaSiecKanalizacyjna
 70
0
 62
7
  6
CONTINUOUS
370
18
390
15
  0
LAYER
  5
63
100
AcDbSymbolTableRecord
100
AcDbLayerTableRecord
  2
GES_UrzadzeniaSiecKanalizacyjna_Projektowane
 70
0
 62
7
  6
CONTINUOUS
370
18
390
15
  0
LAYER
  5
64
100
AcDbSymbolTableRecord
100
AcDbLayerTableRecord
  2
GES_UrzadzeniaSiecKanalizacyjna_P
 70
0
 62
7
  6
CONTINUOUS
370
18
390
15
  0
LAYER
  5
65
100
AcDbSymbolTableRecord
100
AcDbLayerTableRecord
  2
GES_UrzadzeniaSiecKanalizacyjna_P_Projektowane
 70
0
 62
7
  6
CONTINUOUS
370
18
390
15
  0
LAYER
  5
66
100
AcDbSymbolTableRecord
100
AcDbLayerTableRecord
  2
GES_UrzadzeniaSiecTelekomunikacyjna
 70
0
 62
7
  6
CONTINUOUS
370
18
390
15
  0
LAYER
  5
67
100
AcDbSymbolTableRecord
100
AcDbLayerTableRecord
  2
GES_UrzadzeniaSiecTelekomunikacyjna_Projektowane
 70
0
 62
7
  6
CONTINUOUS
370
18
390
15
  0
LAYER
  5
68
100
AcDbSymbolTableRecord
100
AcDbLayerTableRecord
  2
GES_UrzadzeniaSiecTelekomunikacyjna_P
 70
0
 62
7
  6
CONTINUOUS
370
18
390
15
  0
LAYER
  5
69
100
AcDbSymbolTableRecord
100
AcDbLayerTableRecord
  2
GES_UrzadzeniaSiecTelekomunikacyjna_P_Projektowane
 70
0
 62
7
  6
CONTINUOUS
370
18
390
15
  0
LAYER
  5
6A
100
AcDbSymbolTableRecord
100
AcDbLayerTableRecord
  2
GES_UrzadzeniaSiecWodociagowa
 70
0
 62
7
  6
CONTINUOUS
370
18
390
15
  0
LAYER
  5
6B
100
AcDbSymbolTableRecord
100
AcDbLayerTableRecord
  2
GES_UrzadzeniaSiecWodociagowa_Projektowane
 70
0
 62
7
  6
CONTINUOUS
370
18
390
15
  0
LAYER
  5
6C
100
AcDbSymbolTableRecord
100
AcDbLayerTableRecord
  2
GES_UrzadzeniaSiecWodociagowa_P
 70
0
 62
7
  6
CONTINUOUS
370
18
390
15
  0
LAYER
  5
6D
100
AcDbSymbolTableRecord
100
AcDbLayerTableRecord
  2
GES_UrzadzeniaSiecWodociagowa_P_Projektowane
 70
0
 62
7
  6
CONTINUOUS
370
18
390
15
  0
LAYER
  5
6E
100
AcDbSymbolTableRecord
100
AcDbLayerTableRecord
  2
GES_UrzadzeniaTechniczneSieciSpecjalnej
 70
0
 62
7
  6
CONTINUOUS
370
18
390
15
  0
LAYER
  5
6F
100
AcDbSymbolTableRecord
100
AcDbLayerTableRecord
  2
GES_UrzadzeniaTechniczneSieciSpecjalnej_Projektowane
 70
0
 62
7
  6
CONTINUOUS
370
18
390
15
  0
LAYER
  5
70
100
AcDbSymbolTableRecord
100
AcDbLayerTableRecord
  2
GES_UrzadzeniaTechniczneSieciSpecjalnej_P
 70
0
 62
7
  6
CONTINUOUS
370
18
390
15
  0
LAYER
  5
71
100
AcDbSymbolTableRecord
100
AcDbLayerTableRecord
  2
GES_UrzadzeniaTechniczneSieciSpecjalnej_P_Projektowane
 70
0
 62
7
  6
CONTINUOUS
370
18
390
15
  0
LAYER
  5
72
100
AcDbSymbolTableRecord
100
AcDbLayerTableRecord
  2
GES_UrzadzeniaTowarzyszczaceLiniowe
 70
0
 62
7
  6
CONTINUOUS
370
18
390
15
  0
LAYER
  5
73
100
AcDbSymbolTableRecord
100
AcDbLayerTableRecord
  2
GES_UrzadzeniaTowarzyszczaceLiniowe_Projektowane
 70
0
 62
7
  6
CONTINUOUS
370
18
390
15
  0
LAYER
  5
74
100
AcDbSymbolTableRecord
100
AcDbLayerTableRecord
  2
GES_UrzadzenieNiezidentyfikowane
 70
0
 62
7
  6
CONTINUOUS
370
18
390
15
  0
LAYER
  5
75
100
AcDbSymbolTableRecord
100
AcDbLayerTableRecord
  2
GES_UrzadzenieNiezidentyfikowane_Projektowane
 70
0
 62
7
  6
CONTINUOUS
370
18
390
15
  0
LAYER
  5
76
100
AcDbSymbolTableRecord
100
AcDbLayerTableRecord
  2
GES_UrzadzenieNiezidentyfikowane_P
 70
0
 62
7
  6
CONTINUOUS
370
18
390
15
  0
LAYER
  5
77
100
AcDbSymbolTableRecord
100
AcDbLayerTableRecord
  2
GES_UrzadzenieNiezidentyfikowane_P_Projektowane
 70
0
 62
7
  6
CONTINUOUS
370
18
390
15
  0
LAYER
  5
78
100
AcDbSymbolTableRecord
100
AcDbLayerTableRecord
  2
Kontury
 70
0
 62
96
  6
L_0_06
370
18
390
15
  0
LAYER
  5
79
100
AcDbSymbolTableRecord
100
AcDbLayerTableRecord
  2
KR_ObiektKarto
 70
0
 62
7
  6
CONTINUOUS
370
18
390
15
  0
LAYER
  5
7A
100
AcDbSymbolTableRecord
100
AcDbLayerTableRecord
  2
KR_ObiektKarto_P
 70
0
 62
7
  6
CONTINUOUS
370
18
390
15
  0
LAYER
  5
7B
100
AcDbSymbolTableRecord
100
AcDbLayerTableRecord
  2
KR_Punkty
 70
0
 62
7
  6
CONTINUOUS
370
13
390
15
  0
LAYER
  5
7C
100
AcDbSymbolTableRecord
100
AcDbLayerTableRecord
  2
Numery_dzialek
 70
0
 62
7
  6
CONTINUOUS
370
18
390
15
  0
LAYER
  5
7D
100
AcDbSymbolTableRecord
100
AcDbLayerTableRecord
  2
Numery_konturow
 70
0
 62
96
  6
CONTINUOUS
370
18
390
15
  0
LAYER
  5
7E
100
AcDbSymbolTableRecord
100
AcDbLayerTableRecord
  2
Numery_punktow
 70
0
 62
-7
  6
CONTINUOUS
370
13
390
15
  0
LAYER
  5
7F
100
AcDbSymbolTableRecord
100
AcDbLayerTableRecord
  2
Numery_uzytkow
 70
0
 62
96
  6
L_0_03
370
13
390
15
  0
LAYER
  5
80
100
AcDbSymbolTableRecord
100
AcDbLayerTableRecord
  2
OSGB
 70
0
 62
7
  6
CONTINUOUS
370
18
390
15
  0
LAYER
  5
81
100
AcDbSymbolTableRecord
100
AcDbLayerTableRecord
  2
OSGF
 70
0
 62
7
  6
CONTINUOUS
370
18
390
15
  0
LAYER
  5
82
100
AcDbSymbolTableRecord
100
AcDbLayerTableRecord
  2
OSHB
 70
0
 62
7
  6
CONTINUOUS
370
18
390
15
  0
LAYER
  5
83
100
AcDbSymbolTableRecord
100
AcDbLayerTableRecord
  2
OSHF
 70
0
 62
7
  6
CONTINUOUS
370
18
390
15
  0
LAYER
  5
84
100
AcDbSymbolTableRecord
100
AcDbLayerTableRecord
  2
OSMB
 70
0
 62
7
  6
CONTINUOUS
370
18
390
15
  0
LAYER
  5
85
100
AcDbSymbolTableRecord
100
AcDbLayerTableRecord
  2
OSMF
 70
0
 62
7
  6
CONTINUOUS
370
18
390
15
  0
LAYER
  5
86
100
AcDbSymbolTableRecord
100
AcDbLayerTableRecord
  2
OSPB
 70
0
 62
7
  6
CONTINUOUS
370
18
390
15
  0
LAYER
  5
87
100
AcDbSymbolTableRecord
100
AcDbLayerTableRecord
  2
OSPF
 70
0
 62
7
  6
CONTINUOUS
370
18
390
15
  0
LAYER
  5
88
100
AcDbSymbolTableRecord
100
AcDbLayerTableRecord
  2
OSSH
 70
0
 62
7
  6
CONTINUOUS
370
18
390
15
  0
LAYER
  5
89
100
AcDbSymbolTableRecord
100
AcDbLayerTableRecord
  2
OSSP
 70
0
 62
7
  6
CONTINUOUS
370
18
390
15
  0
LAYER
  5
8A
100
AcDbSymbolTableRecord
100
AcDbLayerTableRecord
  2
OS_PunktOsnowyGrawimetrycznej
 70
0
 62
7
  6
CONTINUOUS
370
18
390
15
  0
LAYER
  5
8B
100
AcDbSymbolTableRecord
100
AcDbLayerTableRecord
  2
OS_PunktOsnowyMagnetycznej
 70
0
 62
7
  6
CONTINUOUS
370
18
390
15
  0
LAYER
  5
8C
100
AcDbSymbolTableRecord
100
AcDbLayerTableRecord
  2
OS_PunktOsnowyPoziomej
 70
0
 62
7
  6
CONTINUOUS
370
18
390
15
  0
LAYER
  5
8D
100
AcDbSymbolTableRecord
100
AcDbLayerTableRecord
  2
OS_PunktOsnowyWysokosciowej
 70
0
 62
7
  6
CONTINUOUS
370
18
390
15
  0
LAYER
  5
8E
100
AcDbSymbolTableRecord
100
AcDbLayerTableRecord
  2
OTBA
 70
0
 62
7
  6
CONTINUOUS
370
18
390
15
  0
LAYER
  5
8F
100
AcDbSymbolTableRecord
100
AcDbLayerTableRecord
  2
OTBB
 70
0
 62
7
  6
CONTINUOUS
370
18
390
15
  0
LAYER
  5
90
100
AcDbSymbolTableRecord
100
AcDbLayerTableRecord
  2
OTBD
 70
0
 62
7
  6
CONTINUOUS
370
18
390
15
  0
LAYER
  5
91
100
AcDbSymbolTableRecord
100
AcDbLayerTableRecord
  2
OTBI
 70
0
 62
7
  6
CONTINUOUS
370
18
390
15
  0
LAYER
  5
92
100
AcDbSymbolTableRecord
100
AcDbLayerTableRecord
  2
OTBJ
 70
0
 62
7
  6
CONTINUOUS
370
18
390
15
  0
LAYER
  5
93
100
AcDbSymbolTableRecord
100
AcDbLayerTableRecord
  2
OTBL
 70
0
 62
7
  6
CONTINUOUS
370
18
390
15
  0
LAYER
  5
94
100
AcDbSymbolTableRecord
100
AcDbLayerTableRecord
  2
OTBN
 70
0
 62
7
  6
CONTINUOUS
370
18
390
15
  0
LAYER
  5
95
100
AcDbSymbolTableRecord
100
AcDbLayerTableRecord
  2
OTBO
 70
0
 62
7
  6
CONTINUOUS
370
18
390
15
  0
LAYER
  5
96
100
AcDbSymbolTableRecord
100
AcDbLayerTableRecord
  2
OTBO_P
 70
0
 62
7
  6
CONTINUOUS
370
18
390
15
  0
LAYER
  5
97
100
AcDbSymbolTableRecord
100
AcDbLayerTableRecord
  2
OTBP
 70
0
 62
7
  6
CONTINUOUS
370
18
390
15
  0
LAYER
  5
98
100
AcDbSymbolTableRecord
100
AcDbLayerTableRecord
  2
OTBR
 70
0
 62
7
  6
CONTINUOUS
370
18
390
15
  0
LAYER
  5
99
100
AcDbSymbolTableRecord
100
AcDbLayerTableRecord
  2
OTBS
 70
0
 62
7
  6
CONTINUOUS
370
18
390
15
  0
LAYER
  5
9A
100
AcDbSymbolTableRecord
100
AcDbLayerTableRecord
  2
OTBT
 70
0
 62
7
  6
CONTINUOUS
370
18
390
15
  0
LAYER
  5
9B
100
AcDbSymbolTableRecord
100
AcDbLayerTableRecord
  2
OTBU
 70
0
 62
7
  6
CONTINUOUS
370
18
390
15
  0
LAYER
  5
9C
100
AcDbSymbolTableRecord
100
AcDbLayerTableRecord
  2
OTBW
 70
0
 62
7
  6
CONTINUOUS
370
18
390
15
  0
LAYER
  5
9D
100
AcDbSymbolTableRecord
100
AcDbLayerTableRecord
  2
OTBY
 70
0
 62
7
  6
CONTINUOUS
370
18
390
15
  0
LAYER
  5
9E
100
AcDbSymbolTableRecord
100
AcDbLayerTableRecord
  2
OTBZ
 70
0
 62
7
  6
CONTINUOUS
370
18
390
15
  0
LAYER
  5
9F
100
AcDbSymbolTableRecord
100
AcDbLayerTableRecord
  2
OTDA
 70
0
 62
7
  6
CONTINUOUS
370
13
390
15
  0
LAYER
  5
A0
100
AcDbSymbolTableRecord
100
AcDbLayerTableRecord
  2
OTDB
 70
0
 62
7
  6
CONTINUOUS
370
13
390
15
  0
LAYER
  5
A1
100
AcDbSymbolTableRecord
100
AcDbLayerTableRecord
  2
OTDC
 70
0
 62
7
  6
CONTINUOUS
370
18
390
15
  0
LAYER
  5
A2
100
AcDbSymbolTableRecord
100
AcDbLayerTableRecord
  2
OTDD
 70
0
 62
7
  6
CONTINUOUS
370
18
390
15
  0
LAYER
  5
A3
100
AcDbSymbolTableRecord
100
AcDbLayerTableRecord
  2
OTDD_P
 70
0
 62
7
  6
CONTINUOUS
370
18
390
15
  0
LAYER
  5
A4
100
AcDbSymbolTableRecord
100
AcDbLayerTableRecord
  2
OTDF
 70
0
 62
7
  6
CONTINUOUS
370
18
390
15
  0
LAYER
  5
A5
100
AcDbSymbolTableRecord
100
AcDbLayerTableRecord
  2
OTDI
 70
0
 62
7
  6
CONTINUOUS
370
13
390
15
  0
LAYER
  5
A6
100
AcDbSymbolTableRecord
100
AcDbLayerTableRecord
  2
OTDI_P
 70
0
 62
7
  6
CONTINUOUS
370
13
390
15
  0
LAYER
  5
A7
100
AcDbSymbolTableRecord
100
AcDbLayerTableRecord
  2
OTDK
 70
0
 62
7
  6
CONTINUOUS
370
18
390
15
  0
LAYER
  5
A8
100
AcDbSymbolTableRecord
100
AcDbLayerTableRecord
  2
OTDM
 70
0
 62
7
  6
CONTINUOUS
370
18
390
15
  0
LAYER
  5
A9
100
AcDbSymbolTableRecord
100
AcDbLayerTableRecord
  2
OTDN
 70
0
 62
7
  6
CONTINUOUS
370
13
390
15
  0
LAYER
  5
AA
100
AcDbSymbolTableRecord
100
AcDbLayerTableRecord
  2
OTDO
 70
0
 62
7
  6
CONTINUOUS
370
18
390
15
  0
LAYER
  5
AB
100
AcDbSymbolTableRecord
100
AcDbLayerTableRecord
  2
OTDR
 70
0
 62
7
  6
CONTINUOUS
370
13
390
15
  0
LAYER
  5
AC
100
AcDbSymbolTableRecord
100
AcDbLayerTableRecord
  2
OTDS
 70
0
 62
7
  6
CONTINUOUS
370
18
390
15
  0
LAYER
  5
AD
100
AcDbSymbolTableRecord
100
AcDbLayerTableRecord
  2
OTDT_P
 70
0
 62
7
  6
CONTINUOUS
370
18
390
15
  0
LAYER
  5
AE
100
AcDbSymbolTableRecord
100
AcDbLayerTableRecord
  2
OTDW
 70
0
 62
7
  6
CONTINUOUS
370
18
390
15
  0
LAYER
  5
AF
100
AcDbSymbolTableRecord
100
AcDbLayerTableRecord
  2
OTDZ
 70
0
 62
7
  6
CONTINUOUS
370
18
390
15
  0
LAYER
  5
B0
100
AcDbSymbolTableRecord
100
AcDbLayerTableRecord
  2
OTKA
 70
0
 62
7
  6
CONTINUOUS
370
18
390
15
  0
LAYER
  5
B1
100
AcDbSymbolTableRecord
100
AcDbLayerTableRecord
  2
OTKB
 70
0
 62
7
  6
CONTINUOUS
370
18
390
15
  0
LAYER
  5
B2
100
AcDbSymbolTableRecord
100
AcDbLayerTableRecord
  2
OTKC
 70
0
 62
7
  6
CONTINUOUS
370
13
390
15
  0
LAYER
  5
B3
100
AcDbSymbolTableRecord
100
AcDbLayerTableRecord
  2
OTKE
 70
0
 62
7
  6
CONTINUOUS
370
18
390
15
  0
LAYER
  5
B4
100
AcDbSymbolTableRecord
100
AcDbLayerTableRecord
  2
OTKG
 70
0
 62
7
  6
CONTINUOUS
370
13
390
15
  0
LAYER
  5
B5
100
AcDbSymbolTableRecord
100
AcDbLayerTableRecord
  2
OTKI
 70
0
 62
7
  6
CONTINUOUS
370
18
390
15
  0
LAYER
  5
B6
100
AcDbSymbolTableRecord
100
AcDbLayerTableRecord
  2
OTKJ
 70
0
 62
7
  6
CONTINUOUS
370
13
390
15
  0
LAYER
  5
B7
100
AcDbSymbolTableRecord
100
AcDbLayerTableRecord
  2
OTKK
 70
0
 62
7
  6
CONTINUOUS
370
13
390
15
  0
LAYER
  5
B8
100
AcDbSymbolTableRecord
100
AcDbLayerTableRecord
  2
OTKL
 70
0
 62
7
  6
CONTINUOUS
370
18
390
15
  0
LAYER
  5
B9
100
AcDbSymbolTableRecord
100
AcDbLayerTableRecord
  2
OTKM
 70
0
 62
7
  6
CONTINUOUS
370
18
390
15
  0
LAYER
  5
BA
100
AcDbSymbolTableRecord
100
AcDbLayerTableRecord
  2
OTKN
 70
0
 62
7
  6
CONTINUOUS
370
18
390
15
  0
LAYER
  5
BB
100
AcDbSymbolTableRecord
100
AcDbLayerTableRecord
  2
OTKR
 70
0
 62
7
  6
CONTINUOUS
370
18
390
15
  0
LAYER
  5
BC
100
AcDbSymbolTableRecord
100
AcDbLayerTableRecord
  2
OTKS
 70
0
 62
7
  6
CONTINUOUS
370
18
390
15
  0
LAYER
  5
BD
100
AcDbSymbolTableRecord
100
AcDbLayerTableRecord
  2
OTKT
 70
0
 62
7
  6
CONTINUOUS
370
18
390
15
  0
LAYER
  5
BE
100
AcDbSymbolTableRecord
100
AcDbLayerTableRecord
  2
OTKU
 70
0
 62
7
  6
CONTINUOUS
370
13
390
15
  0
LAYER
  5
BF
100
AcDbSymbolTableRecord
100
AcDbLayerTableRecord
  2
OTKW
 70
0
 62
7
  6
CONTINUOUS
370
18
390
15
  0
LAYER
  5
C0
100
AcDbSymbolTableRecord
100
AcDbLayerTableRecord
  2
OTKY
 70
0
 62
7
  6
CONTINUOUS
370
18
390
15
  0
LAYER
  5
C1
100
AcDbSymbolTableRecord
100
AcDbLayerTableRecord
  2
OTKZ
 70
0
 62
7
  6
CONTINUOUS
370
13
390
15
  0
LAYER
  5
C2
100
AcDbSymbolTableRecord
100
AcDbLayerTableRecord
  2
OTK_E_T_0
 70
0
 62
7
  6
CONTINUOUS
370
18
390
15
  0
LAYER
  5
C3
100
AcDbSymbolTableRecord
100
AcDbLayerTableRecord
  2
OTK_L_0
 70
0
 62
7
  6
L_0_04
370
18
390
15
  0
LAYER
  5
C4
100
AcDbSymbolTableRecord
100
AcDbLayerTableRecord
  2
OTK_L_2
 70
0
 62
7
  6
L_0_04
370
18
390
15
  0
LAYER
  5
C5
100
AcDbSymbolTableRecord
100
AcDbLayerTableRecord
  2
OTK_L_5
 70
0
 62
7
  6
CONTINUOUS
370
18
390
15
  0
LAYER
  5
C6
100
AcDbSymbolTableRecord
100
AcDbLayerTableRecord
  2
OTK_L_8
 70
0
 62
7
  6
L_0_7E
370
35
390
15
  0
LAYER
  5
C7
100
AcDbSymbolTableRecord
100
AcDbLayerTableRecord
  2
OTOB
 70
0
 62
7
  6
CONTINUOUS
370
13
390
15
  0
LAYER
  5
C8
100
AcDbSymbolTableRecord
100
AcDbLayerTableRecord
  2
OTOF
 70
0
 62
7
  6
CONTINUOUS
370
13
390
15
  0
LAYER
  5
C9
100
AcDbSymbolTableRecord
100
AcDbLayerTableRecord
  2
OTOO
 70
0
 62
7
  6
CONTINUOUS
370
13
390
15
  0
LAYER
  5
CA
100
AcDbSymbolTableRecord
100
AcDbLayerTableRecord
  2
OTO_L_0
 70
0
 62
7
  6
L_0_15
370
35
390
15
  0
LAYER
  5
CB
100
AcDbSymbolTableRecord
100
AcDbLayerTableRecord
  2
OTO_L_1
 70
0
 62
7
  6
L_0_C5
370
18
390
15
  0
LAYER
  5
CC
100
AcDbSymbolTableRecord
100
AcDbLayerTableRecord
  2
OTRK
 70
0
 62
7
  6
CONTINUOUS
370
18
390
15
  0
LAYER
  5
CD
100
AcDbSymbolTableRecord
100
AcDbLayerTableRecord
  2
OTRN
 70
0
 62
7
  6
CONTINUOUS
370
13
390
15
  0
LAYER
  5
CE
100
AcDbSymbolTableRecord
100
AcDbLayerTableRecord
  2
OTRS
 70
0
 62
7
  6
CONTINUOUS
370
13
390
15
  0
LAYER
  5
CF
100
AcDbSymbolTableRecord
100
AcDbLayerTableRecord
  2
OTRU
 70
0
 62
7
  6
CONTINUOUS
370
18
390
15
  0
LAYER
  5
D0
100
AcDbSymbolTableRecord
100
AcDbLayerTableRecord
  2
OTR_T_0
 70
0
 62
7
  6
CONTINUOUS
370
18
390
15
  0
LAYER
  5
D1
100
AcDbSymbolTableRecord
100
AcDbLayerTableRecord
  2
OTR_T_1
 70
0
 62
7
  6
CONTINUOUS
370
18
390
15
  0
LAYER
  5
D2
100
AcDbSymbolTableRecord
100
AcDbLayerTableRecord
  2
OTSB
 70
0
 62
7
  6
CONTINUOUS
370
18
390
15
  0
LAYER
  5
D3
100
AcDbSymbolTableRecord
100
AcDbLayerTableRecord
  2
OTSI
 70
0
 62
7
  6
CONTINUOUS
370
18
390
15
  0
LAYER
  5
D4
100
AcDbSymbolTableRecord
100
AcDbLayerTableRecord
  2
OTSP
 70
0
 62
7
  6
CONTINUOUS
370
18
390
15
  0
LAYER
  5
D5
100
AcDbSymbolTableRecord
100
AcDbLayerTableRecord
  2
OTSW
 70
0
 62
7
  6
CONTINUOUS
370
18
390
15
  0
LAYER
  5
D6
100
AcDbSymbolTableRecord
100
AcDbLayerTableRecord
  2
OTSZ
 70
0
 62
7
  6
CONTINUOUS
370
13
390
15
  0
LAYER
  5
D7
100
AcDbSymbolTableRecord
100
AcDbLayerTableRecord
  2
OTWG
 70
0
 62
7
  6
CONTINUOUS
370
18
390
15
  0
LAYER
  5
D8
100
AcDbSymbolTableRecord
100
AcDbLayerTableRecord
  2
OTWI
 70
0
 62
7
  6
CONTINUOUS
370
18
390
15
  0
LAYER
  5
D9
100
AcDbSymbolTableRecord
100
AcDbLayerTableRecord
  2
OTWI_P
 70
0
 62
7
  6
CONTINUOUS
370
13
390
15
  0
LAYER
  5
DA
100
AcDbSymbolTableRecord
100
AcDbLayerTableRecord
  2
OTWJ
 70
0
 62
7
  6
CONTINUOUS
370
18
390
15
  0
LAYER
  5
DB
100
AcDbSymbolTableRecord
100
AcDbLayerTableRecord
  2
OTWL
 70
0
 62
7
  6
CONTINUOUS
370
18
390
15
  0
LAYER
  5
DC
100
AcDbSymbolTableRecord
100
AcDbLayerTableRecord
  2
OTWM
 70
0
 62
7
  6
CONTINUOUS
370
18
390
15
  0
LAYER
  5
DD
100
AcDbSymbolTableRecord
100
AcDbLayerTableRecord
  2
OTWO
 70
0
 62
7
  6
CONTINUOUS
370
18
390
15
  0
LAYER
  5
DE
100
AcDbSymbolTableRecord
100
AcDbLayerTableRecord
  2
OTWP
 70
0
 62
7
  6
CONTINUOUS
370
18
390
15
  0
LAYER
  5
DF
100
AcDbSymbolTableRecord
100
AcDbLayerTableRecord
  2
OTWS
 70
0
 62
7
  6
CONTINUOUS
370
13
390
15
  0
LAYER
  5
E0
100
AcDbSymbolTableRecord
100
AcDbLayerTableRecord
  2
OTWT
 70
0
 62
7
  6
CONTINUOUS
370
18
390
15
  0
LAYER
  5
E1
100
AcDbSymbolTableRecord
100
AcDbLayerTableRecord
  2
OTWW
 70
0
 62
7
  6
CONTINUOUS
370
18
390
15
  0
LAYER
  5
E2
100
AcDbSymbolTableRecord
100
AcDbLayerTableRecord
  2
OTWZ
 70
0
 62
7
  6
CONTINUOUS
370
18
390
15
  0
LAYER
  5
E3
100
AcDbSymbolTableRecord
100
AcDbLayerTableRecord
  2
OTZC
 70
0
 62
7
  6
CONTINUOUS
370
18
390
15
  0
LAYER
  5
E4
100
AcDbSymbolTableRecord
100
AcDbLayerTableRecord
  2
OTZG
 70
0
 62
7
  6
CONTINUOUS
370
13
390
15
  0
LAYER
  5
E5
100
AcDbSymbolTableRecord
100
AcDbLayerTableRecord
  2
OTZI
 70
0
 62
7
  6
CONTINUOUS
370
18
390
15
  0
LAYER
  5
E6
100
AcDbSymbolTableRecord
100
AcDbLayerTableRecord
  2
OTZI_P
 70
0
 62
7
  6
CONTINUOUS
370
18
390
15
  0
LAYER
  5
E7
100
AcDbSymbolTableRecord
100
AcDbLayerTableRecord
  2
OTZK
 70
0
 62
7
  6
CONTINUOUS
370
13
390
15
  0
LAYER
  5
E8
100
AcDbSymbolTableRecord
100
AcDbLayerTableRecord
  2
OTZL
 70
0
 62
7
  6
CONTINUOUS
370
13
390
15
  0
LAYER
  5
E9
100
AcDbSymbolTableRecord
100
AcDbLayerTableRecord
  2
OTZT
 70
0
 62
7
  6
CONTINUOUS
370
18
390
15
  0
LAYER
  5
EA
100
AcDbSymbolTableRecord
100
AcDbLayerTableRecord
  2
OTZZ
 70
0
 62
7
  6
CONTINUOUS
370
13
390
15
  0
LAYER
  5
EB
100
AcDbSymbolTableRecord
100
AcDbLayerTableRecord
  2
OT_BlokBudynku
 70
0
 62
7
  6
CONTINUOUS
370
18
390
15
  0
LAYER
  5
EC
100
AcDbSymbolTableRecord
100
AcDbLayerTableRecord
  2
OT_Budowle
 70
0
 62
7
  6
CONTINUOUS
370
18
390
15
  0
LAYER
  5
ED
100
AcDbSymbolTableRecord
100
AcDbLayerTableRecord
  2
OT_Budowle_P
 70
0
 62
7
  6
CONTINUOUS
370
18
390
15
  0
LAYER
  5
EE
100
AcDbSymbolTableRecord
100
AcDbLayerTableRecord
  2
OT_BudynekNiewykazanyWEGIB
 70
0
 62
7
  6
CONTINUOUS
370
18
390
15
  0
LAYER
  5
EF
100
AcDbSymbolTableRecord
100
AcDbLayerTableRecord
  2
OT_Komunikacja
 70
0
 62
7
  6
CONTINUOUS
370
18
390
15
  0
LAYER
  5
F0
100
AcDbSymbolTableRecord
100
AcDbLayerTableRecord
  2
OT_ObiektTrwaleZwiazanyZBudynkami
 70
0
 62
7
  6
CONTINUOUS
370
18
390
15
  0
LAYER
  5
F1
100
AcDbSymbolTableRecord
100
AcDbLayerTableRecord
  2
OT_ObiektTrwaleZwiazanyZBudynkami_P
 70
0
 62
7
  6
CONTINUOUS
370
18
390
15
  0
LAYER
  5
F2
100
AcDbSymbolTableRecord
100
AcDbLayerTableRecord
  2
OT_Ogrodzenia
 70
0
 62
7
  6
CONTINUOUS
370
18
390
15
  0
LAYER
  5
F3
100
AcDbSymbolTableRecord
100
AcDbLayerTableRecord
  2
OT_Rzedna
 70
0
 62
7
  6
CONTINUOUS
370
18
390
15
  0
LAYER
  5
F4
100
AcDbSymbolTableRecord
100
AcDbLayerTableRecord
  2
OT_Skarpa
 70
0
 62
7
  6
CONTINUOUS
370
18
390
15
  0
LAYER
  5
F5
100
AcDbSymbolTableRecord
100
AcDbLayerTableRecord
  2
OT_SportIRekreacja
 70
0
 62
7
  6
CONTINUOUS
370
18
390
15
  0
LAYER
  5
F6
100
AcDbSymbolTableRecord
100
AcDbLayerTableRecord
  2
OT_Wody
 70
0
 62
7
  6
CONTINUOUS
370
18
390
15
  0
LAYER
  5
F7
100
AcDbSymbolTableRecord
100
AcDbLayerTableRecord
  2
OT_Wody_P
 70
0
 62
7
  6
CONTINUOUS
370
18
390
15
  0
LAYER
  5
F8
100
AcDbSymbolTableRecord
100
AcDbLayerTableRecord
  2
OT_ZagospodarowanieTerenu
 70
0
 62
7
  6
CONTINUOUS
370
18
390
15
  0
LAYER
  5
F9
100
AcDbSymbolTableRecord
100
AcDbLayerTableRecord
  2
OT_ZagospodarowanieTerenu_P
 70
0
 62
7
  6
CONTINUOUS
370
18
390
15
  0
LAYER
  5
FA
100
AcDbSymbolTableRecord
100
AcDbLayerTableRecord
  2
Podzial_sekcyjny_godla
 70
0
 62
-7
  6
CONTINUOUS
370
18
390
15
  0
LAYER
  5
FB
100
AcDbSymbolTableRecord
100
AcDbLayerTableRecord
  2
Podzial_sekcyjny_krzyze
 70
0
 62
7
  6
CONTINUOUS
370
18
390
15
  0
LAYER
  5
FC
100
AcDbSymbolTableRecord
100
AcDbLayerTableRecord
  2
Podzial_sekcyjny_podstawowy
 70
0
 62
-7
  6
CONTINUOUS
370
18
390
15
  0
LAYER
  5
FD
100
AcDbSymbolTableRecord
100
AcDbLayerTableRecord
  2
PrezentacjaGraficzna
 70
0
 62
7
  6
CONTINUOUS
370
13
390
15
  0
LAYER
  5
FE
100
AcDbSymbolTableRecord
100
AcDbLayerTableRecord
  2
PrezentacjaGraficzna_P
 70
0
 62
7
  6
CONTINUOUS
370
18
390
15
  0
LAYER
  5
FF
100
AcDbSymbolTableRecord
100
AcDbLayerTableRecord
  2
PRG_Granica
 70
0
 62
7
  6
CONTINUOUS
370
18
390
15
  0
LAYER
  5
100
100
AcDbSymbolTableRecord
100
AcDbLayerTableRecord
  2
PRG_PunktGranicyPanstwa
 70
0
 62
7
  6
CONTINUOUS
370
18
390
15
  0
LAYER
  5
101
100
AcDbSymbolTableRecord
100
AcDbLayerTableRecord
  2
Punkty
 70
0
 62
-7
  6
CONTINUOUS
370
18
390
15
  0
LAYER
  5
102
100
AcDbSymbolTableRecord
100
AcDbLayerTableRecord
  2
SUCP
 70
0
 62
7
  6
CONTINUOUS
370
18
390
15
  0
LAYER
  5
103
100
AcDbSymbolTableRecord
100
AcDbLayerTableRecord
  2
SUCU
 70
0
 62
7
  6
CONTINUOUS
370
18
390
15
  0
LAYER
  5
104
100
AcDbSymbolTableRecord
100
AcDbLayerTableRecord
  2
SUCU_P
 70
0
 62
7
  6
CONTINUOUS
370
18
390
15
  0
LAYER
  5
105
100
AcDbSymbolTableRecord
100
AcDbLayerTableRecord
  2
SUCW
 70
0
 62
7
  6
CONTINUOUS
370
18
390
15
  0
LAYER
  5
106
100
AcDbSymbolTableRecord
100
AcDbLayerTableRecord
  2
SUEA
 70
0
 62
7
  6
CONTINUOUS
370
18
390
15
  0
LAYER
  5
107
100
AcDbSymbolTableRecord
100
AcDbLayerTableRecord
  2
SUEA_P
 70
0
 62
7
  6
CONTINUOUS
370
18
390
15
  0
LAYER
  5
108
100
AcDbSymbolTableRecord
100
AcDbLayerTableRecord
  2
SUEL
 70
0
 62
7
  6
CONTINUOUS
370
18
390
15
  0
LAYER
  5
109
100
AcDbSymbolTableRecord
100
AcDbLayerTableRecord
  2
SUEM
 70
0
 62
7
  6
CONTINUOUS
370
18
390
15
  0
LAYER
  5
10A
100
AcDbSymbolTableRecord
100
AcDbLayerTableRecord
  2
SUEM_P
 70
0
 62
7
  6
CONTINUOUS
370
18
390
15
  0
LAYER
  5
10B
100
AcDbSymbolTableRecord
100
AcDbLayerTableRecord
  2
SUEO
 70
0
 62
7
  6
CONTINUOUS
370
13
390
15
  0
LAYER
  5
10C
100
AcDbSymbolTableRecord
100
AcDbLayerTableRecord
  2
SUEP
 70
0
 62
7
  6
CONTINUOUS
370
13
390
15
  0
LAYER
  5
10D
100
AcDbSymbolTableRecord
100
AcDbLayerTableRecord
  2
SUEP_L_0
 70
0
 62
1
  6
CONTINUOUS
370
18
390
15
  0
LAYER
  5
10E
100
AcDbSymbolTableRecord
100
AcDbLayerTableRecord
  2
SUES
 70
0
 62
7
  6
CONTINUOUS
370
18
390
15
  0
LAYER
  5
10F
100
AcDbSymbolTableRecord
100
AcDbLayerTableRecord
  2
SUES_P
 70
0
 62
7
  6
CONTINUOUS
370
18
390
15
  0
LAYER
  5
110
100
AcDbSymbolTableRecord
100
AcDbLayerTableRecord
  2
SUET
 70
0
 62
7
  6
CONTINUOUS
370
18
390
15
  0
LAYER
  5
111
100
AcDbSymbolTableRecord
100
AcDbLayerTableRecord
  2
SUEU
 70
0
 62
7
  6
CONTINUOUS
370
18
390
15
  0
LAYER
  5
112
100
AcDbSymbolTableRecord
100
AcDbLayerTableRecord
  2
SUEU_P
 70
0
 62
7
  6
CONTINUOUS
370
18
390
15
  0
LAYER
  5
113
100
AcDbSymbolTableRecord
100
AcDbLayerTableRecord
  2
SUE_T_3
 70
0
 62
7
  6
CONTINUOUS
370
18
390
15
  0
LAYER
  5
114
100
AcDbSymbolTableRecord
100
AcDbLayerTableRecord
  2
SUGN
 70
0
 62
7
  6
CONTINUOUS
370
18
390
15
  0
LAYER
  5
115
100
AcDbSymbolTableRecord
100
AcDbLayerTableRecord
  2
SUGP
 70
0
 62
7
  6
CONTINUOUS
370
18
390
15
  0
LAYER
  5
116
100
AcDbSymbolTableRecord
100
AcDbLayerTableRecord
  2
SUGS
 70
0
 62
7
  6
CONTINUOUS
370
18
390
15
  0
LAYER
  5
117
100
AcDbSymbolTableRecord
100
AcDbLayerTableRecord
  2
SUGS_P
 70
0
 62
7
  6
CONTINUOUS
370
18
390
15
  0
LAYER
  5
118
100
AcDbSymbolTableRecord
100
AcDbLayerTableRecord
  2
SUGU
 70
0
 62
7
  6
CONTINUOUS
370
18
390
15
  0
LAYER
  5
119
100
AcDbSymbolTableRecord
100
AcDbLayerTableRecord
  2
SUGU_P
 70
0
 62
7
  6
CONTINUOUS
370
18
390
15
  0
LAYER
  5
11A
100
AcDbSymbolTableRecord
100
AcDbLayerTableRecord
  2
SUGV
 70
0
 62
7
  6
CONTINUOUS
370
18
390
15
  0
LAYER
  5
11B
100
AcDbSymbolTableRecord
100
AcDbLayerTableRecord
  2
SUKD
 70
0
 62
7
  6
CONTINUOUS
370
18
390
15
  0
LAYER
  5
11C
100
AcDbSymbolTableRecord
100
AcDbLayerTableRecord
  2
SUKE
 70
0
 62
7
  6
CONTINUOUS
370
18
390
15
  0
LAYER
  5
11D
100
AcDbSymbolTableRecord
100
AcDbLayerTableRecord
  2
SUKK
 70
0
 62
7
  6
CONTINUOUS
370
13
390
15
  0
LAYER
  5
11E
100
AcDbSymbolTableRecord
100
AcDbLayerTableRecord
  2
SUKK_P
 70
0
 62
7
  6
CONTINUOUS
370
18
390
15
  0
LAYER
  5
11F
100
AcDbSymbolTableRecord
100
AcDbLayerTableRecord
  2
SUKL
 70
0
 62
7
  6
CONTINUOUS
370
18
390
15
  0
LAYER
  5
120
100
AcDbSymbolTableRecord
100
AcDbLayerTableRecord
  2
SUKM
 70
0
 62
7
  6
CONTINUOUS
370
18
390
15
  0
LAYER
  5
121
100
AcDbSymbolTableRecord
100
AcDbLayerTableRecord
  2
SUKM_P
 70
0
 62
7
  6
CONTINUOUS
370
13
390
15
  0
LAYER
  5
122
100
AcDbSymbolTableRecord
100
AcDbLayerTableRecord
  2
SUKN
 70
0
 62
7
  6
CONTINUOUS
370
18
390
15
  0
LAYER
  5
123
100
AcDbSymbolTableRecord
100
AcDbLayerTableRecord
  2
SUKP
 70
0
 62
7
  6
CONTINUOUS
370
13
390
15
  0
LAYER
  5
124
100
AcDbSymbolTableRecord
100
AcDbLayerTableRecord
  2
SUKP_E_T_0
 70
0
 62
34
  6
CONTINUOUS
370
18
390
15
  0
LAYER
  5
125
100
AcDbSymbolTableRecord
100
AcDbLayerTableRecord
  2
SUKP_L_0
 70
0
 62
34
  6
CONTINUOUS
370
18
390
15
  0
LAYER
  5
126
100
AcDbSymbolTableRecord
100
AcDbLayerTableRecord
  2
SUKR_T_0
 70
0
 62
34
  6
CONTINUOUS
370
18
390
15
  0
LAYER
  5
127
100
AcDbSymbolTableRecord
100
AcDbLayerTableRecord
  2
SUKS
 70
0
 62
7
  6
CONTINUOUS
370
13
390
15
  0
LAYER
  5
128
100
AcDbSymbolTableRecord
100
AcDbLayerTableRecord
  2
SUKS_P
 70
0
 62
7
  6
CONTINUOUS
370
18
390
15
  0
LAYER
  5
129
100
AcDbSymbolTableRecord
100
AcDbLayerTableRecord
  2
SUKU
 70
0
 62
7
  6
CONTINUOUS
370
18
390
15
  0
LAYER
  5
12A
100
AcDbSymbolTableRecord
100
AcDbLayerTableRecord
  2
SUKU_P
 70
0
 62
7
  6
CONTINUOUS
370
13
390
15
  0
LAYER
  5
12B
100
AcDbSymbolTableRecord
100
AcDbLayerTableRecord
  2
SUKW
 70
0
 62
7
  6
CONTINUOUS
370
18
390
15
  0
LAYER
  5
12C
100
AcDbSymbolTableRecord
100
AcDbLayerTableRecord
  2
SULL
 70
0
 62
7
  6
CONTINUOUS
370
18
390
15
  0
LAYER
  5
12D
100
AcDbSymbolTableRecord
100
AcDbLayerTableRecord
  2
SUNP
 70
0
 62
7
  6
CONTINUOUS
370
18
390
15
  0
LAYER
  5
12E
100
AcDbSymbolTableRecord
100
AcDbLayerTableRecord
  2
SUNU
 70
0
 62
7
  6
CONTINUOUS
370
18
390
15
  0
LAYER
  5
12F
100
AcDbSymbolTableRecord
100
AcDbLayerTableRecord
  2
SUNU_P
 70
0
 62
7
  6
CONTINUOUS
370
18
390
15
  0
LAYER
  5
130
100
AcDbSymbolTableRecord
100
AcDbLayerTableRecord
  2
SUPB
 70
0
 62
7
  6
CONTINUOUS
370
18
390
15
  0
LAYER
  5
131
100
AcDbSymbolTableRecord
100
AcDbLayerTableRecord
  2
SUPI_P
 70
0
 62
7
  6
CONTINUOUS
370
18
390
15
  0
LAYER
  5
132
100
AcDbSymbolTableRecord
100
AcDbLayerTableRecord
  2
SUPK
 70
0
 62
7
  6
CONTINUOUS
370
13
390
15
  0
LAYER
  5
133
100
AcDbSymbolTableRecord
100
AcDbLayerTableRecord
  2
SUPK_P
 70
0
 62
7
  6
CONTINUOUS
370
13
390
15
  0
LAYER
  5
134
100
AcDbSymbolTableRecord
100
AcDbLayerTableRecord
  2
SUPN
 70
0
 62
7
  6
CONTINUOUS
370
18
390
15
  0
LAYER
  5
135
100
AcDbSymbolTableRecord
100
AcDbLayerTableRecord
  2
SUPN_P
 70
0
 62
7
  6
CONTINUOUS
370
18
390
15
  0
LAYER
  5
136
100
AcDbSymbolTableRecord
100
AcDbLayerTableRecord
  2
SUPP
 70
0
 62
7
  6
CONTINUOUS
370
13
390
15
  0
LAYER
  5
137
100
AcDbSymbolTableRecord
100
AcDbLayerTableRecord
  2
SUPP_P
 70
0
 62
7
  6
CONTINUOUS
370
13
390
15
  0
LAYER
  5
138
100
AcDbSymbolTableRecord
100
AcDbLayerTableRecord
  2
SUPW_O
 70
0
 62
7
  6
CONTINUOUS
370
13
390
15
  0
LAYER
  5
139
100
AcDbSymbolTableRecord
100
AcDbLayerTableRecord
  2
SUPW_P
 70
0
 62
7
  6
CONTINUOUS
370
18
390
15
  0
LAYER
  5
13A
100
AcDbSymbolTableRecord
100
AcDbLayerTableRecord
  2
SUPY
 70
0
 62
7
  6
CONTINUOUS
370
18
390
15
  0
LAYER
  5
13B
100
AcDbSymbolTableRecord
100
AcDbLayerTableRecord
  2
SUP_E_T_1
 70
0
 62
7
  6
CONTINUOUS
370
18
390
15
  0
LAYER
  5
13C
100
AcDbSymbolTableRecord
100
AcDbLayerTableRecord
  2
SUP_T_2
 70
0
 62
7
  6
CONTINUOUS
370
18
390
15
  0
LAYER
  5
13D
100
AcDbSymbolTableRecord
100
AcDbLayerTableRecord
  2
SUP_T_4
 70
0
 62
7
  6
CONTINUOUS
370
18
390
15
  0
LAYER
  5
13E
100
AcDbSymbolTableRecord
100
AcDbLayerTableRecord
  2
SUSP
 70
0
 62
7
  6
CONTINUOUS
370
18
390
15
  0
LAYER
  5
13F
100
AcDbSymbolTableRecord
100
AcDbLayerTableRecord
  2
SUSU
 70
0
 62
7
  6
CONTINUOUS
370
18
390
15
  0
LAYER
  5
140
100
AcDbSymbolTableRecord
100
AcDbLayerTableRecord
  2
SUSU_P
 70
0
 62
7
  6
CONTINUOUS
370
18
390
15
  0
LAYER
  5
141
100
AcDbSymbolTableRecord
100
AcDbLayerTableRecord
  2
SUTK
 70
0
 62
7
  6
CONTINUOUS
370
13
390
15
  0
LAYER
  5
142
100
AcDbSymbolTableRecord
100
AcDbLayerTableRecord
  2
SUTP
 70
0
 62
7
  6
CONTINUOUS
370
13
390
15
  0
LAYER
  5
143
100
AcDbSymbolTableRecord
100
AcDbLayerTableRecord
  2
SUTP_E_T_0
 70
0
 62
30
  6
CONTINUOUS
370
18
390
15
  0
LAYER
  5
144
100
AcDbSymbolTableRecord
100
AcDbLayerTableRecord
  2
SUTP_L_0
 70
0
 62
30
  6
CONTINUOUS
370
18
390
15
  0
LAYER
  5
145
100
AcDbSymbolTableRecord
100
AcDbLayerTableRecord
  2
SUTS
 70
0
 62
7
  6
CONTINUOUS
370
13
390
15
  0
LAYER
  5
146
100
AcDbSymbolTableRecord
100
AcDbLayerTableRecord
  2
SUTS_P
 70
0
 62
7
  6
CONTINUOUS
370
18
390
15
  0
LAYER
  5
147
100
AcDbSymbolTableRecord
100
AcDbLayerTableRecord
  2
SUTU
 70
0
 62
7
  6
CONTINUOUS
370
18
390
15
  0
LAYER
  5
148
100
AcDbSymbolTableRecord
100
AcDbLayerTableRecord
  2
SUTU_P
 70
0
 62
7
  6
CONTINUOUS
370
18
390
15
  0
LAYER
  5
149
100
AcDbSymbolTableRecord
100
AcDbLayerTableRecord
  2
SUTW
 70
0
 62
7
  6
CONTINUOUS
370
18
390
15
  0
LAYER
  5
14A
100
AcDbSymbolTableRecord
100
AcDbLayerTableRecord
  2
SUTW_P
 70
0
 62
7
  6
CONTINUOUS
370
18
390
15
  0
LAYER
  5
14B
100
AcDbSymbolTableRecord
100
AcDbLayerTableRecord
  2
SUWD
 70
0
 62
7
  6
CONTINUOUS
370
13
390
15
  0
LAYER
  5
14C
100
AcDbSymbolTableRecord
100
AcDbLayerTableRecord
  2
SUWG
 70
0
 62
7
  6
CONTINUOUS
370
13
390
15
  0
LAYER
  5
14D
100
AcDbSymbolTableRecord
100
AcDbLayerTableRecord
  2
SUWH
 70
0
 62
7
  6
CONTINUOUS
370
13
390
15
  0
LAYER
  5
14E
100
AcDbSymbolTableRecord
100
AcDbLayerTableRecord
  2
SUWP
 70
0
 62
7
  6
CONTINUOUS
370
13
390
15
  0
LAYER
  5
14F
100
AcDbSymbolTableRecord
100
AcDbLayerTableRecord
  2
SUWP_E_T_0
 70
0
 62
5
  6
CONTINUOUS
370
18
390
15
  0
LAYER
  5
150
100
AcDbSymbolTableRecord
100
AcDbLayerTableRecord
  2
SUWP_L_0
 70
0
 62
5
  6
CONTINUOUS
370
18
390
15
  0
LAYER
  5
151
100
AcDbSymbolTableRecord
100
AcDbLayerTableRecord
  2
SUWR
 70
0
 62
7
  6
CONTINUOUS
370
18
390
15
  0
LAYER
  5
152
100
AcDbSymbolTableRecord
100
AcDbLayerTableRecord
  2
SUWR_T_0
 70
0
 62
5
  6
CONTINUOUS
370
18
390
15
  0
LAYER
  5
153
100
AcDbSymbolTableRecord
100
AcDbLayerTableRecord
  2
SUWS
 70
0
 62
7
  6
CONTINUOUS
370
13
390
15
  0
LAYER
  5
154
100
AcDbSymbolTableRecord
100
AcDbLayerTableRecord
  2
SUWU
 70
0
 62
7
  6
CONTINUOUS
370
18
390
15
  0
LAYER
  5
155
100
AcDbSymbolTableRecord
100
AcDbLayerTableRecord
  2
SUWU_P
 70
0
 62
7
  6
CONTINUOUS
370
18
390
15
  0
LAYER
  5
156
100
AcDbSymbolTableRecord
100
AcDbLayerTableRecord
  2
SUWW
 70
0
 62
7
  6
CONTINUOUS
370
13
390
15
  0
LAYER
  5
157
100
AcDbSymbolTableRecord
100
AcDbLayerTableRecord
  2
SUW_E_T_2
 70
0
 62
5
  6
CONTINUOUS
370
18
390
15
  0
LAYER
  5
158
100
AcDbSymbolTableRecord
100
AcDbLayerTableRecord
  2
SUW_T_3
 70
0
 62
5
  6
CONTINUOUS
370
18
390
15
  0
LAYER
  5
159
100
AcDbSymbolTableRecord
100
AcDbLayerTableRecord
  2
SUW_T_5
 70
0
 62
5
  6
CONTINUOUS
370
18
390
15
  0
LAYER
  5
15A
100
AcDbSymbolTableRecord
100
AcDbLayerTableRecord
  2
Uzytki
 70
0
 62
96
  6
L_0_03
370
18
390
15
  0
LAYER
  5
15B
100
AcDbSymbolTableRecord
100
AcDbLayerTableRecord
  2
zakres
 70
0
 62
150
  6
L_0_04
370
25
390
15
  0
ENDTAB
  0
TABLE
  2
STYLE
  5
15C
100
AcDbSymbolTable
 70
3
  0
STYLE
  5
15D
100
AcDbSymbolTableRecord
100
AcDbTextStyleTableRecord
  2
STANDARD
 70
0
 40
0.0
 41
1.0
 50
0.0
 71
0
  3
simplex.shx
  4

  0
STYLE
  5
15E
100
AcDbSymbolTableRecord
100
AcDbTextStyleTableRecord
  2
STANDARD_ITALIC
 70
0
 40
0.0
 41
1.0
 50
15.0
 71
0
  3
simplex.shx
  4

  0
STYLE
  5
D
100
AcDbSymbolTableRecord
100
AcDbTextStyleTableRecord
  2

 70
1
 40
0.0
 41
0.050
 50
0.0
 71
0
  3
zosin-podgik.shx
  4

  0
ENDTAB
  0
TABLE
  2
VIEW
  5
15F
100
AcDbSymbolTable
 70
0
  0
ENDTAB
  0
TABLE
  2
UCS
  5
160
100
AcDbSymbolTable
 70
0
  0
ENDTAB
  0
TABLE
  2
APPID
  5
161
100
AcDbSymbolTable
 70
1
  0
APPID
  5
162
100
AcDbSymbolTableRecord
100
AcDbRegAppTableRecord
  2
ACAD
 70
0
  0
ENDTAB
  0
TABLE
  2
DIMSTYLE
  5
163
100
AcDbSymbolTable
 70
1
100
AcDbDimStyleTable
  0
DIMSTYLE
105
164
100
AcDbSymbolTableRecord
100
AcDbDimStyleTableRecord
  2
Standard
 70
0
340
15D
  0
ENDTAB
  0
TABLE
  2
BLOCK_RECORD
  5
165
100
AcDbSymbolTable
 70
10
  0
BLOCK_RECORD
  5
166
100
AcDbSymbolTableRecord
100
AcDbBlockTableRecord
  2
*Model_Space
340
167
  0
BLOCK_RECORD
  5
168
100
AcDbSymbolTableRecord
100
AcDbBlockTableRecord
  2
*Paper_Space
340
169
  0
BLOCK_RECORD
  5
16A
100
AcDbSymbolTableRecord
100
AcDbBlockTableRecord
  2
OSPB
340
16B
  0
BLOCK_RECORD
  5
16C
100
AcDbSymbolTableRecord
100
AcDbBlockTableRecord
  2
OSHF
340
16D
  0
BLOCK_RECORD
  5
16E
100
AcDbSymbolTableRecord
100
AcDbBlockTableRecord
  2
OTRS
340
16F
  0
BLOCK_RECORD
  5
170
100
AcDbSymbolTableRecord
100
AcDbBlockTableRecord
  2
L_0_02_1
340
171
  0
BLOCK_RECORD
  5
172
100
AcDbSymbolTableRecord
100
AcDbBlockTableRecord
  2
L_0_02_2
340
173
  0
BLOCK_RECORD
  5
174
100
AcDbSymbolTableRecord
100
AcDbBlockTableRecord
  2
L_0_7E_1
340
175
  0
BLOCK_RECORD
  5
176
100
AcDbSymbolTableRecord
100
AcDbBlockTableRecord
  2
L_0_7E_2
340
177
  0
BLOCK_RECORD
  5
178
100
AcDbSymbolTableRecord
100
AcDbBlockTableRecord
  2
KTOK02_500
340
179
  0
ENDTAB
  0
ENDSEC
  0
SECTION
  2
BLOCKS
  0
BLOCK
  5
17A
100
AcDbEntity
  8
0
100
AcDbBlockBegin
  2
*Model_Space
 70
0
 10
0.0
 20
0.0
 30
0.0
  3
*Model_Space
  1

  0
ENDBLK
  5
17B
100
AcDbEntity
  8
0
100
AcDbBlockEnd
  0
BLOCK
  5
17C
100
AcDbEntity
 67
1
  8
0
100
AcDbBlockBegin
  2
*Paper_Space
 70
0
 10
0.0
 20
0.0
 30
0.0
  3
*Paper_Space
  1

  0
ENDBLK
  5
17D
100
AcDbEntity
 67
1
  8
0
100
AcDbBlockEnd
  0
BLOCK
  5
16B
100
AcDbEntity
  8
0
100
AcDbBlockBegin
 62
0
370
13
  2
OSPB
 70
0
 10
0
 20
0
 30
0
  3
OSPB
  0
POLYLINE
  5
17E
100
AcDbEntity
  8
0
  6
CONTINUOUS
 62
0
370
18
100
AcDb2dPolyline
 66
1
 70
129
  0
VERTEX
  5
17F
100
AcDbEntity
  8
0
100
AcDbVertex
100
AcDb2dVertex
 10
-2.0
 20
-1.1
  0
VERTEX
  5
180
100
AcDbEntity
  8
0
100
AcDbVertex
100
AcDb2dVertex
 10
2.0
 20
-1.1
  0
VERTEX
  5
181
100
AcDbEntity
  8
0
100
AcDbVertex
100
AcDb2dVertex
 10
0.1
 20
2.1
  0
VERTEX
  5
182
100
AcDbEntity
  8
0
100
AcDbVertex
100
AcDb2dVertex
 10
-2.0
 20
-1.1
  0
SEQEND
  5
183
100
AcDbEntity
  8
0
  0
HATCH
  5
184
100
AcDbEntity
  8
0
  6
CONTINUOUS
 62
0
370
25
100
AcDbHatch
 10
0.0
 20
0.0
 30
0.0
210
0.0
220
0.0
230
1.0
  2
SOLID
 70
1
 71
1
 91
1
 92
3
 72
1
 73
1
 93
2
 10
0.0
 20
-0.22360679775
 42
1.0
 10
0.0
 20
0.22360679775
 42
1.0
 97
0
 75
0
 76
1
 98
0
  0
CIRCLE
  5
185
100
AcDbEntity
  8
0
  6
CONTINUOUS
 62
0
370
25
100
AcDbCircle
 10
0.0
 20
-0.0
 40
0.22360679775
  0
ENDBLK
  5
186
100
AcDbEntity
  8
0
100
AcDbBlockEnd
  0
BLOCK
  5
16D
100
AcDbEntity
  8
0
100
AcDbBlockBegin
 62
0
370
13
  2
OSHF
 70
0
 10
0
 20
0
 30
0
  3
OSHF
  0
CIRCLE
  5
187
100
AcDbEntity
  8
0
  6
CONTINUOUS
 62
0
370
18
100
AcDbCircle
 10
0.0
 20
-0.0
 40
2.0
  0
HATCH
  5
188
100
AcDbEntity
  8
0
  6
CONTINUOUS
 62
0
370
18
100
AcDbHatch
 10
0.0
 20
0.0
 30
0.0
210
0.0
220
0.0
230
1.0
  2
SOLID
 70
1
 71
1
 91
1
 92
3
 72
0
 73
1
 93
4
 10
-1.7
 20
1.0
 10
1.7
 20
1.0
 10
0.0
 20
-2.0
 10
-1.7
 20
0.9
 97
0
 75
0
 76
1
 98
0
  0
POLYLINE
  5
189
100
AcDbEntity
  8
0
  6
CONTINUOUS
 62
0
370
18
100
AcDb2dPolyline
 66
1
 70
129
  0
VERTEX
  5
18A
100
AcDbEntity
  8
0
100
AcDbVertex
100
AcDb2dVertex
 10
-1.7
 20
1.0
  0
VERTEX
  5
18B
100
AcDbEntity
  8
0
100
AcDbVertex
100
AcDb2dVertex
 10
1.7
 20
1.0
  0
VERTEX
  5
18C
100
AcDbEntity
  8
0
100
AcDbVertex
100
AcDb2dVertex
 10
0.0
 20
-2.0
  0
VERTEX
  5
18D
100
AcDbEntity
  8
0
100
AcDbVertex
100
AcDb2dVertex
 10
-1.7
 20
0.9
  0
SEQEND
  5
18E
100
AcDbEntity
  8
0
  0
ENDBLK
  5
18F
100
AcDbEntity
  8
0
100
AcDbBlockEnd
  0
BLOCK
  5
16F
100
AcDbEntity
  8
0
100
AcDbBlockBegin
 62
0
370
13
  2
OTRS
 70
0
 10
0
 20
0
 30
0
  3
OTRS
  0
HATCH
  5
190
100
AcDbEntity
  8
0
  6
CONTINUOUS
 62
0
370
13
100
AcDbHatch
 10
0.0
 20
0.0
 30
0.0
210
0.0
220
0.0
230
1.0
  2
SOLID
 70
1
 71
1
 91
1
 92
3
 72
1
 73
1
 93
2
 10
0.0
 20
-0.090553851381
 42
1.0
 10
0.0
 20
0.090553851381
 42
1.0
 97
0
 75
0
 76
1
 98
0
  0
CIRCLE
  5
191
100
AcDbEntity
  8
0
  6
CONTINUOUS
 62
0
370
13
100
AcDbCircle
 10
0.0
 20
-0.0
 40
0.090553851381
  0
ENDBLK
  5
192
100
AcDbEntity
  8
0
100
AcDbBlockEnd
  0
BLOCK
  5
171
100
AcDbEntity
  8
0
100
AcDbBlockBegin
 62
0
370
13
  2
L_0_02_1
 70
0
 10
0
 20
0
 30
0
  3
L_0_02_1
  0
POINT
  5
193
100
AcDbEntity
  8
0
100
AcDbPoint
 62
0
 10
0.0
 20
0.0
 30
0.00
  0
ENDBLK
  5
194
100
AcDbEntity
  8
0
100
AcDbBlockEnd
  0
BLOCK
  5
173
100
AcDbEntity
  8
0
100
AcDbBlockBegin
 62
0
370
13
  2
L_0_02_2
 70
0
 10
0
 20
0
 30
0
  3
L_0_02_2
  0
POINT
  5
195
100
AcDbEntity
  8
0
100
AcDbPoint
 62
0
 10
-0.0
 20
-0.0
 30
0.00
  0
ENDBLK
  5
196
100
AcDbEntity
  8
0
100
AcDbBlockEnd
  0
BLOCK
  5
175
100
AcDbEntity
  8
0
100
AcDbBlockBegin
 62
0
370
13
  2
L_0_7E_1
 70
0
 10
0
 20
0
 30
0
  3
L_0_7E_1
  0
POLYLINE
  5
197
100
AcDbEntity
  8
0
  6
CONTINUOUS
 62
0
370
13
100
AcDb2dPolyline
 66
1
 70
128
  0
VERTEX
  5
198
100
AcDbEntity
  8
0
100
AcDbVertex
100
AcDb2dVertex
 10
0.0
 20
0.0
  0
VERTEX
  5
199
100
AcDbEntity
  8
0
100
AcDbVertex
100
AcDb2dVertex
 10
-0.53
 20
0.85
  0
SEQEND
  5
19A
100
AcDbEntity
  8
0
  0
POLYLINE
  5
19B
100
AcDbEntity
  8
0
  6
CONTINUOUS
 62
0
370
13
100
AcDb2dPolyline
 66
1
 70
128
  0
VERTEX
  5
19C
100
AcDbEntity
  8
0
100
AcDbVertex
100
AcDb2dVertex
 10
0.0
 20
0.0
  0
VERTEX
  5
19D
100
AcDbEntity
  8
0
100
AcDbVertex
100
AcDb2dVertex
 10
-0.53
 20
-0.85
  0
SEQEND
  5
19E
100
AcDbEntity
  8
0
  0
ENDBLK
  5
19F
100
AcDbEntity
  8
0
100
AcDbBlockEnd
  0
BLOCK
  5
177
100
AcDbEntity
  8
0
100
AcDbBlockBegin
 62
0
370
13
  2
L_0_7E_2
 70
0
 10
0
 20
0
 30
0
  3
L_0_7E_2
  0
POLYLINE
  5
1A0
100
AcDbEntity
  8
0
  6
CONTINUOUS
 62
0
370
13
100
AcDb2dPolyline
 66
1
 70
128
  0
VERTEX
  5
1A1
100
AcDbEntity
  8
0
100
AcDbVertex
100
AcDb2dVertex
 10
-0.0
 20
-0.0
  0
VERTEX
  5
1A2
100
AcDbEntity
  8
0
100
AcDbVertex
100
AcDb2dVertex
 10
-0.53
 20
-0.85
  0
SEQEND
  5
1A3
100
AcDbEntity
  8
0
  0
POLYLINE
  5
1A4
100
AcDbEntity
  8
0
  6
CONTINUOUS
 62
0
370
13
100
AcDb2dPolyline
 66
1
 70
128
  0
VERTEX
  5
1A5
100
AcDbEntity
  8
0
100
AcDbVertex
100
AcDb2dVertex
 10
-0.0
 20
-0.0
  0
VERTEX
  5
1A6
100
AcDbEntity
  8
0
100
AcDbVertex
100
AcDb2dVertex
 10
-0.53
 20
0.85
  0
SEQEND
  5
1A7
100
AcDbEntity
  8
0
  0
ENDBLK
  5
1A8
100
AcDbEntity
  8
0
100
AcDbBlockEnd
  0
BLOCK
  5
179
100
AcDbEntity
  8
0
100
AcDbBlockBegin
 62
0
370
13
  2
KTOK02_500
 70
0
 10
0
 20
0
 30
0
  3
KTOK02_500
  0
ARC
  5
1A9
100
AcDbEntity
  8
0
  6
CONTINUOUS
 62
0
370
13
100
AcDbCircle
 10
-3.0000000000
 20
0.0000000000
 30
0
 40
3.0000000000
100
AcDbArc
 50
0.0000000000
 51
60.0183606312
  0
ARC
  5
1AA
100
AcDbEntity
  8
0
  6
CONTINUOUS
 62
0
370
13
100
AcDbCircle
 10
3.0000000000
 20
0.0000000000
 30
0
 40
3.0000000000
100
AcDbArc
 50
119.9816393688
 51
180.0000000000
  0
ENDBLK
  5
1AB
100
AcDbEntity
  8
0
100
AcDbBlockEnd
  0
ENDSEC
  0
SECTION
  2
ENTITIES
  0
INSERT
  5
1AC
100
AcDbEntity
  8
Dzialki
  6
CONTINUOUS
 62
7
100
AcDbBlockReference
 66
0
  2
L_0_02_1
 10
7578504.0247559417
 20
5719985.77382612415
 41
0.50
 42
0.50
 43
0.50
 50
265.12
  0
INSERT
  5
1AD
100
AcDbEntity
  8
Dzialki
  6
CONTINUOUS
 62
7
100
AcDbBlockReference
 66
0
  2
L_0_02_2
 10
7578503.54999999981
 20
5719980.20999999996
 41
0.50
 42
0.50
 43
0.50
 50
85.12
  0
MLINE
  5
1AE
100
AcDbEntity
  8
Dzialki
  6
L_0_02
 62
7
370
18
100
AcDbMline
  2
L_0_02
340
7
 40
1.0
 70
1
 71
1
 72
2
 73
1
 10
7578504.0247559417
 20
5719985.77382612415
210
0.0
220
0.0
230
1.0
 11
7578504.0247559417
 21
5719985.77382612415
 12
-0.085020083828
 22
-0.996379237713
 13
0.996379237713
 23
-0.085020083828
 74
3
 41
0.0
 41
0.25
 41
5.33404462236
 75
0
 11
7578503.54999999981
 21
5719980.20999999996
 12
-0.085020083828
 22
-0.996379237713
 13
0.996379237713
 23
-0.085020083828
 74
0
 75
0
  0
INSERT
  5
1AF
100
AcDbEntity
  8
Dzialki
  6
CONTINUOUS
 62
7
100
AcDbBlockReference
 66
0
  2
L_0_02_1
 10
7578503.54999999981
 20
5719980.20999999996
 41
0.50
 42
0.50
 43
0.50
 50
345.38
  0
INSERT
  5
1B0
100
AcDbEntity
  8
Dzialki
  6
CONTINUOUS
 62
7
100
AcDbBlockReference
 66
0
  2
L_0_02_2
 10
7578518.29748406541
 20
5719976.362830244
 41
0.50
 42
0.50
 43
0.50
 50
165.38
  0
MLINE
  5
1B1
100
AcDbEntity
  8
Dzialki
  6
L_0_02
 62
7
370
18
100
AcDbMline
  2
L_0_02
340
7
 40
1.0
 70
1
 71
1
 72
2
 73
1
 10
7578503.54999999981
 20
5719980.20999999996
210
0.0
220
0.0
230
1.0
 11
7578503.54999999981
 21
5719980.20999999996
 12
0.967617272401
 22
-0.25242189713
 13
0.25242189713
 23
0.967617272401
 74
3
 41
0.0
 41
0.25
 41
14.99103019471
 75
0
 11
7578518.29748406541
 21
5719976.362830244
 12
0.967617272401
 22
-0.25242189713
 13
0.25242189713
 23
0.967617272401
 74
0
 75
0
  0
INSERT
  5
1B2
100
AcDbEntity
  8
Dzialki
  6
CONTINUOUS
 62
7
100
AcDbBlockReference
 66
0
  2
L_0_02_1
 10
7578443.49363347609
 20
5719990.47478373442
 41
0.50
 42
0.50
 43
0.50
 50
345.36
  0
INSERT
  5
1B3
100
AcDbEntity
  8
Dzialki
  6
CONTINUOUS
 62
7
100
AcDbBlockReference
 66
0
  2
L_0_02_2
 10
7578457.51999999955
 20
5719986.80999999959
 41
0.50
 42
0.50
 43
0.50
 50
165.36
  0
MLINE
  5
1B4
100
AcDbEntity
  8
Dzialki
  6
L_0_02
 62
7
370
18
100
AcDbMline
  2
L_0_02
340
7
 40
1.0
 70
1
 71
1
 72
2
 73
1
 10
7578443.49363347609
 20
5719990.47478373442
210
0.0
220
0.0
230
1.0
 11
7578443.49363347609
 21
5719990.47478373442
 12
0.967520636216
 22
-0.25279204595
 13
0.25279204595
 23
0.967520636216
 74
3
 41
0.0
 41
0.25
 41
14.247227240879
 75
0
 11
7578457.51999999955
 21
5719986.80999999959
 12
0.967520636216
 22
-0.25279204595
 13
0.25279204595
 23
0.967520636216
 74
0
 75
0
  0
INSERT
  5
1B5
100
AcDbEntity
  8
Dzialki
  6
CONTINUOUS
 62
7
100
AcDbBlockReference
 66
0
  2
L_0_02_1
 10
7578457.51999999955
 20
5719986.80999999959
 41
0.50
 42
0.50
 43
0.50
 50
345.33
  0
INSERT
  5
1B6
100
AcDbEntity
  8
Dzialki
  6
CONTINUOUS
 62
7
100
AcDbBlockReference
 66
0
  2
L_0_02_2
 10
7578473.25999999978
 20
5719982.69000000041
 41
0.50
 42
0.50
 43
0.50
 50
165.33
  0
MLINE
  5
1B7
100
AcDbEntity
  8
Dzialki
  6
L_0_02
 62
7
370
18
100
AcDbMline
  2
L_0_02
340
7
 40
1.0
 70
1
 71
1
 72
2
 73
1
 10
7578457.51999999955
 20
5719986.80999999959
210
0.0
220
0.0
230
1.0
 11
7578457.51999999955
 21
5719986.80999999959
 12
0.967408079979
 22
-0.253222445277
 13
0.253222445277
 23
0.967408079979
 74
3
 41
0.0
 41
0.25
 41
16.020279653414
 75
0
 11
7578473.25999999978
 21
5719982.69000000041
 12
0.967408079979
 22
-0.253222445277
 13
0.253222445277
 23
0.967408079979
 74
0
 75
0
  0
INSERT
  5
1B8
100
AcDbEntity
  8
Dzialki
  6
CONTINUOUS
 62
7
100
AcDbBlockReference
 66
0
  2
L_0_02_1
 10
7578473.25999999978
 20
5719982.69000000041
 41
0.50
 42
0.50
 43
0.50
 50
345.37
  0
INSERT
  5
1B9
100
AcDbEntity
  8
Dzialki
  6
CONTINUOUS
 62
7
100
AcDbBlockReference
 66
0
  2
L_0_02_2
 10
7578488.24000000022
 20
5719978.78000000026
 41
0.50
 42
0.50
 43
0.50
 50
165.37
  0
MLINE
  5
1BA
100
AcDbEntity
  8
Dzialki
  6
L_0_02
 62
7
370
18
100
AcDbMline
  2
L_0_02
340
7
 40
1.0
 70
1
 71
1
 72
2
 73
1
 10
7578473.25999999978
 20
5719982.69000000041
210
0.0
220
0.0
230
1.0
 11
7578473.25999999978
 21
5719982.69000000041
 12
0.967582967012
 22
-0.252553364556
 13
0.252553364556
 23
0.967582967012
 74
3
 41
0.0
 41
0.25
 41
15.231876501722
 75
0
 11
7578488.24000000022
 21
5719978.78000000026
 12
0.967582967012
 22
-0.252553364556
 13
0.252553364556
 23
0.967582967012
 74
0
 75
0
  0
INSERT
  5
1BB
100
AcDbEntity
  8
Dzialki
  6
CONTINUOUS
 62
7
100
AcDbBlockReference
 66
0
  2
L_0_02_1
 10
7578488.24000000022
 20
5719978.78000000026
 41
0.50
 42
0.50
 43
0.50
 50
345.34
  0
INSERT
  5
1BC
100
AcDbEntity
  8
Dzialki
  6
CONTINUOUS
 62
7
100
AcDbBlockReference
 66
0
  2
L_0_02_2
 10
7578503.23000000045
 20
5719974.86000000034
 41
0.50
 42
0.50
 43
0.50
 50
165.34
  0
MLINE
  5
1BD
100
AcDbEntity
  8
Dzialki
  6
L_0_02
 62
7
370
18
100
AcDbMline
  2
L_0_02
340
7
 40
1.0
 70
1
 71
1
 72
2
 73
1
 10
7578488.24000000022
 20
5719978.78000000026
210
0.0
220
0.0
230
1.0
 11
7578488.24000000022
 21
5719978.78000000026
 12
0.967466314217
 22
-0.252999863349
 13
0.252999863349
 23
0.967466314217
 74
3
 41
0.0
 41
0.25
 41
15.244079514644
 75
0
 11
7578503.23000000045
 21
5719974.86000000034
 12
0.967466314217
 22
-0.252999863349
 13
0.252999863349
 23
0.967466314217
 74
0
 75
0
  0
INSERT
  5
1BE
100
AcDbEntity
  8
Dzialki
  6
CONTINUOUS
 62
7
100
AcDbBlockReference
 66
0
  2
L_0_02_1
 10
7578503.23000000045
 20
5719974.86000000034
 41
0.50
 42
0.50
 43
0.50
 50
345.35
  0
INSERT
  5
1BF
100
AcDbEntity
  8
Dzialki
  6
CONTINUOUS
 62
7
100
AcDbBlockReference
 66
0
  2
L_0_02_2
 10
7578517.94684667513
 20
5719971.01212511025
 41
0.50
 42
0.50
 43
0.50
 50
165.35
  0
MLINE
  5
1C0
100
AcDbEntity
  8
Dzialki
  6
L_0_02
 62
7
370
18
100
AcDbMline
  2
L_0_02
340
7
 40
1.0
 70
1
 71
1
 72
2
 73
1
 10
7578503.23000000045
 20
5719974.86000000034
210
0.0
220
0.0
230
1.0
 11
7578503.23000000045
 21
5719974.86000000034
 12
0.967477471071
 22
-0.252957195923
 13
0.252957195923
 23
0.967477471071
 74
3
 41
0.0
 41
0.25
 41
14.961565245424
 75
0
 11
7578517.94684667513
 21
5719971.01212511025
 12
0.967477471071
 22
-0.252957195923
 13
0.252957195923
 23
0.967477471071
 74
0
 75
0
  0
INSERT
  5
1C1
100
AcDbEntity
  8
Dzialki
  6
CONTINUOUS
 62
7
100
AcDbBlockReference
 66
0
  2
L_0_02_1
 10
7578503.54999999981
 20
5719980.20999999996
 41
0.50
 42
0.50
 43
0.50
 50
165.33
  0
INSERT
  5
1C2
100
AcDbEntity
  8
Dzialki
  6
CONTINUOUS
 62
7
100
AcDbBlockReference
 66
0
  2
L_0_02_2
 10
7578488.26999999955
 20
5719984.20999999996
 41
0.50
 42
0.50
 43
0.50
 50
345.33
  0
MLINE
  5
1C3
100
AcDbEntity
  8
Dzialki
  6
L_0_02
 62
7
370
18
100
AcDbMline
  2
L_0_02
340
7
 40
1.0
 70
1
 71
1
 72
2
 73
1
 10
7578503.54999999981
 20
5719980.20999999996
210
0.0
220
0.0
230
1.0
 11
7578503.54999999981
 21
5719980.20999999996
 12
-0.967401773424
 22
0.253246537541
 13
-0.253246537541
 23
-0.967401773424
 74
3
 41
0.0
 41
0.25
 41
15.544885248332
 75
0
 11
7578488.26999999955
 21
5719984.20999999996
 12
-0.967401773424
 22
0.253246537541
 13
-0.253246537541
 23
-0.967401773424
 74
0
 75
0
  0
INSERT
  5
1C4
100
AcDbEntity
  8
Dzialki
  6
CONTINUOUS
 62
7
100
AcDbBlockReference
 66
0
  2
L_0_02_1
 10
7578488.26999999955
 20
5719984.20999999996
 41
0.50
 42
0.50
 43
0.50
 50
165.39
  0
INSERT
  5
1C5
100
AcDbEntity
  8
Dzialki
  6
CONTINUOUS
 62
7
100
AcDbBlockReference
 66
0
  2
L_0_02_2
 10
7578446.41000000015
 20
5719995.12000000011
 41
0.50
 42
0.50
 43
0.50
 50
345.39
  0
MLINE
  5
1C6
100
AcDbEntity
  8
Dzialki
  6
L_0_02
 62
7
370
18
100
AcDbMline
  2
L_0_02
340
7
 40
1.0
 70
1
 71
1
 72
2
 73
1
 10
7578488.26999999955
 20
5719984.20999999996
210
0.0
220
0.0
230
1.0
 11
7578488.26999999955
 21
5719984.20999999996
 12
-0.967673710721
 22
0.252205451129
 13
-0.252205451129
 23
-0.967673710721
 74
3
 41
0.0
 41
0.25
 41
43.008383002065
 75
0
 11
7578446.41000000015
 21
5719995.12000000011
 12
-0.967673710721
 22
0.252205451129
 13
-0.252205451129
 23
-0.967673710721
 74
0
 75
0
  0
INSERT
  5
1C7
100
AcDbEntity
  8
Dzialki
  6
CONTINUOUS
 62
7
100
AcDbBlockReference
 66
0
  2
L_0_02_1
 10
7578446.41000000015
 20
5719995.12000000011
 41
0.50
 42
0.50
 43
0.50
 50
165.36
  0
INSERT
  5
1C8
100
AcDbEntity
  8
Dzialki
  6
CONTINUOUS
 62
7
100
AcDbBlockReference
 66
0
  2
L_0_02_2
 10
7578443.85673245322
 20
5719995.78690782934
 41
0.50
 42
0.50
 43
0.50
 50
345.36
  0
MLINE
  5
1C9
100
AcDbEntity
  8
Dzialki
  6
L_0_02
 62
7
370
18
100
AcDbMline
  2
L_0_02
340
7
 40
1.0
 70
1
 71
1
 72
2
 73
1
 10
7578446.41000000015
 20
5719995.12000000011
210
0.0
220
0.0
230
1.0
 11
7578446.41000000015
 21
5719995.12000000011
 12
-0.96753966187
 22
0.252719217134
 13
-0.252719217134
 23
-0.96753966187
 74
3
 41
0.0
 41
0.25
 41
2.388928043523
 75
0
 11
7578443.85673245322
 21
5719995.78690782934
 12
-0.96753966187
 22
0.252719217134
 13
-0.252719217134
 23
-0.96753966187
 74
0
 75
0
  0
INSERT
  5
1CA
100
AcDbEntity
  8
Dzialki
  6
CONTINUOUS
 62
7
100
AcDbBlockReference
 66
0
  2
L_0_02_1
 10
7578450.60275635123
 20
5719885.41271013394
 41
0.50
 42
0.50
 43
0.50
 50
86.10
  0
INSERT
  5
1CB
100
AcDbEntity
  8
Dzialki
  6
CONTINUOUS
 62
7
100
AcDbBlockReference
 66
0
  2
L_0_02_2
 10
7578457.51999999955
 20
5719986.80999999959
 41
0.50
 42
0.50
 43
0.50
 50
266.10
  0
MLINE
  5
1CC
100
AcDbEntity
  8
Dzialki
  6
L_0_02
 62
7
370
18
100
AcDbMline
  2
L_0_02
340
7
 40
1.0
 70
1
 71
1
 72
2
 73
1
 10
7578450.60275635123
 20
5719885.41271013394
210
0.0
220
0.0
230
1.0
 11
7578450.60275635123
 21
5719885.41271013394
 12
0.068061026827
 22
0.997681159804
 13
-0.997681159804
 23
0.068061026827
 74
3
 41
0.0
 41
0.25
 41
101.382960459631
 75
0
 11
7578457.51999999955
 21
5719986.80999999959
 12
0.068061026827
 22
0.997681159804
 13
-0.997681159804
 23
0.068061026827
 74
0
 75
0
  0
INSERT
  5
1CD
100
AcDbEntity
  8
Dzialki
  6
CONTINUOUS
 62
7
100
AcDbBlockReference
 66
0
  2
L_0_02_1
 10
7578466.59845258668
 20
5719884.62960069813
 41
0.50
 42
0.50
 43
0.50
 50
86.11
  0
INSERT
  5
1CE
100
AcDbEntity
  8
Dzialki
  6
CONTINUOUS
 62
7
100
AcDbBlockReference
 66
0
  2
L_0_02_2
 10
7578473.25999999978
 20
5719982.69000000041
 41
0.50
 42
0.50
 43
0.50
 50
266.11
  0
MLINE
  5
1CF
100
AcDbEntity
  8
Dzialki
  6
L_0_02
 62
7
370
18
100
AcDbMline
  2
L_0_02
340
7
 40
1.0
 70
1
 71
1
 72
2
 73
1
 10
7578466.59845258668
 20
5719884.62960069813
210
0.0
220
0.0
230
1.0
 11
7578466.59845258668
 21
5719884.62960069813
 12
0.067776893109
 22
0.997700502536
 13
-0.997700502536
 23
0.067776893109
 74
3
 41
0.0
 41
0.25
 41
98.03640864972
 75
0
 11
7578473.25999999978
 21
5719982.69000000041
 12
0.067776893109
 22
0.997700502536
 13
-0.997700502536
 23
0.067776893109
 74
0
 75
0
  0
INSERT
  5
1D0
100
AcDbEntity
  8
Dzialki
  6
CONTINUOUS
 62
7
100
AcDbBlockReference
 66
0
  2
L_0_02_1
 10
7578481.96012279484
 20
5719883.87753159739
 41
0.50
 42
0.50
 43
0.50
 50
86.21
  0
INSERT
  5
1D1
100
AcDbEntity
  8
Dzialki
  6
CONTINUOUS
 62
7
100
AcDbBlockReference
 66
0
  2
L_0_02_2
 10
7578488.24000000022
 20
5719978.78000000026
 41
0.50
 42
0.50
 43
0.50
 50
266.21
  0
MLINE
  5
1D2
100
AcDbEntity
  8
Dzialki
  6
L_0_02
 62
7
370
18
100
AcDbMline
  2
L_0_02
340
7
 40
1.0
 70
1
 71
1
 72
2
 73
1
 10
7578481.96012279484
 20
5719883.87753159739
210
0.0
220
0.0
230
1.0
 11
7578481.96012279484
 21
5719883.87753159739
 12
0.066027505746
 22
0.997817803251
 13
-0.997817803251
 23
0.066027505746
 74
3
 41
0.0
 41
0.25
 41
94.860017173126
 75
0
 11
7578488.24000000022
 21
5719978.78000000026
 12
0.066027505746
 22
0.997817803251
 13
-0.997817803251
 23
0.066027505746
 74
0
 75
0
  0
INSERT
  5
1D3
100
AcDbEntity
  8
Dzialki
  6
CONTINUOUS
 62
7
100
AcDbBlockReference
 66
0
  2
L_0_02_1
 10
7578497.47699350771
 20
5719883.11786426604
 41
0.50
 42
0.50
 43
0.50
 50
86.41
  0
INSERT
  5
1D4
100
AcDbEntity
  8
Dzialki
  6
CONTINUOUS
 62
7
100
AcDbBlockReference
 66
0
  2
L_0_02_2
 10
7578503.23000000045
 20
5719974.86000000034
 41
0.50
 42
0.50
 43
0.50
 50
266.41
  0
MLINE
  5
1D5
100
AcDbEntity
  8
Dzialki
  6
L_0_02
 62
7
370
18
100
AcDbMline
  2
L_0_02
340
7
 40
1.0
 70
1
 71
1
 72
2
 73
1
 10
7578497.47699350771
 20
5719883.11786426604
210
0.0
220
0.0
230
1.0
 11
7578497.47699350771
 21
5719883.11786426604
 12
0.062585509744
 22
0.998039605412
 13
-0.998039605412
 23
0.062585509744
 74
3
 41
0.0
 41
0.25
 41
91.672339791782
 75
0
 11
7578503.23000000045
 21
5719974.86000000034
 12
0.062585509744
 22
0.998039605412
 13
-0.998039605412
 23
0.062585509744
 74
0
 75
0
  0
INSERT
  5
1D6
100
AcDbEntity
  8
Dzialki
  6
CONTINUOUS
 62
7
100
AcDbBlockReference
 66
0
  2
L_0_02_1
 10
7578488.64029427338
 20
5719989.52547917143
 41
0.50
 42
0.50
 43
0.50
 50
266.02
  0
INSERT
  5
1D7
100
AcDbEntity
  8
Dzialki
  6
CONTINUOUS
 62
7
100
AcDbBlockReference
 66
0
  2
L_0_02_2
 10
7578488.26999999955
 20
5719984.20999999996
 41
0.50
 42
0.50
 43
0.50
 50
86.02
  0
MLINE
  5
1D8
100
AcDbEntity
  8
Dzialki
  6
L_0_02
 62
7
370
18
100
AcDbMline
  2
L_0_02
340
7
 40
1.0
 70
1
 71
1
 72
2
 73
1
 10
7578488.64029427338
 20
5719989.52547917143
210
0.0
220
0.0
230
1.0
 11
7578488.64029427338
 21
5719989.52547917143
 12
-0.069494960363
 22
-0.997582302612
 13
0.997582302612
 23
-0.069494960363
 74
3
 41
0.0
 41
0.25
 41
5.078361537235
 75
0
 11
7578488.26999999955
 21
5719984.20999999996
 12
-0.069494960363
 22
-0.997582302612
 13
0.997582302612
 23
-0.069494960363
 74
0
 75
0
  0
INSERT
  5
1D9
100
AcDbEntity
  8
Dzialki
  6
CONTINUOUS
 62
7
100
AcDbBlockReference
 66
0
  2
L_0_02_1
 10
7578446.71457113046
 20
5719999.74948117789
 41
0.50
 42
0.50
 43
0.50
 50
266.24
  0
INSERT
  5
1DA
100
AcDbEntity
  8
Dzialki
  6
CONTINUOUS
 62
7
100
AcDbBlockReference
 66
0
  2
L_0_02_2
 10
7578446.41000000015
 20
5719995.12000000011
 41
0.50
 42
0.50
 43
0.50
 50
86.24
  0
MLINE
  5
1DB
100
AcDbEntity
  8
Dzialki
  6
L_0_02
 62
7
370
18
100
AcDbMline
  2
L_0_02
340
7
 40
1.0
 70
1
 71
1
 72
2
 73
1
 10
7578446.71457113046
 20
5719999.74948117789
210
0.0
220
0.0
230
1.0
 11
7578446.71457113046
 21
5719999.74948117789
 12
-0.065647557444
 22
-0.997842872501
 13
0.997842872501
 23
-0.065647557444
 74
3
 41
0.0
 41
0.25
 41
4.389489147397
 75
0
 11
7578446.41000000015
 21
5719995.12000000011
 12
-0.065647557444
 22
-0.997842872501
 13
0.997842872501
 23
-0.065647557444
 74
0
 75
0
  0
CIRCLE
  5
1DC
100
AcDbEntity
  8
EAPADR_T_0
  6
CONTINUOUS
 62
214
370
18
100
AcDbCircle
 10
7578450.69538223092
 20
5719997.75312886108
 40
0.25
  0
CIRCLE
  5
1DD
100
AcDbEntity
  8
EAPADR_T_0
  6
CONTINUOUS
 62
214
370
18
100
AcDbCircle
 10
7578512.29051548988
 20
5719956.2911527995
 40
0.25
  0
CIRCLE
  5
1DE
100
AcDbEntity
  8
EAPADR_T_0
  6
CONTINUOUS
 62
214
370
18
100
AcDbCircle
 10
7578476.6088230703
 20
5719955.37190703955
 40
0.25
  0
POLYLINE
  5
1DF
100
AcDbEntity
  8
EAPADR_T_0
  6
CONTINUOUS
 62
250
370
18
100
AcDb2dPolyline
 66
1
 70
128
  0
VERTEX
  5
1E0
100
AcDbEntity
  8
EAPADR_T_0
100
AcDbVertex
100
AcDb2dVertex
 10
7578450.44694881979
 20
5719997.78073257767
  0
VERTEX
  5
1E1
100
AcDbEntity
  8
EAPADR_T_0
100
AcDbVertex
100
AcDb2dVertex
 10
7578450.94381564204
 20
5719997.72552514449
  0
SEQEND
  5
1E2
100
AcDbEntity
  8
EAPADR_T_0
  0
POLYLINE
  5
1E3
100
AcDbEntity
  8
EAPADR_T_0
  6
CONTINUOUS
 62
250
370
18
100
AcDb2dPolyline
 66
1
 70
128
  0
VERTEX
  5
1E4
100
AcDbEntity
  8
EAPADR_T_0
100
AcDbVertex
100
AcDb2dVertex
 10
7578450.66777851433
 20
5719997.50469544996
  0
VERTEX
  5
1E5
100
AcDbEntity
  8
EAPADR_T_0
100
AcDbVertex
100
AcDb2dVertex
 10
7578450.7229859475
 20
5719998.0015622722
  0
SEQEND
  5
1E6
100
AcDbEntity
  8
EAPADR_T_0
  0
POLYLINE
  5
1E7
100
AcDbEntity
  8
EAPADR_T_0
  6
CONTINUOUS
 62
250
370
18
100
AcDb2dPolyline
 66
1
 70
128
  0
VERTEX
  5
1E8
100
AcDbEntity
  8
EAPADR_T_0
100
AcDbVertex
100
AcDb2dVertex
 10
7578512.0405532429
 20
5719956.29115280509
  0
VERTEX
  5
1E9
100
AcDbEntity
  8
EAPADR_T_0
100
AcDbVertex
100
AcDb2dVertex
 10
7578512.54047773685
 20
5719956.29115279391
  0
SEQEND
  5
1EA
100
AcDbEntity
  8
EAPADR_T_0
  0
POLYLINE
  5
1EB
100
AcDbEntity
  8
EAPADR_T_0
  6
CONTINUOUS
 62
250
370
18
100
AcDb2dPolyline
 66
1
 70
128
  0
VERTEX
  5
1EC
100
AcDbEntity
  8
EAPADR_T_0
100
AcDbVertex
100
AcDb2dVertex
 10
7578512.29051548429
 20
5719956.04119055253
  0
VERTEX
  5
1ED
100
AcDbEntity
  8
EAPADR_T_0
100
AcDbVertex
100
AcDb2dVertex
 10
7578512.29051549546
 20
5719956.54111504648
  0
SEQEND
  5
1EE
100
AcDbEntity
  8
EAPADR_T_0
  0
POLYLINE
  5
1EF
100
AcDbEntity
  8
EAPADR_T_0
  6
CONTINUOUS
 62
250
370
18
100
AcDb2dPolyline
 66
1
 70
128
  0
VERTEX
  5
1F0
100
AcDbEntity
  8
EAPADR_T_0
100
AcDbVertex
100
AcDb2dVertex
 10
7578476.3944822168
 20
5719955.50051156338
  0
VERTEX
  5
1F1
100
AcDbEntity
  8
EAPADR_T_0
100
AcDbVertex
100
AcDb2dVertex
 10
7578476.82316392381
 20
5719955.24330251571
  0
SEQEND
  5
1F2
100
AcDbEntity
  8
EAPADR_T_0
  0
POLYLINE
  5
1F3
100
AcDbEntity
  8
EAPADR_T_0
  6
CONTINUOUS
 62
250
370
18
100
AcDb2dPolyline
 66
1
 70
128
  0
VERTEX
  5
1F4
100
AcDbEntity
  8
EAPADR_T_0
100
AcDbVertex
100
AcDb2dVertex
 10
7578476.48021854646
 20
5719955.15756618604
  0
VERTEX
  5
1F5
100
AcDbEntity
  8
EAPADR_T_0
100
AcDbVertex
100
AcDb2dVertex
 10
7578476.73742759414
 20
5719955.58624789305
  0
SEQEND
  5
1F6
100
AcDbEntity
  8
EAPADR_T_0
  0
POLYLINE
  5
1F7
100
AcDbEntity
  8
EGBB_L_0
  6
CONTINUOUS
370
50
100
AcDb2dPolyline
 66
1
 70
128
  0
VERTEX
  5
1F8
100
AcDbEntity
  8
EGBB_L_0
100
AcDbVertex
100
AcDb2dVertex
 10
7578470.45440000016
 20
5719956.55989999976
  0
VERTEX
  5
1F9
100
AcDbEntity
  8
EGBB_L_0
100
AcDbVertex
100
AcDb2dVertex
 10
7578481.68950000033
 20
5719955.87609999999
  0
SEQEND
  5
1FA
100
AcDbEntity
  8
EGBB_L_0
  0
POLYLINE
  5
1FB
100
AcDbEntity
  8
EGBB_L_0
  6
CONTINUOUS
370
50
100
AcDb2dPolyline
 66
1
 70
128
  0
VERTEX
  5
1FC
100
AcDbEntity
  8
EGBB_L_0
100
AcDbVertex
100
AcDb2dVertex
 10
7578481.68950000033
 20
5719955.87609999999
  0
VERTEX
  5
1FD
100
AcDbEntity
  8
EGBB_L_0
100
AcDbVertex
100
AcDb2dVertex
 10
7578481.0932
 20
5719946.62210000027
  0
SEQEND
  5
1FE
100
AcDbEntity
  8
EGBB_L_0
  0
POLYLINE
  5
1FF
100
AcDbEntity
  8
EGBB_L_0
  6
CONTINUOUS
370
50
100
AcDb2dPolyline
 66
1
 70
128
  0
VERTEX
  5
200
100
AcDbEntity
  8
EGBB_L_0
100
AcDbVertex
100
AcDb2dVertex
 10
7578481.0932
 20
5719946.62210000027
  0
VERTEX
  5
201
100
AcDbEntity
  8
EGBB_L_0
100
AcDbVertex
100
AcDb2dVertex
 10
7578477.53160000034
 20
5719946.8479000004
  0
SEQEND
  5
202
100
AcDbEntity
  8
EGBB_L_0
  0
POLYLINE
  5
203
100
AcDbEntity
  8
EGBB_L_0
  6
CONTINUOUS
370
50
100
AcDb2dPolyline
 66
1
 70
128
  0
VERTEX
  5
204
100
AcDbEntity
  8
EGBB_L_0
100
AcDbVertex
100
AcDb2dVertex
 10
7578477.53160000034
 20
5719946.8479000004
  0
VERTEX
  5
205
100
AcDbEntity
  8
EGBB_L_0
100
AcDbVertex
100
AcDb2dVertex
 10
7578477.47759999987
 20
5719945.97759999987
  0
SEQEND
  5
206
100
AcDbEntity
  8
EGBB_L_0
  0
POLYLINE
  5
207
100
AcDbEntity
  8
EGBB_L_0
  6
CONTINUOUS
370
50
100
AcDb2dPolyline
 66
1
 70
128
  0
VERTEX
  5
208
100
AcDbEntity
  8
EGBB_L_0
100
AcDbVertex
100
AcDb2dVertex
 10
7578477.47759999987
 20
5719945.97759999987
  0
VERTEX
  5
209
100
AcDbEntity
  8
EGBB_L_0
100
AcDbVertex
100
AcDb2dVertex
 10
7578473.3256000001
 20
5719946.24940000009
  0
SEQEND
  5
20A
100
AcDbEntity
  8
EGBB_L_0
  0
POLYLINE
  5
20B
100
AcDbEntity
  8
EGBB_L_0
  6
CONTINUOUS
370
50
100
AcDb2dPolyline
 66
1
 70
128
  0
VERTEX
  5
20C
100
AcDbEntity
  8
EGBB_L_0
100
AcDbVertex
100
AcDb2dVertex
 10
7578473.3256000001
 20
5719946.24940000009
  0
VERTEX
  5
20D
100
AcDbEntity
  8
EGBB_L_0
100
AcDbVertex
100
AcDb2dVertex
 10
7578473.37959999964
 20
5719947.11980000045
  0
SEQEND
  5
20E
100
AcDbEntity
  8
EGBB_L_0
  0
POLYLINE
  5
20F
100
AcDbEntity
  8
EGBB_L_0
  6
CONTINUOUS
370
50
100
AcDb2dPolyline
 66
1
 70
128
  0
VERTEX
  5
210
100
AcDbEntity
  8
EGBB_L_0
100
AcDbVertex
100
AcDb2dVertex
 10
7578473.37959999964
 20
5719947.11980000045
  0
VERTEX
  5
211
100
AcDbEntity
  8
EGBB_L_0
100
AcDbVertex
100
AcDb2dVertex
 10
7578469.85800000001
 20
5719947.3359000003
  0
SEQEND
  5
212
100
AcDbEntity
  8
EGBB_L_0
  0
POLYLINE
  5
213
100
AcDbEntity
  8
EGBB_L_0
  6
CONTINUOUS
370
50
100
AcDb2dPolyline
 66
1
 70
128
  0
VERTEX
  5
214
100
AcDbEntity
  8
EGBB_L_0
100
AcDbVertex
100
AcDb2dVertex
 10
7578469.85800000001
 20
5719947.3359000003
  0
VERTEX
  5
215
100
AcDbEntity
  8
EGBB_L_0
100
AcDbVertex
100
AcDb2dVertex
 10
7578470.45440000016
 20
5719956.55989999976
  0
SEQEND
  5
216
100
AcDbEntity
  8
EGBB_L_0
  0
POLYLINE
  5
217
100
AcDbEntity
  8
EGBB_L_0
  6
CONTINUOUS
370
50
100
AcDb2dPolyline
 66
1
 70
128
  0
VERTEX
  5
218
100
AcDbEntity
  8
EGBB_L_0
100
AcDbVertex
100
AcDb2dVertex
 10
7578460.85749999993
 20
5719960.40490000043
  0
VERTEX
  5
219
100
AcDbEntity
  8
EGBB_L_0
100
AcDbVertex
100
AcDb2dVertex
 10
7578466.91100000031
 20
5719959.92590000015
  0
SEQEND
  5
21A
100
AcDbEntity
  8
EGBB_L_0
  0
POLYLINE
  5
21B
100
AcDbEntity
  8
EGBB_L_0
  6
CONTINUOUS
370
50
100
AcDb2dPolyline
 66
1
 70
128
  0
VERTEX
  5
21C
100
AcDbEntity
  8
EGBB_L_0
100
AcDbVertex
100
AcDb2dVertex
 10
7578466.91100000031
 20
5719959.92590000015
  0
VERTEX
  5
21D
100
AcDbEntity
  8
EGBB_L_0
100
AcDbVertex
100
AcDb2dVertex
 10
7578466.37160000019
 20
5719952.5923000006
  0
SEQEND
  5
21E
100
AcDbEntity
  8
EGBB_L_0
  0
POLYLINE
  5
21F
100
AcDbEntity
  8
EGBB_L_0
  6
CONTINUOUS
370
50
100
AcDb2dPolyline
 66
1
 70
128
  0
VERTEX
  5
220
100
AcDbEntity
  8
EGBB_L_0
100
AcDbVertex
100
AcDb2dVertex
 10
7578466.37160000019
 20
5719952.5923000006
  0
VERTEX
  5
221
100
AcDbEntity
  8
EGBB_L_0
100
AcDbVertex
100
AcDb2dVertex
 10
7578460.33809999935
 20
5719953.07129999995
  0
SEQEND
  5
222
100
AcDbEntity
  8
EGBB_L_0
  0
POLYLINE
  5
223
100
AcDbEntity
  8
EGBB_L_0
  6
CONTINUOUS
370
50
100
AcDb2dPolyline
 66
1
 70
128
  0
VERTEX
  5
224
100
AcDbEntity
  8
EGBB_L_0
100
AcDbVertex
100
AcDb2dVertex
 10
7578460.33809999935
 20
5719953.07129999995
  0
VERTEX
  5
225
100
AcDbEntity
  8
EGBB_L_0
100
AcDbVertex
100
AcDb2dVertex
 10
7578460.85749999993
 20
5719960.40490000043
  0
SEQEND
  5
226
100
AcDbEntity
  8
EGBB_L_0
  0
POLYLINE
  5
227
100
AcDbEntity
  8
EGBB_L_0
  6
CONTINUOUS
370
50
100
AcDb2dPolyline
 66
1
 70
128
  0
VERTEX
  5
228
100
AcDbEntity
  8
EGBB_L_0
100
AcDbVertex
100
AcDb2dVertex
 10
7578517.00927554909
 20
5719956.70484706573
  0
VERTEX
  5
229
100
AcDbEntity
  8
EGBB_L_0
100
AcDbVertex
100
AcDb2dVertex
 10
7578506.13389516063
 20
5719957.33932908066
  0
SEQEND
  5
22A
100
AcDbEntity
  8
EGBB_L_0
  0
POLYLINE
  5
22B
100
AcDbEntity
  8
EGBB_L_0
  6
CONTINUOUS
370
50
100
AcDb2dPolyline
 66
1
 70
128
  0
VERTEX
  5
22C
100
AcDbEntity
  8
EGBB_L_0
100
AcDbVertex
100
AcDb2dVertex
 10
7578505.36819808092
 20
5719944.38193320017
  0
VERTEX
  5
22D
100
AcDbEntity
  8
EGBB_L_0
100
AcDbVertex
100
AcDb2dVertex
 10
7578506.13389516063
 20
5719957.33932908066
  0
SEQEND
  5
22E
100
AcDbEntity
  8
EGBB_L_0
  0
POLYLINE
  5
22F
100
AcDbEntity
  8
EGBB_L_0
  6
CONTINUOUS
370
50
100
AcDb2dPolyline
 66
1
 70
128
  0
VERTEX
  5
230
100
AcDbEntity
  8
EGBB_L_0
100
AcDbVertex
100
AcDb2dVertex
 10
7578505.36819808092
 20
5719944.38193320017
  0
VERTEX
  5
231
100
AcDbEntity
  8
EGBB_L_0
100
AcDbVertex
100
AcDb2dVertex
 10
7578516.15558536444
 20
5719943.67758706398
  0
SEQEND
  5
232
100
AcDbEntity
  8
EGBB_L_0
  0
POLYLINE
  5
233
100
AcDbEntity
  8
EGBB_L_0
  6
CONTINUOUS
370
50
100
AcDb2dPolyline
 66
1
 70
128
  0
VERTEX
  5
234
100
AcDbEntity
  8
EGBB_L_0
100
AcDbVertex
100
AcDb2dVertex
 10
7578456.0
 20
5719996.44000000041
  0
VERTEX
  5
235
100
AcDbEntity
  8
EGBB_L_0
100
AcDbVertex
100
AcDb2dVertex
 10
7578446.79999999981
 20
5719997.75
  0
SEQEND
  5
236
100
AcDbEntity
  8
EGBB_L_0
  0
POLYLINE
  5
237
100
AcDbEntity
  8
EGBB_L_0
  6
CONTINUOUS
370
50
100
AcDb2dPolyline
 66
1
 70
128
  0
VERTEX
  5
238
100
AcDbEntity
  8
EGBB_L_0
100
AcDbVertex
100
AcDb2dVertex
 10
7578446.79999999981
 20
5719997.75
  0
VERTEX
  5
239
100
AcDbEntity
  8
EGBB_L_0
100
AcDbVertex
100
AcDb2dVertex
 10
7578447.08748915233
 20
5719999.65854143258
  0
SEQEND
  5
23A
100
AcDbEntity
  8
EGBB_L_0
  0
POLYLINE
  5
23B
100
AcDbEntity
  8
EGBB_L_0
  6
CONTINUOUS
370
50
100
AcDb2dPolyline
 66
1
 70
128
  0
VERTEX
  5
23C
100
AcDbEntity
  8
EGBB_L_0
100
AcDbVertex
100
AcDb2dVertex
 10
7578456.15279686917
 20
5719997.44787653908
  0
VERTEX
  5
23D
100
AcDbEntity
  8
EGBB_L_0
100
AcDbVertex
100
AcDb2dVertex
 10
7578456.0
 20
5719996.44000000041
  0
SEQEND
  5
23E
100
AcDbEntity
  8
EGBB_L_0
  0
POLYLINE
  5
23F
100
AcDbEntity
  8
EGBC_L_3
  6
CONTINUOUS
 62
7
370
18
100
AcDb2dPolyline
 66
1
 70
128
  0
VERTEX
  5
240
100
AcDbEntity
  8
EGBC_L_3
100
AcDbVertex
100
AcDb2dVertex
 10
7578477.47759999987
 20
5719945.97759999987
  0
VERTEX
  5
241
100
AcDbEntity
  8
EGBC_L_3
100
AcDbVertex
100
AcDb2dVertex
 10
7578477.39398705028
 20
5719944.70033382997
  0
SEQEND
  5
242
100
AcDbEntity
  8
EGBC_L_3
  0
POLYLINE
  5
243
100
AcDbEntity
  8
EGBC_L_3
  6
CONTINUOUS
 62
7
370
18
100
AcDb2dPolyline
 66
1
 70
128
  0
VERTEX
  5
244
100
AcDbEntity
  8
EGBC_L_3
100
AcDbVertex
100
AcDb2dVertex
 10
7578477.39398705028
 20
5719944.70033382997
  0
VERTEX
  5
245
100
AcDbEntity
  8
EGBC_L_3
100
AcDbVertex
100
AcDb2dVertex
 10
7578473.24198705982
 20
5719944.97213383019
  0
SEQEND
  5
246
100
AcDbEntity
  8
EGBC_L_3
  0
POLYLINE
  5
247
100
AcDbEntity
  8
EGBC_L_3
  6
CONTINUOUS
 62
7
370
18
100
AcDb2dPolyline
 66
1
 70
128
  0
VERTEX
  5
248
100
AcDbEntity
  8
EGBC_L_3
100
AcDbVertex
100
AcDb2dVertex
 10
7578473.24198705982
 20
5719944.97213383019
  0
VERTEX
  5
249
100
AcDbEntity
  8
EGBC_L_3
100
AcDbVertex
100
AcDb2dVertex
 10
7578473.3256000001
 20
5719946.24940000009
  0
SEQEND
  5
24A
100
AcDbEntity
  8
EGBC_L_3
  0
POLYLINE
  5
24B
100
AcDbEntity
  8
EGBC_L_3
  6
CONTINUOUS
 62
7
370
18
100
AcDb2dPolyline
 66
1
 70
128
  0
VERTEX
  5
24C
100
AcDbEntity
  8
EGBC_L_3
100
AcDbVertex
100
AcDb2dVertex
 10
7578473.3256000001
 20
5719946.24940000009
  0
VERTEX
  5
24D
100
AcDbEntity
  8
EGBC_L_3
100
AcDbVertex
100
AcDb2dVertex
 10
7578477.47759999987
 20
5719945.97759999987
  0
SEQEND
  5
24E
100
AcDbEntity
  8
EGBC_L_3
  0
POLYLINE
  5
24F
100
AcDbEntity
  8
EGBE_L_0
  6
CONTINUOUS
 62
7
370
18
100
AcDb2dPolyline
 66
1
 70
128
  0
VERTEX
  5
250
100
AcDbEntity
  8
EGBE_L_0
100
AcDbVertex
100
AcDb2dVertex
 10
7578476.83628705144
 20
5719943.83493383043
  0
VERTEX
  5
251
100
AcDbEntity
  8
EGBE_L_0
100
AcDbVertex
100
AcDb2dVertex
 10
7578473.68208704982
 20
5719944.04133382998
  0
SEQEND
  5
252
100
AcDbEntity
  8
EGBE_L_0
  0
POLYLINE
  5
253
100
AcDbEntity
  8
EGBE_L_0
  6
CONTINUOUS
 62
7
370
18
100
AcDb2dPolyline
 66
1
 70
128
  0
VERTEX
  5
254
100
AcDbEntity
  8
EGBE_L_0
100
AcDbVertex
100
AcDb2dVertex
 10
7578473.68208704982
 20
5719944.04133382998
  0
VERTEX
  5
255
100
AcDbEntity
  8
EGBE_L_0
100
AcDbVertex
100
AcDb2dVertex
 10
7578473.70818705019
 20
5719944.44053382985
  0
SEQEND
  5
256
100
AcDbEntity
  8
EGBE_L_0
  0
POLYLINE
  5
257
100
AcDbEntity
  8
EGBE_L_0
  6
CONTINUOUS
 62
7
370
18
100
AcDb2dPolyline
 66
1
 70
128
  0
VERTEX
  5
258
100
AcDbEntity
  8
EGBE_L_0
100
AcDbVertex
100
AcDb2dVertex
 10
7578473.70818705019
 20
5719944.44053382985
  0
VERTEX
  5
259
100
AcDbEntity
  8
EGBE_L_0
100
AcDbVertex
100
AcDb2dVertex
 10
7578476.86238705087
 20
5719944.23413383029
  0
SEQEND
  5
25A
100
AcDbEntity
  8
EGBE_L_0
  0
POLYLINE
  5
25B
100
AcDbEntity
  8
EGBE_L_0
  6
CONTINUOUS
 62
7
370
18
100
AcDb2dPolyline
 66
1
 70
128
  0
VERTEX
  5
25C
100
AcDbEntity
  8
EGBE_L_0
100
AcDbVertex
100
AcDb2dVertex
 10
7578476.86238705087
 20
5719944.23413383029
  0
VERTEX
  5
25D
100
AcDbEntity
  8
EGBE_L_0
100
AcDbVertex
100
AcDb2dVertex
 10
7578476.83628705144
 20
5719943.83493383043
  0
SEQEND
  5
25E
100
AcDbEntity
  8
EGBE_L_0
  0
POLYLINE
  5
25F
100
AcDbEntity
  8
EGBE_L_0
  6
CONTINUOUS
 62
7
370
18
100
AcDb2dPolyline
 66
1
 70
128
  0
VERTEX
  5
260
100
AcDbEntity
  8
EGBE_L_0
100
AcDbVertex
100
AcDb2dVertex
 10
7578516.82569999993
 20
5719957.2165000001
  0
VERTEX
  5
261
100
AcDbEntity
  8
EGBE_L_0
100
AcDbVertex
100
AcDb2dVertex
 10
7578512.61209999956
 20
5719957.46230000071
  0
SEQEND
  5
262
100
AcDbEntity
  8
EGBE_L_0
  0
POLYLINE
  5
263
100
AcDbEntity
  8
EGBE_L_0
  6
CONTINUOUS
 62
7
370
18
100
AcDb2dPolyline
 66
1
 70
128
  0
VERTEX
  5
264
100
AcDbEntity
  8
EGBE_L_0
100
AcDbVertex
100
AcDb2dVertex
 10
7578512.61209999956
 20
5719957.46230000071
  0
VERTEX
  5
265
100
AcDbEntity
  8
EGBE_L_0
100
AcDbVertex
100
AcDb2dVertex
 10
7578512.71399999969
 20
5719959.20759999938
  0
SEQEND
  5
266
100
AcDbEntity
  8
EGBE_L_0
  0
POLYLINE
  5
267
100
AcDbEntity
  8
EGBE_L_0
  6
CONTINUOUS
 62
7
370
18
100
AcDb2dPolyline
 66
1
 70
128
  0
VERTEX
  5
268
100
AcDbEntity
  8
EGBE_L_0
100
AcDbVertex
100
AcDb2dVertex
 10
7578512.71399999969
 20
5719959.20759999938
  0
VERTEX
  5
269
100
AcDbEntity
  8
EGBE_L_0
100
AcDbVertex
100
AcDb2dVertex
 10
7578513.06620000023
 20
5719959.18889999948
  0
SEQEND
  5
26A
100
AcDbEntity
  8
EGBE_L_0
  0
POLYLINE
  5
26B
100
AcDbEntity
  8
EGBE_L_0
  6
CONTINUOUS
 62
7
370
18
100
AcDb2dPolyline
 66
1
 70
128
  0
VERTEX
  5
26C
100
AcDbEntity
  8
EGBE_L_0
100
AcDbVertex
100
AcDb2dVertex
 10
7578513.06620000023
 20
5719959.18889999948
  0
VERTEX
  5
26D
100
AcDbEntity
  8
EGBE_L_0
100
AcDbVertex
100
AcDb2dVertex
 10
7578514.36440000031
 20
5719959.11990000028
  0
SEQEND
  5
26E
100
AcDbEntity
  8
EGBE_L_0
  0
POLYLINE
  5
26F
100
AcDbEntity
  8
EGBE_L_0
  6
CONTINUOUS
 62
7
370
18
100
AcDb2dPolyline
 66
1
 70
128
  0
VERTEX
  5
270
100
AcDbEntity
  8
EGBE_L_0
100
AcDbVertex
100
AcDb2dVertex
 10
7578514.36440000031
 20
5719959.11990000028
  0
VERTEX
  5
271
100
AcDbEntity
  8
EGBE_L_0
100
AcDbVertex
100
AcDb2dVertex
 10
7578516.8964999998
 20
5719958.98529999983
  0
SEQEND
  5
272
100
AcDbEntity
  8
EGBE_L_0
  0
POLYLINE
  5
273
100
AcDbEntity
  8
EGBE_L_0
  6
CONTINUOUS
 62
7
370
18
100
AcDb2dPolyline
 66
1
 70
128
  0
VERTEX
  5
274
100
AcDbEntity
  8
EGBE_L_0
100
AcDbVertex
100
AcDb2dVertex
 10
7578516.8964999998
 20
5719958.98529999983
  0
VERTEX
  5
275
100
AcDbEntity
  8
EGBE_L_0
100
AcDbVertex
100
AcDb2dVertex
 10
7578516.82569999993
 20
5719957.2165000001
  0
SEQEND
  5
276
100
AcDbEntity
  8
EGBE_L_0
  0
POLYLINE
  5
277
100
AcDbEntity
  8
EGBE_L_0
  6
CONTINUOUS
 62
7
370
18
100
AcDb2dPolyline
 66
1
 70
128
  0
VERTEX
  5
278
100
AcDbEntity
  8
EGBE_L_0
100
AcDbVertex
100
AcDb2dVertex
 10
7578477.39398705028
 20
5719944.70033382997
  0
VERTEX
  5
279
100
AcDbEntity
  8
EGBE_L_0
100
AcDbVertex
100
AcDb2dVertex
 10
7578477.30253539979
 20
5719943.30332394876
  0
SEQEND
  5
27A
100
AcDbEntity
  8
EGBE_L_0
  0
POLYLINE
  5
27B
100
AcDbEntity
  8
EGBE_L_0
  6
CONTINUOUS
 62
7
370
18
100
AcDb2dPolyline
 66
1
 70
128
  0
VERTEX
  5
27C
100
AcDbEntity
  8
EGBE_L_0
100
AcDbVertex
100
AcDb2dVertex
 10
7578477.30253539979
 20
5719943.30332394876
  0
VERTEX
  5
27D
100
AcDbEntity
  8
EGBE_L_0
100
AcDbVertex
100
AcDb2dVertex
 10
7578473.15053539909
 20
5719943.57512394991
  0
SEQEND
  5
27E
100
AcDbEntity
  8
EGBE_L_0
  0
POLYLINE
  5
27F
100
AcDbEntity
  8
EGBE_L_0
  6
CONTINUOUS
 62
7
370
18
100
AcDb2dPolyline
 66
1
 70
128
  0
VERTEX
  5
280
100
AcDbEntity
  8
EGBE_L_0
100
AcDbVertex
100
AcDb2dVertex
 10
7578473.15053539909
 20
5719943.57512394991
  0
VERTEX
  5
281
100
AcDbEntity
  8
EGBE_L_0
100
AcDbVertex
100
AcDb2dVertex
 10
7578473.24198705982
 20
5719944.97213383019
  0
SEQEND
  5
282
100
AcDbEntity
  8
EGBE_L_0
  0
POLYLINE
  5
283
100
AcDbEntity
  8
EGBE_L_0
  6
CONTINUOUS
 62
7
370
18
100
AcDb2dPolyline
 66
1
 70
128
  0
VERTEX
  5
284
100
AcDbEntity
  8
EGBE_L_0
100
AcDbVertex
100
AcDb2dVertex
 10
7578473.24198705982
 20
5719944.97213383019
  0
VERTEX
  5
285
100
AcDbEntity
  8
EGBE_L_0
100
AcDbVertex
100
AcDb2dVertex
 10
7578477.39398705028
 20
5719944.70033382997
  0
SEQEND
  5
286
100
AcDbEntity
  8
EGBE_L_0
  0
POLYLINE
  5
287
100
AcDbEntity
  8
EGBE_L_0
  6
CONTINUOUS
 62
7
370
18
100
AcDb2dPolyline
 66
1
 70
128
  0
VERTEX
  5
288
100
AcDbEntity
  8
EGBE_L_0
100
AcDbVertex
100
AcDb2dVertex
 10
7578512.08377799019
 20
5719956.99220617022
  0
VERTEX
  5
289
100
AcDbEntity
  8
EGBE_L_0
100
AcDbVertex
100
AcDb2dVertex
 10
7578512.24390000012
 20
5719959.7332999995
  0
SEQEND
  5
28A
100
AcDbEntity
  8
EGBE_L_0
  0
POLYLINE
  5
28B
100
AcDbEntity
  8
EGBE_L_0
  6
CONTINUOUS
 62
7
370
18
100
AcDb2dPolyline
 66
1
 70
128
  0
VERTEX
  5
28C
100
AcDbEntity
  8
EGBE_L_0
100
AcDbVertex
100
AcDb2dVertex
 10
7578517.00927554909
 20
5719956.7048470648
  0
VERTEX
  5
28D
100
AcDbEntity
  8
EGBE_L_0
100
AcDbVertex
100
AcDb2dVertex
 10
7578512.08377799019
 20
5719956.99220617022
  0
SEQEND
  5
28E
100
AcDbEntity
  8
EGBE_L_0
  0
POLYLINE
  5
28F
100
AcDbEntity
  8
EGBE_L_0
  6
CONTINUOUS
 62
7
370
18
100
AcDb2dPolyline
 66
1
 70
128
  0
VERTEX
  5
290
100
AcDbEntity
  8
EGBE_L_0
100
AcDbVertex
100
AcDb2dVertex
 10
7578512.24390000012
 20
5719959.7332999995
  0
VERTEX
  5
291
100
AcDbEntity
  8
EGBE_L_0
100
AcDbVertex
100
AcDb2dVertex
 10
7578513.09270187002
 20
5719959.6881848406
  0
SEQEND
  5
292
100
AcDbEntity
  8
EGBE_L_0
  0
POLYLINE
  5
293
100
AcDbEntity
  8
EGBE_L_0
  6
CONTINUOUS
 62
7
370
18
100
AcDb2dPolyline
 66
1
 70
128
  0
VERTEX
  5
294
100
AcDbEntity
  8
EGBE_L_0
100
AcDbVertex
100
AcDb2dVertex
 10
7578513.09270187002
 20
5719959.6881848406
  0
VERTEX
  5
295
100
AcDbEntity
  8
EGBE_L_0
100
AcDbVertex
100
AcDb2dVertex
 10
7578514.39086945076
 20
5719959.61918517016
  0
SEQEND
  5
296
100
AcDbEntity
  8
EGBE_L_0
  0
POLYLINE
  5
297
100
AcDbEntity
  8
EGBE_L_0
  6
CONTINUOUS
 62
7
370
18
100
AcDb2dPolyline
 66
1
 70
128
  0
VERTEX
  5
298
100
AcDbEntity
  8
EGBE_L_0
100
AcDbVertex
100
AcDb2dVertex
 10
7578514.39086945076
 20
5719959.61918517016
  0
VERTEX
  5
299
100
AcDbEntity
  8
EGBE_L_0
100
AcDbVertex
100
AcDb2dVertex
 10
7578517.19050387014
 20
5719959.47038016189
  0
SEQEND
  5
29A
100
AcDbEntity
  8
EGBE_L_0
  0
POLYLINE
  5
29B
100
AcDbEntity
  8
EGBE_L_3
  6
CONTINUOUS
 62
7
370
18
100
AcDb2dPolyline
 66
1
 70
128
  0
VERTEX
  5
29C
100
AcDbEntity
  8
EGBE_L_3
100
AcDbVertex
100
AcDb2dVertex
 10
7578472.63080413174
 20
5719956.92836309411
  0
VERTEX
  5
29D
100
AcDbEntity
  8
EGBE_L_3
100
AcDbVertex
100
AcDb2dVertex
 10
7578474.12670371868
 20
5719956.83731840551
  0
SEQEND
  5
29E
100
AcDbEntity
  8
EGBE_L_3
  0
POLYLINE
  5
29F
100
AcDbEntity
  8
EGBE_L_3
  6
CONTINUOUS
 62
7
370
18
100
AcDb2dPolyline
 66
1
 70
128
  0
VERTEX
  5
2A0
100
AcDbEntity
  8
EGBE_L_3
100
AcDbVertex
100
AcDb2dVertex
 10
7578472.66117934044
 20
5719957.42743958719
  0
VERTEX
  5
2A1
100
AcDbEntity
  8
EGBE_L_3
100
AcDbVertex
100
AcDb2dVertex
 10
7578474.15707892459
 20
5719957.33639489859
  0
SEQEND
  5
2A2
100
AcDbEntity
  8
EGBE_L_3
  0
POLYLINE
  5
2A3
100
AcDbEntity
  8
EGBE_L_3
  6
CONTINUOUS
 62
7
370
18
100
AcDb2dPolyline
 66
1
 70
128
  0
VERTEX
  5
2A4
100
AcDbEntity
  8
EGBE_L_3
100
AcDbVertex
100
AcDb2dVertex
 10
7578472.69155455101
 20
5719957.92651608121
  0
VERTEX
  5
2A5
100
AcDbEntity
  8
EGBE_L_3
100
AcDbVertex
100
AcDb2dVertex
 10
7578474.18745413236
 20
5719957.83547139261
  0
SEQEND
  5
2A6
100
AcDbEntity
  8
EGBE_L_3
  0
POLYLINE
  5
2A7
100
AcDbEntity
  8
EGBE_L_3
  6
CONTINUOUS
 62
7
370
18
100
AcDb2dPolyline
 66
1
 70
128
  0
VERTEX
  5
2A8
100
AcDbEntity
  8
EGBE_L_3
100
AcDbVertex
100
AcDb2dVertex
 10
7578513.09270187002
 20
5719959.6881848406
  0
VERTEX
  5
2A9
100
AcDbEntity
  8
EGBE_L_3
100
AcDbVertex
100
AcDb2dVertex
 10
7578514.39086945076
 20
5719959.61918517109
  0
SEQEND
  5
2AA
100
AcDbEntity
  8
EGBE_L_3
  0
POLYLINE
  5
2AB
100
AcDbEntity
  8
EGBE_L_3
  6
CONTINUOUS
 62
7
370
18
100
AcDb2dPolyline
 66
1
 70
128
  0
VERTEX
  5
2AC
100
AcDbEntity
  8
EGBE_L_3
100
AcDbVertex
100
AcDb2dVertex
 10
7578513.11924020294
 20
5719960.18748005945
  0
VERTEX
  5
2AD
100
AcDbEntity
  8
EGBE_L_3
100
AcDbVertex
100
AcDb2dVertex
 10
7578514.41740778368
 20
5719960.1184803918
  0
SEQEND
  5
2AE
100
AcDbEntity
  8
EGBE_L_3
  0
POLYLINE
  5
2AF
100
AcDbEntity
  8
EGBE_L_3
  6
CONTINUOUS
 62
7
370
18
100
AcDb2dPolyline
 66
1
 70
128
  0
VERTEX
  5
2B0
100
AcDbEntity
  8
EGBE_L_3
100
AcDbVertex
100
AcDb2dVertex
 10
7578472.60042892117
 20
5719956.42928660009
  0
VERTEX
  5
2B1
100
AcDbEntity
  8
EGBE_L_3
100
AcDbVertex
100
AcDb2dVertex
 10
7578472.7188922409
 20
5719958.37568492908
  0
SEQEND
  5
2B2
100
AcDbEntity
  8
EGBE_L_3
  0
POLYLINE
  5
2B3
100
AcDbEntity
  8
EGBE_L_3
  6
CONTINUOUS
 62
7
370
18
100
AcDb2dPolyline
 66
1
 70
128
  0
VERTEX
  5
2B4
100
AcDbEntity
  8
EGBE_L_3
100
AcDbVertex
100
AcDb2dVertex
 10
7578472.7188922409
 20
5719958.37568492908
  0
VERTEX
  5
2B5
100
AcDbEntity
  8
EGBE_L_3
100
AcDbVertex
100
AcDb2dVertex
 10
7578474.21479182132
 20
5719958.28464023955
  0
SEQEND
  5
2B6
100
AcDbEntity
  8
EGBE_L_3
  0
POLYLINE
  5
2B7
100
AcDbEntity
  8
EGBE_L_3
  6
CONTINUOUS
 62
7
370
18
100
AcDb2dPolyline
 66
1
 70
128
  0
VERTEX
  5
2B8
100
AcDbEntity
  8
EGBE_L_3
100
AcDbVertex
100
AcDb2dVertex
 10
7578474.21479182132
 20
5719958.28464023955
  0
VERTEX
  5
2B9
100
AcDbEntity
  8
EGBE_L_3
100
AcDbVertex
100
AcDb2dVertex
 10
7578474.0963285109
 20
5719956.33824191988
  0
SEQEND
  5
2BA
100
AcDbEntity
  8
EGBE_L_3
  0
POLYLINE
  5
2BB
100
AcDbEntity
  8
EGBE_L_3
  6
CONTINUOUS
 62
7
370
18
100
AcDb2dPolyline
 66
1
 70
128
  0
VERTEX
  5
2BC
100
AcDbEntity
  8
EGBE_L_3
100
AcDbVertex
100
AcDb2dVertex
 10
7578474.0963285109
 20
5719956.33824191988
  0
VERTEX
  5
2BD
100
AcDbEntity
  8
EGBE_L_3
100
AcDbVertex
100
AcDb2dVertex
 10
7578472.60042892117
 20
5719956.42928660009
  0
SEQEND
  5
2BE
100
AcDbEntity
  8
EGBE_L_3
  0
POLYLINE
  5
2BF
100
AcDbEntity
  8
EGBE_L_3
  6
CONTINUOUS
 62
7
370
18
100
AcDb2dPolyline
 66
1
 70
128
  0
VERTEX
  5
2C0
100
AcDbEntity
  8
EGBE_L_3
100
AcDbVertex
100
AcDb2dVertex
 10
7578513.09270187002
 20
5719959.6881848406
  0
VERTEX
  5
2C1
100
AcDbEntity
  8
EGBE_L_3
100
AcDbVertex
100
AcDb2dVertex
 10
7578513.1325093694
 20
5719960.4371276712
  0
SEQEND
  5
2C2
100
AcDbEntity
  8
EGBE_L_3
  0
POLYLINE
  5
2C3
100
AcDbEntity
  8
EGBE_L_3
  6
CONTINUOUS
 62
7
370
18
100
AcDb2dPolyline
 66
1
 70
128
  0
VERTEX
  5
2C4
100
AcDbEntity
  8
EGBE_L_3
100
AcDbVertex
100
AcDb2dVertex
 10
7578513.1325093694
 20
5719960.4371276712
  0
VERTEX
  5
2C5
100
AcDbEntity
  8
EGBE_L_3
100
AcDbVertex
100
AcDb2dVertex
 10
7578514.43067695107
 20
5719960.36812799983
  0
SEQEND
  5
2C6
100
AcDbEntity
  8
EGBE_L_3
  0
POLYLINE
  5
2C7
100
AcDbEntity
  8
EGBE_L_3
  6
CONTINUOUS
 62
7
370
18
100
AcDb2dPolyline
 66
1
 70
128
  0
VERTEX
  5
2C8
100
AcDbEntity
  8
EGBE_L_3
100
AcDbVertex
100
AcDb2dVertex
 10
7578514.43067695107
 20
5719960.36812799983
  0
VERTEX
  5
2C9
100
AcDbEntity
  8
EGBE_L_3
100
AcDbVertex
100
AcDb2dVertex
 10
7578514.39086945076
 20
5719959.61918517016
  0
SEQEND
  5
2CA
100
AcDbEntity
  8
EGBE_L_3
  0
POLYLINE
  5
2CB
100
AcDbEntity
  8
EGBE_L_3
  6
CONTINUOUS
 62
7
370
18
100
AcDb2dPolyline
 66
1
 70
128
  0
VERTEX
  5
2CC
100
AcDbEntity
  8
EGBE_L_3
100
AcDbVertex
100
AcDb2dVertex
 10
7578514.39086945076
 20
5719959.61918517016
  0
VERTEX
  5
2CD
100
AcDbEntity
  8
EGBE_L_3
100
AcDbVertex
100
AcDb2dVertex
 10
7578513.09270187002
 20
5719959.6881848406
  0
SEQEND
  5
2CE
100
AcDbEntity
  8
EGBE_L_3
  0
POLYLINE
  5
2CF
100
AcDbEntity
  8
Kontury
  6
L_0_06
370
18
100
AcDb2dPolyline
 66
1
 70
128
  0
VERTEX
  5
2D0
100
AcDbEntity
  8
Kontury
100
AcDbVertex
100
AcDb2dVertex
 10
7578504.0247559417
 20
5719985.77382612415
  0
VERTEX
  5
2D1
100
AcDbEntity
  8
Kontury
100
AcDbVertex
100
AcDb2dVertex
 10
7578503.54999999981
 20
5719980.20999999996
  0
SEQEND
  5
2D2
100
AcDbEntity
  8
Kontury
  0
POLYLINE
  5
2D3
100
AcDbEntity
  8
Kontury
  6
L_0_06
370
18
100
AcDb2dPolyline
 66
1
 70
128
  0
VERTEX
  5
2D4
100
AcDbEntity
  8
Kontury
100
AcDbVertex
100
AcDb2dVertex
 10
7578503.54999999981
 20
5719980.20999999996
  0
VERTEX
  5
2D5
100
AcDbEntity
  8
Kontury
100
AcDbVertex
100
AcDb2dVertex
 10
7578518.29748406541
 20
5719976.362830244
  0
SEQEND
  5
2D6
100
AcDbEntity
  8
Kontury
  0
POLYLINE
  5
2D7
100
AcDbEntity
  8
Kontury
  6
L_0_06
370
18
100
AcDb2dPolyline
 66
1
 70
128
  0
VERTEX
  5
2D8
100
AcDbEntity
  8
Kontury
100
AcDbVertex
100
AcDb2dVertex
 10
7578443.85673245322
 20
5719995.78690782934
  0
VERTEX
  5
2D9
100
AcDbEntity
  8
Kontury
100
AcDbVertex
100
AcDb2dVertex
 10
7578446.41000000015
 20
5719995.12000000011
  0
SEQEND
  5
2DA
100
AcDbEntity
  8
Kontury
  0
POLYLINE
  5
2DB
100
AcDbEntity
  8
Kontury
  6
L_0_06
370
18
100
AcDb2dPolyline
 66
1
 70
128
  0
VERTEX
  5
2DC
100
AcDbEntity
  8
Kontury
100
AcDbVertex
100
AcDb2dVertex
 10
7578446.41000000015
 20
5719995.12000000011
  0
VERTEX
  5
2DD
100
AcDbEntity
  8
Kontury
100
AcDbVertex
100
AcDb2dVertex
 10
7578488.26999999955
 20
5719984.20999999996
  0
SEQEND
  5
2DE
100
AcDbEntity
  8
Kontury
  0
POLYLINE
  5
2DF
100
AcDbEntity
  8
Kontury
  6
L_0_06
370
18
100
AcDb2dPolyline
 66
1
 70
128
  0
VERTEX
  5
2E0
100
AcDbEntity
  8
Kontury
100
AcDbVertex
100
AcDb2dVertex
 10
7578488.26999999955
 20
5719984.20999999996
  0
VERTEX
  5
2E1
100
AcDbEntity
  8
Kontury
100
AcDbVertex
100
AcDb2dVertex
 10
7578503.54999999981
 20
5719980.20999999996
  0
SEQEND
  5
2E2
100
AcDbEntity
  8
Kontury
  0
POLYLINE
  5
2E3
100
AcDbEntity
  8
Kontury
  6
L_0_06
370
18
100
AcDb2dPolyline
 66
1
 70
128
  0
VERTEX
  5
2E4
100
AcDbEntity
  8
Kontury
100
AcDbVertex
100
AcDb2dVertex
 10
7578441.15448268224
 20
5719956.25309746899
  0
VERTEX
  5
2E5
100
AcDbEntity
  8
Kontury
100
AcDbVertex
100
AcDb2dVertex
 10
7578443.33999999985
 20
5719957.84999999963
  0
SEQEND
  5
2E6
100
AcDbEntity
  8
Kontury
  0
POLYLINE
  5
2E7
100
AcDbEntity
  8
Kontury
  6
L_0_06
370
18
100
AcDb2dPolyline
 66
1
 70
128
  0
VERTEX
  5
2E8
100
AcDbEntity
  8
Kontury
100
AcDbVertex
100
AcDb2dVertex
 10
7578443.33999999985
 20
5719957.84999999963
  0
VERTEX
  5
2E9
100
AcDbEntity
  8
Kontury
100
AcDbVertex
100
AcDb2dVertex
 10
7578445.20000000019
 20
5719990.03000000026
  0
SEQEND
  5
2EA
100
AcDbEntity
  8
Kontury
  0
POLYLINE
  5
2EB
100
AcDbEntity
  8
Kontury
  6
L_0_06
370
18
100
AcDb2dPolyline
 66
1
 70
128
  0
VERTEX
  5
2EC
100
AcDbEntity
  8
Kontury
100
AcDbVertex
100
AcDb2dVertex
 10
7578445.20000000019
 20
5719990.03000000026
  0
VERTEX
  5
2ED
100
AcDbEntity
  8
Kontury
100
AcDbVertex
100
AcDb2dVertex
 10
7578443.49369801022
 20
5719990.47572786734
  0
SEQEND
  5
2EE
100
AcDbEntity
  8
Kontury
  0
POLYLINE
  5
2EF
100
AcDbEntity
  8
Kontury
  6
L_0_06
370
18
100
AcDb2dPolyline
 66
1
 70
128
  0
VERTEX
  5
2F0
100
AcDbEntity
  8
Kontury
100
AcDbVertex
100
AcDb2dVertex
 10
7578439.82012284454
 20
5719936.73146430217
  0
VERTEX
  5
2F1
100
AcDbEntity
  8
Kontury
100
AcDbVertex
100
AcDb2dVertex
 10
7578501.79000000004
 20
5719951.87999999989
  0
SEQEND
  5
2F2
100
AcDbEntity
  8
Kontury
  0
POLYLINE
  5
2F3
100
AcDbEntity
  8
Kontury
  6
L_0_06
370
18
100
AcDb2dPolyline
 66
1
 70
128
  0
VERTEX
  5
2F4
100
AcDbEntity
  8
Kontury
100
AcDbVertex
100
AcDb2dVertex
 10
7578501.79000000004
 20
5719951.87999999989
  0
VERTEX
  5
2F5
100
AcDbEntity
  8
Kontury
100
AcDbVertex
100
AcDb2dVertex
 10
7578500.4299999997
 20
5719930.24000000022
  0
SEQEND
  5
2F6
100
AcDbEntity
  8
Kontury
  0
POLYLINE
  5
2F7
100
AcDbEntity
  8
Kontury
  6
L_0_06
370
18
100
AcDb2dPolyline
 66
1
 70
128
  0
VERTEX
  5
2F8
100
AcDbEntity
  8
Kontury
100
AcDbVertex
100
AcDb2dVertex
 10
7578500.4299999997
 20
5719930.24000000022
  0
VERTEX
  5
2F9
100
AcDbEntity
  8
Kontury
100
AcDbVertex
100
AcDb2dVertex
 10
7578506.5700000003
 20
5719932.24000000022
  0
SEQEND
  5
2FA
100
AcDbEntity
  8
Kontury
  0
POLYLINE
  5
2FB
100
AcDbEntity
  8
Kontury
  6
L_0_06
370
18
100
AcDb2dPolyline
 66
1
 70
128
  0
VERTEX
  5
2FC
100
AcDbEntity
  8
Kontury
100
AcDbVertex
100
AcDb2dVertex
 10
7578506.5700000003
 20
5719932.24000000022
  0
VERTEX
  5
2FD
100
AcDbEntity
  8
Kontury
100
AcDbVertex
100
AcDb2dVertex
 10
7578515.37077743839
 20
5719931.70146611519
  0
SEQEND
  5
2FE
100
AcDbEntity
  8
Kontury
  0
POLYLINE
  5
2FF
100
AcDbEntity
  8
Kontury
  6
L_0_06
370
18
100
AcDb2dPolyline
 66
1
 70
128
  0
VERTEX
  5
300
100
AcDbEntity
  8
Kontury
100
AcDbVertex
100
AcDb2dVertex
 10
7578517.94684667513
 20
5719971.01212511025
  0
VERTEX
  5
301
100
AcDbEntity
  8
Kontury
100
AcDbVertex
100
AcDb2dVertex
 10
7578503.23000000045
 20
5719974.86000000034
  0
SEQEND
  5
302
100
AcDbEntity
  8
Kontury
  0
POLYLINE
  5
303
100
AcDbEntity
  8
Kontury
  6
L_0_06
370
18
100
AcDb2dPolyline
 66
1
 70
128
  0
VERTEX
  5
304
100
AcDbEntity
  8
Kontury
100
AcDbVertex
100
AcDb2dVertex
 10
7578503.23000000045
 20
5719974.86000000034
  0
VERTEX
  5
305
100
AcDbEntity
  8
Kontury
100
AcDbVertex
100
AcDb2dVertex
 10
7578488.24000000022
 20
5719978.78000000026
  0
SEQEND
  5
306
100
AcDbEntity
  8
Kontury
  0
POLYLINE
  5
307
100
AcDbEntity
  8
Kontury
  6
L_0_06
370
18
100
AcDb2dPolyline
 66
1
 70
128
  0
VERTEX
  5
308
100
AcDbEntity
  8
Kontury
100
AcDbVertex
100
AcDb2dVertex
 10
7578488.24000000022
 20
5719978.78000000026
  0
VERTEX
  5
309
100
AcDbEntity
  8
Kontury
100
AcDbVertex
100
AcDb2dVertex
 10
7578473.25999999978
 20
5719982.69000000041
  0
SEQEND
  5
30A
100
AcDbEntity
  8
Kontury
  0
POLYLINE
  5
30B
100
AcDbEntity
  8
Kontury
  6
L_0_06
370
18
100
AcDb2dPolyline
 66
1
 70
128
  0
VERTEX
  5
30C
100
AcDbEntity
  8
Kontury
100
AcDbVertex
100
AcDb2dVertex
 10
7578473.25999999978
 20
5719982.69000000041
  0
VERTEX
  5
30D
100
AcDbEntity
  8
Kontury
100
AcDbVertex
100
AcDb2dVertex
 10
7578457.51999999955
 20
5719986.80999999959
  0
SEQEND
  5
30E
100
AcDbEntity
  8
Kontury
  0
POLYLINE
  5
30F
100
AcDbEntity
  8
Kontury
  6
L_0_06
370
18
100
AcDb2dPolyline
 66
1
 70
128
  0
VERTEX
  5
310
100
AcDbEntity
  8
Kontury
100
AcDbVertex
100
AcDb2dVertex
 10
7578457.51999999955
 20
5719986.80999999959
  0
VERTEX
  5
311
100
AcDbEntity
  8
Kontury
100
AcDbVertex
100
AcDb2dVertex
 10
7578445.20000000019
 20
5719990.03000000026
  0
SEQEND
  5
312
100
AcDbEntity
  8
Kontury
  0
POLYLINE
  5
313
100
AcDbEntity
  8
Kontury
  6
L_0_06
370
18
100
AcDb2dPolyline
 66
1
 70
128
  0
VERTEX
  5
314
100
AcDbEntity
  8
Kontury
100
AcDbVertex
100
AcDb2dVertex
 10
7578500.4299999997
 20
5719930.24000000022
  0
VERTEX
  5
315
100
AcDbEntity
  8
Kontury
100
AcDbVertex
100
AcDb2dVertex
 10
7578437.97832381539
 20
5719909.7860152591
  0
SEQEND
  5
316
100
AcDbEntity
  8
Kontury
  0
POLYLINE
  5
317
100
AcDbEntity
  8
Kontury
  6
L_0_06
370
18
100
AcDb2dPolyline
 66
1
 70
128
  0
VERTEX
  5
318
100
AcDbEntity
  8
Kontury
100
AcDbVertex
100
AcDb2dVertex
 10
7578436.65246438421
 20
5719890.38874269649
  0
VERTEX
  5
319
100
AcDbEntity
  8
Kontury
100
AcDbVertex
100
AcDb2dVertex
 10
7578436.87931016739
 20
5719886.08457586821
  0
SEQEND
  5
31A
100
AcDbEntity
  8
Kontury
  0
POLYLINE
  5
31B
100
AcDbEntity
  8
OTK_L_0
  6
ByLayer
370
18
100
AcDb2dPolyline
 66
1
 70
128
  0
VERTEX
  5
31C
100
AcDbEntity
  8
OTK_L_0
100
AcDbVertex
100
AcDb2dVertex
 10
7578469.70100000035
 20
5719980.25490000006
  0
VERTEX
  5
31D
100
AcDbEntity
  8
OTK_L_0
100
AcDbVertex
100
AcDb2dVertex
 10
7578465.5231999997
 20
5719981.35659999959
  0
SEQEND
  5
31E
100
AcDbEntity
  8
OTK_L_0
  0
POLYLINE
  5
31F
100
AcDbEntity
  8
OTK_L_0
  6
ByLayer
370
18
100
AcDb2dPolyline
 66
1
 70
128
  0
VERTEX
  5
320
100
AcDbEntity
  8
OTK_L_0
100
AcDbVertex
100
AcDb2dVertex
 10
7578465.5231999997
 20
5719981.35659999959
  0
VERTEX
  5
321
100
AcDbEntity
  8
OTK_L_0
100
AcDbVertex
100
AcDb2dVertex
 10
7578464.97429999989
 20
5719968.14279999863
  0
SEQEND
  5
322
100
AcDbEntity
  8
OTK_L_0
  0
POLYLINE
  5
323
100
AcDbEntity
  8
OTK_L_0
  6
ByLayer
370
18
100
AcDb2dPolyline
 66
1
 70
128
  0
VERTEX
  5
324
100
AcDbEntity
  8
OTK_L_0
100
AcDbVertex
100
AcDb2dVertex
 10
7578464.97429999989
 20
5719968.14279999863
  0
VERTEX
  5
325
100
AcDbEntity
  8
OTK_L_0
100
AcDbVertex
100
AcDb2dVertex
 10
7578461.92951384932
 20
5719963.81095142011
  0
SEQEND
  5
326
100
AcDbEntity
  8
OTK_L_0
  0
POLYLINE
  5
327
100
AcDbEntity
  8
OTK_L_0
  6
ByLayer
370
18
100
AcDb2dPolyline
 66
1
 70
128
  0
VERTEX
  5
328
100
AcDbEntity
  8
OTK_L_0
100
AcDbVertex
100
AcDb2dVertex
 10
7578461.92951384932
 20
5719963.81095142011
  0
VERTEX
  5
329
100
AcDbEntity
  8
OTK_L_0
100
AcDbVertex
100
AcDb2dVertex
 10
7578461.65500721987
 20
5719960.34179503005
  0
SEQEND
  5
32A
100
AcDbEntity
  8
OTK_L_0
  0
POLYLINE
  5
32B
100
AcDbEntity
  8
OTK_L_0
  6
ByLayer
370
18
100
AcDb2dPolyline
 66
1
 70
128
  0
VERTEX
  5
32C
100
AcDbEntity
  8
OTK_L_0
100
AcDbVertex
100
AcDb2dVertex
 10
7578461.65500721987
 20
5719960.34179503005
  0
VERTEX
  5
32D
100
AcDbEntity
  8
OTK_L_0
100
AcDbVertex
100
AcDb2dVertex
 10
7578465.24378969986
 20
5719960.0578226503
  0
SEQEND
  5
32E
100
AcDbEntity
  8
OTK_L_0
  0
POLYLINE
  5
32F
100
AcDbEntity
  8
OTK_L_0
  6
ByLayer
370
18
100
AcDb2dPolyline
 66
1
 70
128
  0
VERTEX
  5
330
100
AcDbEntity
  8
OTK_L_0
100
AcDbVertex
100
AcDb2dVertex
 10
7578465.24378969986
 20
5719960.0578226503
  0
VERTEX
  5
331
100
AcDbEntity
  8
OTK_L_0
100
AcDbVertex
100
AcDb2dVertex
 10
7578465.26889999956
 20
5719963.12480000034
  0
SEQEND
  5
332
100
AcDbEntity
  8
OTK_L_0
  0
POLYLINE
  5
333
100
AcDbEntity
  8
OTK_L_0
  6
ByLayer
370
18
100
AcDb2dPolyline
 66
1
 70
128
  0
VERTEX
  5
334
100
AcDbEntity
  8
OTK_L_0
100
AcDbVertex
100
AcDb2dVertex
 10
7578465.26889999956
 20
5719963.12480000034
  0
VERTEX
  5
335
100
AcDbEntity
  8
OTK_L_0
100
AcDbVertex
100
AcDb2dVertex
 10
7578467.86980000045
 20
5719967.35240000021
  0
SEQEND
  5
336
100
AcDbEntity
  8
OTK_L_0
  0
POLYLINE
  5
337
100
AcDbEntity
  8
OTK_L_0
  6
ByLayer
370
18
100
AcDb2dPolyline
 66
1
 70
128
  0
VERTEX
  5
338
100
AcDbEntity
  8
OTK_L_0
100
AcDbVertex
100
AcDb2dVertex
 10
7578467.86980000045
 20
5719967.35240000021
  0
VERTEX
  5
339
100
AcDbEntity
  8
OTK_L_0
100
AcDbVertex
100
AcDb2dVertex
 10
7578469.70100000035
 20
5719980.25490000006
  0
SEQEND
  5
33A
100
AcDbEntity
  8
OTK_L_0
  0
POLYLINE
  5
33B
100
AcDbEntity
  8
OTK_L_0
  6
ByLayer
370
18
100
AcDb2dPolyline
 66
1
 70
128
  0
VERTEX
  5
33C
100
AcDbEntity
  8
OTK_L_0
100
AcDbVertex
100
AcDb2dVertex
 10
7578504.21999999974
 20
5719979.56500000041
  0
VERTEX
  5
33D
100
AcDbEntity
  8
OTK_L_0
100
AcDbVertex
100
AcDb2dVertex
 10
7578518.2698975699
 20
5719975.94186199829
  0
SEQEND
  5
33E
100
AcDbEntity
  8
OTK_L_0
  0
POLYLINE
  5
33F
100
AcDbEntity
  8
OTK_L_0
  6
ByLayer
370
18
100
AcDb2dPolyline
 66
1
 70
128
  0
VERTEX
  5
340
100
AcDbEntity
  8
OTK_L_0
100
AcDbVertex
100
AcDb2dVertex
 10
7578446.99700000044
 20
5719994.22300000023
  0
VERTEX
  5
341
100
AcDbEntity
  8
OTK_L_0
100
AcDbVertex
100
AcDb2dVertex
 10
7578504.21999999974
 20
5719979.56500000041
  0
SEQEND
  5
342
100
AcDbEntity
  8
OTK_L_0
  0
POLYLINE
  5
343
100
AcDbEntity
  8
OTK_L_0
  6
ByLayer
370
18
100
AcDb2dPolyline
 66
1
 70
128
  0
VERTEX
  5
344
100
AcDbEntity
  8
OTK_L_0
100
AcDbVertex
100
AcDb2dVertex
 10
7578443.80740220752
 20
5719995.06520822085
  0
VERTEX
  5
345
100
AcDbEntity
  8
OTK_L_0
100
AcDbVertex
100
AcDb2dVertex
 10
7578446.99700000044
 20
5719994.22300000023
  0
SEQEND
  5
346
100
AcDbEntity
  8
OTK_L_0
  0
POLYLINE
  5
347
100
AcDbEntity
  8
OTK_L_0
  6
ByLayer
370
18
100
AcDb2dPolyline
 66
1
 70
128
  0
VERTEX
  5
348
100
AcDbEntity
  8
OTK_L_0
100
AcDbVertex
100
AcDb2dVertex
 10
7578445.31799999997
 20
5719989.48099999968
  0
VERTEX
  5
349
100
AcDbEntity
  8
OTK_L_0
100
AcDbVertex
100
AcDb2dVertex
 10
7578443.4589093281
 20
5719989.9667707812
  0
SEQEND
  5
34A
100
AcDbEntity
  8
OTK_L_0
  0
POLYLINE
  5
34B
100
AcDbEntity
  8
OTK_L_0
  6
ByLayer
370
18
100
AcDb2dPolyline
 66
1
 70
128
  0
VERTEX
  5
34C
100
AcDbEntity
  8
OTK_L_0
100
AcDbVertex
100
AcDb2dVertex
 10
7578502.85500000045
 20
5719974.67300000042
  0
VERTEX
  5
34D
100
AcDbEntity
  8
OTK_L_0
100
AcDbVertex
100
AcDb2dVertex
 10
7578445.31799999997
 20
5719989.48099999968
  0
SEQEND
  5
34E
100
AcDbEntity
  8
OTK_L_0
  0
POLYLINE
  5
34F
100
AcDbEntity
  8
OTK_L_0
  6
ByLayer
370
18
100
AcDb2dPolyline
 66
1
 70
128
  0
VERTEX
  5
350
100
AcDbEntity
  8
OTK_L_0
100
AcDbVertex
100
AcDb2dVertex
 10
7578517.93263048399
 20
5719970.79518689774
  0
VERTEX
  5
351
100
AcDbEntity
  8
OTK_L_0
100
AcDbVertex
100
AcDb2dVertex
 10
7578502.85500000045
 20
5719974.67300000042
  0
SEQEND
  5
352
100
AcDbEntity
  8
OTK_L_0
  0
POLYLINE
  5
353
100
AcDbEntity
  8
OTK_L_2
  6
ByLayer
370
18
100
AcDb2dPolyline
 66
1
 70
128
  0
VERTEX
  5
354
100
AcDbEntity
  8
OTK_L_2
100
AcDbVertex
100
AcDb2dVertex
 10
7578507.18700000085
 20
5719979.64700000081
  0
VERTEX
  5
355
100
AcDbEntity
  8
OTK_L_2
100
AcDbVertex
100
AcDb2dVertex
 10
7578518.32058699243
 20
5719976.71537949238
  0
SEQEND
  5
356
100
AcDbEntity
  8
OTK_L_2
  0
POLYLINE
  5
357
100
AcDbEntity
  8
OTK_L_2
  6
ByLayer
370
18
100
AcDb2dPolyline
 66
1
 70
128
  0
VERTEX
  5
358
100
AcDbEntity
  8
OTK_L_2
100
AcDbVertex
100
AcDb2dVertex
 10
7578504.71500000078
 20
5719980.53500000015
  0
VERTEX
  5
359
100
AcDbEntity
  8
OTK_L_2
100
AcDbVertex
100
AcDb2dVertex
 10
7578507.18700000085
 20
5719979.64700000081
  0
SEQEND
  5
35A
100
AcDbEntity
  8
OTK_L_2
  0
POLYLINE
  5
35B
100
AcDbEntity
  8
OTK_L_2
  6
ByLayer
370
18
100
AcDb2dPolyline
 66
1
 70
128
  0
VERTEX
  5
35C
100
AcDbEntity
  8
OTK_L_2
100
AcDbVertex
100
AcDb2dVertex
 10
7578501.56100000068
 20
5719980.86099999957
  0
VERTEX
  5
35D
100
AcDbEntity
  8
OTK_L_2
100
AcDbVertex
100
AcDb2dVertex
 10
7578504.71500000078
 20
5719980.53500000015
  0
SEQEND
  5
35E
100
AcDbEntity
  8
OTK_L_2
  0
POLYLINE
  5
35F
100
AcDbEntity
  8
OTK_L_2
  6
ByLayer
370
18
100
AcDb2dPolyline
 66
1
 70
128
  0
VERTEX
  5
360
100
AcDbEntity
  8
OTK_L_2
100
AcDbVertex
100
AcDb2dVertex
 10
7578447.25100000016
 20
5719995.0429999996
  0
VERTEX
  5
361
100
AcDbEntity
  8
OTK_L_2
100
AcDbVertex
100
AcDb2dVertex
 10
7578501.56100000068
 20
5719980.86099999957
  0
SEQEND
  5
362
100
AcDbEntity
  8
OTK_L_2
  0
POLYLINE
  5
363
100
AcDbEntity
  8
OTK_L_2
  6
ByLayer
370
18
100
AcDb2dPolyline
 66
1
 70
128
  0
VERTEX
  5
364
100
AcDbEntity
  8
OTK_L_2
100
AcDbVertex
100
AcDb2dVertex
 10
7578504.21999999974
 20
5719979.56500000041
  0
VERTEX
  5
365
100
AcDbEntity
  8
OTK_L_2
100
AcDbVertex
100
AcDb2dVertex
 10
7578446.99700000044
 20
5719994.22300000023
  0
SEQEND
  5
366
100
AcDbEntity
  8
OTK_L_2
  0
POLYLINE
  5
367
100
AcDbEntity
  8
OTK_L_2
  6
ByLayer
370
18
100
AcDb2dPolyline
 66
1
 70
128
  0
VERTEX
  5
368
100
AcDbEntity
  8
OTK_L_2
100
AcDbVertex
100
AcDb2dVertex
 10
7578518.2698975699
 20
5719975.94186199829
  0
VERTEX
  5
369
100
AcDbEntity
  8
OTK_L_2
100
AcDbVertex
100
AcDb2dVertex
 10
7578504.21999999974
 20
5719979.56500000041
  0
SEQEND
  5
36A
100
AcDbEntity
  8
OTK_L_2
  0
POLYLINE
  5
36B
100
AcDbEntity
  8
OTK_L_2
  6
ByLayer
370
18
100
AcDb2dPolyline
 66
1
 70
128
  0
VERTEX
  5
36C
100
AcDbEntity
  8
OTK_L_2
100
AcDbVertex
100
AcDb2dVertex
 10
7578502.85500000045
 20
5719974.67300000042
  0
VERTEX
  5
36D
100
AcDbEntity
  8
OTK_L_2
100
AcDbVertex
100
AcDb2dVertex
 10
7578445.31799999997
 20
5719989.48099999968
  0
SEQEND
  5
36E
100
AcDbEntity
  8
OTK_L_2
  0
POLYLINE
  5
36F
100
AcDbEntity
  8
OTK_L_2
  6
ByLayer
370
18
100
AcDb2dPolyline
 66
1
 70
128
  0
VERTEX
  5
370
100
AcDbEntity
  8
OTK_L_2
100
AcDbVertex
100
AcDb2dVertex
 10
7578517.93263048399
 20
5719970.79518689774
  0
VERTEX
  5
371
100
AcDbEntity
  8
OTK_L_2
100
AcDbVertex
100
AcDb2dVertex
 10
7578502.85500000045
 20
5719974.67300000042
  0
SEQEND
  5
372
100
AcDbEntity
  8
OTK_L_2
  0
POLYLINE
  5
373
100
AcDbEntity
  8
OTK_L_2
  6
ByLayer
370
18
100
AcDb2dPolyline
 66
1
 70
128
  0
VERTEX
  5
374
100
AcDbEntity
  8
OTK_L_2
100
AcDbVertex
100
AcDb2dVertex
 10
7578504.77799999993
 20
5719973.38200000022
  0
VERTEX
  5
375
100
AcDbEntity
  8
OTK_L_2
100
AcDbVertex
100
AcDb2dVertex
 10
7578517.86696105264
 20
5719969.7930754004
  0
SEQEND
  5
376
100
AcDbEntity
  8
OTK_L_2
  0
POLYLINE
  5
377
100
AcDbEntity
  8
OTK_L_2
  6
ByLayer
370
18
100
AcDb2dPolyline
 66
1
 70
128
  0
VERTEX
  5
378
100
AcDbEntity
  8
OTK_L_2
100
AcDbVertex
100
AcDb2dVertex
 10
7578502.48199999984
 20
5719973.33700000029
  0
VERTEX
  5
379
100
AcDbEntity
  8
OTK_L_2
100
AcDbVertex
100
AcDb2dVertex
 10
7578504.77799999993
 20
5719973.38200000022
  0
SEQEND
  5
37A
100
AcDbEntity
  8
OTK_L_2
  0
POLYLINE
  5
37B
100
AcDbEntity
  8
OTK_L_2
  6
ByLayer
370
18
100
AcDb2dPolyline
 66
1
 70
128
  0
VERTEX
  5
37C
100
AcDbEntity
  8
OTK_L_2
100
AcDbVertex
100
AcDb2dVertex
 10
7578500.61400000006
 20
5719974.48500000034
  0
VERTEX
  5
37D
100
AcDbEntity
  8
OTK_L_2
100
AcDbVertex
100
AcDb2dVertex
 10
7578502.48199999984
 20
5719973.33700000029
  0
SEQEND
  5
37E
100
AcDbEntity
  8
OTK_L_2
  0
POLYLINE
  5
37F
100
AcDbEntity
  8
OTK_L_2
  6
ByLayer
370
18
100
AcDb2dPolyline
 66
1
 70
128
  0
VERTEX
  5
380
100
AcDbEntity
  8
OTK_L_2
100
AcDbVertex
100
AcDb2dVertex
 10
7578445.24500000011
 20
5719988.77100000065
  0
VERTEX
  5
381
100
AcDbEntity
  8
OTK_L_2
100
AcDbVertex
100
AcDb2dVertex
 10
7578500.61400000006
 20
5719974.48500000034
  0
SEQEND
  5
382
100
AcDbEntity
  8
OTK_L_2
  0
POLYLINE
  5
383
100
AcDbEntity
  8
OTK_L_2
  6
ByLayer
370
18
100
AcDb2dPolyline
 66
1
 70
128
  0
VERTEX
  5
384
100
AcDbEntity
  8
OTK_L_2
100
AcDbVertex
100
AcDb2dVertex
 10
7578446.99700000044
 20
5719994.22300000023
  0
VERTEX
  5
385
100
AcDbEntity
  8
OTK_L_2
100
AcDbVertex
100
AcDb2dVertex
 10
7578443.80740220752
 20
5719995.06520821992
  0
SEQEND
  5
386
100
AcDbEntity
  8
OTK_L_2
  0
POLYLINE
  5
387
100
AcDbEntity
  8
OTK_L_2
  6
ByLayer
370
18
100
AcDb2dPolyline
 66
1
 70
128
  0
VERTEX
  5
388
100
AcDbEntity
  8
OTK_L_2
100
AcDbVertex
100
AcDb2dVertex
 10
7578443.86757086404
 20
5719995.94547336549
  0
VERTEX
  5
389
100
AcDbEntity
  8
OTK_L_2
100
AcDbVertex
100
AcDb2dVertex
 10
7578447.25100000016
 20
5719995.0429999996
  0
SEQEND
  5
38A
100
AcDbEntity
  8
OTK_L_2
  0
POLYLINE
  5
38B
100
AcDbEntity
  8
OTK_L_2
  6
ByLayer
370
18
100
AcDb2dPolyline
 66
1
 70
128
  0
VERTEX
  5
38C
100
AcDbEntity
  8
OTK_L_2
100
AcDbVertex
100
AcDb2dVertex
 10
7578445.24500000011
 20
5719988.77100000065
  0
VERTEX
  5
38D
100
AcDbEntity
  8
OTK_L_2
100
AcDbVertex
100
AcDb2dVertex
 10
7578443.40865431074
 20
5719989.23154181242
  0
SEQEND
  5
38E
100
AcDbEntity
  8
OTK_L_2
  0
POLYLINE
  5
38F
100
AcDbEntity
  8
OTK_L_2
  6
ByLayer
370
18
100
AcDb2dPolyline
 66
1
 70
128
  0
VERTEX
  5
390
100
AcDbEntity
  8
OTK_L_2
100
AcDbVertex
100
AcDb2dVertex
 10
7578443.4589093281
 20
5719989.9667707812
  0
VERTEX
  5
391
100
AcDbEntity
  8
OTK_L_2
100
AcDbVertex
100
AcDb2dVertex
 10
7578445.31799999997
 20
5719989.48099999968
  0
SEQEND
  5
392
100
AcDbEntity
  8
OTK_L_2
  0
POLYLINE
  5
393
100
AcDbEntity
  8
OTK_L_5
  6
CONTINUOUS
 62
7
370
18
100
AcDb2dPolyline
 66
1
 70
128
  0
VERTEX
  5
394
100
AcDbEntity
  8
OTK_L_5
100
AcDbVertex
100
AcDb2dVertex
 10
7578504.77799999993
 20
5719973.38200000022
  0
VERTEX
  5
395
100
AcDbEntity
  8
OTK_L_5
100
AcDbVertex
100
AcDb2dVertex
 10
7578517.86696105264
 20
5719969.7930754004
  0
SEQEND
  5
396
100
AcDbEntity
  8
OTK_L_5
  0
POLYLINE
  5
397
100
AcDbEntity
  8
OTK_L_5
  6
CONTINUOUS
 62
7
370
18
100
AcDb2dPolyline
 66
1
 70
128
  0
VERTEX
  5
398
100
AcDbEntity
  8
OTK_L_5
100
AcDbVertex
100
AcDb2dVertex
 10
7578502.48199999984
 20
5719973.33700000029
  0
VERTEX
  5
399
100
AcDbEntity
  8
OTK_L_5
100
AcDbVertex
100
AcDb2dVertex
 10
7578504.77799999993
 20
5719973.38200000022
  0
SEQEND
  5
39A
100
AcDbEntity
  8
OTK_L_5
  0
POLYLINE
  5
39B
100
AcDbEntity
  8
OTK_L_5
  6
CONTINUOUS
 62
7
370
18
100
AcDb2dPolyline
 66
1
 70
128
  0
VERTEX
  5
39C
100
AcDbEntity
  8
OTK_L_5
100
AcDbVertex
100
AcDb2dVertex
 10
7578500.61400000006
 20
5719974.48500000034
  0
VERTEX
  5
39D
100
AcDbEntity
  8
OTK_L_5
100
AcDbVertex
100
AcDb2dVertex
 10
7578502.48199999984
 20
5719973.33700000029
  0
SEQEND
  5
39E
100
AcDbEntity
  8
OTK_L_5
  0
POLYLINE
  5
39F
100
AcDbEntity
  8
OTK_L_5
  6
CONTINUOUS
 62
7
370
18
100
AcDb2dPolyline
 66
1
 70
128
  0
VERTEX
  5
3A0
100
AcDbEntity
  8
OTK_L_5
100
AcDbVertex
100
AcDb2dVertex
 10
7578500.38500000071
 20
5719972.84300000034
  0
VERTEX
  5
3A1
100
AcDbEntity
  8
OTK_L_5
100
AcDbVertex
100
AcDb2dVertex
 10
7578500.61400000006
 20
5719974.48500000034
  0
SEQEND
  5
3A2
100
AcDbEntity
  8
OTK_L_5
  0
POLYLINE
  5
3A3
100
AcDbEntity
  8
OTK_L_5
  6
CONTINUOUS
 62
7
370
18
100
AcDb2dPolyline
 66
1
 70
128
  0
VERTEX
  5
3A4
100
AcDbEntity
  8
OTK_L_5
100
AcDbVertex
100
AcDb2dVertex
 10
7578503.20300000068
 20
5719971.66100000031
  0
VERTEX
  5
3A5
100
AcDbEntity
  8
OTK_L_5
100
AcDbVertex
100
AcDb2dVertex
 10
7578500.38500000071
 20
5719972.84300000034
  0
SEQEND
  5
3A6
100
AcDbEntity
  8
OTK_L_5
  0
POLYLINE
  5
3A7
100
AcDbEntity
  8
OTK_L_5
  6
CONTINUOUS
 62
7
370
18
100
AcDb2dPolyline
 66
1
 70
128
  0
VERTEX
  5
3A8
100
AcDbEntity
  8
OTK_L_5
100
AcDbVertex
100
AcDb2dVertex
 10
7578505.23199999984
 20
5719971.78500000015
  0
VERTEX
  5
3A9
100
AcDbEntity
  8
OTK_L_5
100
AcDbVertex
100
AcDb2dVertex
 10
7578503.20300000068
 20
5719971.66100000031
  0
SEQEND
  5
3AA
100
AcDbEntity
  8
OTK_L_5
  0
POLYLINE
  5
3AB
100
AcDbEntity
  8
OTK_L_5
  6
CONTINUOUS
 62
7
370
18
100
AcDb2dPolyline
 66
1
 70
128
  0
VERTEX
  5
3AC
100
AcDbEntity
  8
OTK_L_5
100
AcDbVertex
100
AcDb2dVertex
 10
7578517.78700000048
 20
5719968.60400000028
  0
VERTEX
  5
3AD
100
AcDbEntity
  8
OTK_L_5
100
AcDbVertex
100
AcDb2dVertex
 10
7578505.23199999984
 20
5719971.78500000015
  0
SEQEND
  5
3AE
100
AcDbEntity
  8
OTK_L_5
  0
POLYLINE
  5
3AF
100
AcDbEntity
  8
OTK_L_5
  6
CONTINUOUS
 62
7
370
18
100
AcDb2dPolyline
 66
1
 70
128
  0
VERTEX
  5
3B0
100
AcDbEntity
  8
OTK_L_5
100
AcDbVertex
100
AcDb2dVertex
 10
7578517.78992227744
 20
5719968.61746839806
  0
VERTEX
  5
3B1
100
AcDbEntity
  8
OTK_L_5
100
AcDbVertex
100
AcDb2dVertex
 10
7578517.78700000048
 20
5719968.60400000028
  0
SEQEND
  5
3B2
100
AcDbEntity
  8
OTK_L_5
  0
INSERT
  5
3B3
100
AcDbEntity
  8
OTK_L_8
  6
CONTINUOUS
100
AcDbBlockReference
 66
0
  2
L_0_7E_1
 10
7578502.35800000001
 20
5719972.94100000057
 41
0.50
 42
0.50
 43
0.50
 50
76.17
  0
INSERT
  5
3B4
100
AcDbEntity
  8
OTK_L_8
  6
CONTINUOUS
100
AcDbBlockReference
 66
0
  2
L_0_7E_2
 10
7578504.78100000042
 20
5719982.78300000075
 41
0.50
 42
0.50
 43
0.50
 50
256.17
  0
POLYLINE
  5
3B5
100
AcDbEntity
  8
OTK_L_8
  6
ByLayer
370
35
100
AcDb2dPolyline
 66
1
 70
128
  0
VERTEX
  5
3B6
100
AcDbEntity
  8
OTK_L_8
100
AcDbVertex
100
AcDb2dVertex
 10
7578502.35800000001
 20
5719972.94100000057
  0
VERTEX
  5
3B7
100
AcDbEntity
  8
OTK_L_8
100
AcDbVertex
100
AcDb2dVertex
 10
7578504.78100000042
 20
5719982.78300000075
  0
SEQEND
  5
3B8
100
AcDbEntity
  8
OTK_L_8
  0
MLINE
  5
3B9
100
AcDbEntity
  8
OTO_L_0
  6
L_0_15
370
35
100
AcDbMline
  2
L_0_15
340
E
 40
1.0
 70
1
 71
1
 72
2
 73
2
 10
7578459.8228000002
 20
5719982.82789999992
210
0.0
220
0.0
230
1.0
 11
7578459.8228000002
 21
5719982.82789999992
 12
0.968267910294
 22
-0.249914493168
 13
0.249914493168
 23
0.968267910294
 74
2
 41
0.0
 41
0.0
 75
0
 74
2
 41
0.0
 41
0.0
 75
0
 11
7578465.5231999997
 21
5719981.35659999959
 12
0.968267910294
 22
-0.249914493168
 13
0.249914493168
 23
0.968267910294
 74
2
 41
0.0
 41
0.0
 75
0
 74
2
 41
0.0
 41
0.0
 75
0
  0
MLINE
  5
3BA
100
AcDbEntity
  8
OTO_L_0
  6
L_0_15
370
35
100
AcDbMline
  2
L_0_15
340
E
 40
1.0
 70
1
 71
1
 72
2
 73
2
 10
7578458.54689999949
 20
5719963.36919999961
210
0.0
220
0.0
230
1.0
 11
7578458.54689999949
 21
5719963.36919999961
 12
0.065429140956
 22
0.997857217999
 13
-0.997857217999
 23
0.065429140956
 74
2
 41
0.0
 41
0.0
 75
0
 74
2
 41
0.0
 41
0.0
 75
0
 11
7578459.8228000002
 21
5719982.82789999992
 12
0.065429140956
 22
0.997857217999
 13
-0.997857217999
 23
0.065429140956
 74
2
 41
0.0
 41
0.0
 75
0
 74
2
 41
0.0
 41
0.0
 75
0
  0
MLINE
  5
3BB
100
AcDbEntity
  8
OTO_L_0
  6
L_0_15
370
35
100
AcDbMline
  2
L_0_15
340
E
 40
1.0
 70
1
 71
1
 72
2
 73
2
 10
7578487.86409999989
 20
5719975.56819999963
210
0.0
220
0.0
230
1.0
 11
7578487.86409999989
 21
5719975.56819999963
 12
-0.08943035659
 22
-0.995993077948
 13
0.995993077948
 23
-0.08943035659
 74
2
 41
0.0
 41
0.0
 75
0
 74
2
 41
0.0
 41
0.0
 75
0
 11
7578485.88570000045
 21
5719953.53460000083
 12
-0.08943035659
 22
-0.995993077948
 13
0.995993077948
 23
-0.08943035659
 74
2
 41
0.0
 41
0.0
 75
0
 74
2
 41
0.0
 41
0.0
 75
0
  0
MLINE
  5
3BC
100
AcDbEntity
  8
OTO_L_0
  6
L_0_15
370
35
100
AcDbMline
  2
L_0_15
340
E
 40
1.0
 70
1
 71
1
 72
2
 73
2
 10
7578480.1696999995
 20
5719977.60599999968
210
0.0
220
0.0
230
1.0
 11
7578480.1696999995
 21
5719977.60599999968
 12
0.966672679302
 22
-0.256015489945
 13
0.256015489945
 23
0.966672679302
 74
2
 41
0.0
 41
0.0
 75
0
 74
2
 41
0.0
 41
0.0
 75
0
 11
7578487.86409999989
 21
5719975.56819999963
 12
0.966672679302
 22
-0.256015489945
 13
0.256015489945
 23
0.966672679302
 74
2
 41
0.0
 41
0.0
 75
0
 74
2
 41
0.0
 41
0.0
 75
0
  0
MLINE
  5
3BD
100
AcDbEntity
  8
OTO_L_0
  6
L_0_15
370
35
100
AcDbMline
  2
L_0_15
340
E
 40
1.0
 70
1
 71
1
 72
2
 73
2
 10
7578469.70100000035
 20
5719980.25490000006
210
0.0
220
0.0
230
1.0
 11
7578469.70100000035
 21
5719980.25490000006
 12
0.969447295369
 22
-0.245299697315
 13
0.245299697315
 23
0.969447295369
 74
2
 41
0.0
 41
0.0
 75
0
 74
2
 41
0.0
 41
0.0
 75
0
 11
7578480.1696999995
 21
5719977.60599999968
 12
0.969447295369
 22
-0.245299697315
 13
0.245299697315
 23
0.969447295369
 74
2
 41
0.0
 41
0.0
 75
0
 74
2
 41
0.0
 41
0.0
 75
0
  0
MLINE
  5
3BE
100
AcDbEntity
  8
OTO_L_0
  6
L_0_15
370
35
100
AcDbMline
  2
L_0_15
340
E
 40
1.0
 70
1
 71
1
 72
2
 73
2
 10
7578503.21320000011
 20
5719971.42220000084
210
0.0
220
0.0
230
1.0
 11
7578503.21320000011
 21
5719971.42220000084
 12
0.970192599132
 22
-0.242335141055
 13
0.242335141055
 23
0.970192599132
 74
2
 41
0.0
 41
0.0
 75
0
 74
2
 41
0.0
 41
0.0
 75
0
 11
7578517.73600456398
 21
5719967.79468738567
 12
0.970192599132
 22
-0.242335141055
 13
0.242335141055
 23
0.970192599132
 74
2
 41
0.0
 41
0.0
 75
0
 74
2
 41
0.0
 41
0.0
 75
0
  0
MLINE
  5
3BF
100
AcDbEntity
  8
OTO_L_0
  6
L_0_15
370
35
100
AcDbMline
  2
L_0_15
340
E
 40
1.0
 70
1
 71
1
 72
2
 73
2
 10
7578500.23769999947
 20
5719922.79160000011
210
0.0
220
0.0
230
1.0
 11
7578500.23769999947
 21
5719922.79160000011
 12
0.061071545604
 22
0.998133391044
 13
-0.998133391044
 23
0.061071545604
 74
2
 41
0.0
 41
0.0
 75
0
 74
2
 41
0.0
 41
0.0
 75
0
 11
7578503.21320000011
 21
5719971.42220000084
 12
0.061071545604
 22
0.998133391044
 13
-0.998133391044
 23
0.061071545604
 74
2
 41
0.0
 41
0.0
 75
0
 74
2
 41
0.0
 41
0.0
 75
0
  0
MLINE
  5
3C0
100
AcDbEntity
  8
OTO_L_0
  6
L_0_15
370
35
100
AcDbMline
  2
L_0_15
340
E
 40
1.0
 70
1
 71
1
 72
2
 73
2
 10
7578442.07820000034
 20
5719965.96740000043
210
0.0
220
0.0
230
1.0
 11
7578442.07820000034
 21
5719965.96740000043
 12
0.055709293879
 22
0.998447031432
 13
-0.998447031432
 23
0.055709293879
 74
2
 41
0.0
 41
0.0
 75
0
 74
2
 41
0.0
 41
0.0
 75
0
 11
7578443.23223486356
 21
5719986.65053207986
 12
0.055709293879
 22
0.998447031432
 13
-0.998447031432
 23
0.055709293879
 74
2
 41
0.0
 41
0.0
 75
0
 74
2
 41
0.0
 41
0.0
 75
0
  0
MLINE
  5
3C1
100
AcDbEntity
  8
OTO_L_0
  6
L_0_15
370
35
100
AcDbMline
  2
L_0_15
340
E
 40
1.0
 70
1
 71
1
 72
2
 73
2
 10
7578461.42989999987
 20
5719991.95889999997
210
0.0
220
0.0
230
1.0
 11
7578461.42989999987
 21
5719991.95889999997
 12
0.971565028769
 22
-0.236772876133
 13
0.236772876133
 23
0.971565028769
 74
2
 41
0.0
 41
0.0
 75
0
 74
2
 41
0.0
 41
0.0
 75
0
 11
7578491.25150000025
 21
5719984.69130000006
 12
0.971565028769
 22
-0.236772876133
 13
0.236772876133
 23
0.971565028769
 74
2
 41
0.0
 41
0.0
 75
0
 74
2
 41
0.0
 41
0.0
 75
0
  0
MLINE
  5
3C2
100
AcDbEntity
  8
OTO_L_0
  6
L_0_15
370
35
100
AcDbMline
  2
L_0_15
340
E
 40
1.0
 70
1
 71
1
 72
2
 73
2
 10
7578503.43789240904
 20
5719981.38868092
210
0.0
220
0.0
230
1.0
 11
7578503.43789240904
 21
5719981.38868092
 12
0.967607112301
 22
-0.252460840971
 13
0.252460840971
 23
0.967607112301
 74
2
 41
0.0
 41
0.0
 75
0
 74
2
 41
0.0
 41
0.0
 75
0
 11
7578518.37150041107
 21
5719977.49231514614
 12
0.967607112301
 22
-0.252460840971
 13
0.252460840971
 23
0.967607112301
 74
2
 41
0.0
 41
0.0
 75
0
 74
2
 41
0.0
 41
0.0
 75
0
  0
MLINE
  5
3C3
100
AcDbEntity
  8
OTO_L_0
  6
L_0_15
370
35
100
AcDbMline
  2
L_0_15
340
E
 40
1.0
 70
1
 71
1
 72
2
 73
2
 10
7578496.17140000034
 20
5719983.28460000083
210
0.0
220
0.0
230
1.0
 11
7578496.17140000034
 21
5719983.28460000083
 12
0.967607112216
 22
-0.252460841299
 13
0.252460841299
 23
0.967607112216
 74
2
 41
0.0
 41
0.0
 75
0
 74
2
 41
0.0
 41
0.0
 75
0
 11
7578503.43789240904
 21
5719981.38868092
 12
0.967607112216
 22
-0.252460841299
 13
0.252460841299
 23
0.967607112216
 74
2
 41
0.0
 41
0.0
 75
0
 74
2
 41
0.0
 41
0.0
 75
0
  0
MLINE
  5
3C4
100
AcDbEntity
  8
OTO_L_0
  6
L_0_15
370
35
100
AcDbMline
  2
L_0_15
340
E
 40
1.0
 70
1
 71
1
 72
2
 73
2
 10
7578503.43789240904
 20
5719981.38868092
210
0.0
220
0.0
230
1.0
 11
7578503.43789240904
 21
5719981.38868092
 12
0.072577587478
 22
0.997362769405
 13
-0.997362769405
 23
0.072577587478
 74
2
 41
0.0
 41
0.0
 75
0
 74
2
 41
0.0
 41
0.0
 75
0
 11
7578503.7616659021
 21
5719985.83798323106
 12
0.072577587478
 22
0.997362769405
 13
-0.997362769405
 23
0.072577587478
 74
2
 41
0.0
 41
0.0
 75
0
 74
2
 41
0.0
 41
0.0
 75
0
  0
MLINE
  5
3C5
100
AcDbEntity
  8
OTO_L_0
  6
L_0_15
370
35
100
AcDbMline
  2
L_0_15
340
E
 40
1.0
 70
1
 71
1
 72
2
 73
2
 10
7578446.34999999963
 20
5719997.87999999989
210
0.0
220
0.0
230
1.0
 11
7578446.34999999963
 21
5719997.87999999989
 12
-0.976187060129
 22
0.216930458068
 13
-0.216930458068
 23
-0.976187060129
 74
2
 41
0.0
 41
0.0
 75
0
 74
2
 41
0.0
 41
0.0
 75
0
 11
7578444.03496561199
 21
5719998.39445208665
 12
-0.976187060129
 22
0.216930458068
 13
-0.216930458068
 23
-0.976187060129
 74
2
 41
0.0
 41
0.0
 75
0
 74
2
 41
0.0
 41
0.0
 75
0
  0
MLINE
  5
3C6
100
AcDbEntity
  8
OTO_L_0
  6
L_0_15
370
35
100
AcDbMline
  2
L_0_15
340
E
 40
1.0
 70
1
 71
1
 72
2
 73
2
 10
7578446.73000000045
 20
5719995.69000000041
210
0.0
220
0.0
230
1.0
 11
7578446.73000000045
 21
5719995.69000000041
 12
-0.170961431575
 22
0.985277721718
 13
-0.985277721718
 23
-0.170961431575
 74
2
 41
0.0
 41
0.0
 75
0
 74
2
 41
0.0
 41
0.0
 75
0
 11
7578446.34999999963
 21
5719997.87999999989
 12
-0.170961431575
 22
0.985277721718
 13
-0.985277721718
 23
-0.170961431575
 74
2
 41
0.0
 41
0.0
 75
0
 74
2
 41
0.0
 41
0.0
 75
0
  0
MLINE
  5
3C7
100
AcDbEntity
  8
OTO_L_0
  6
L_0_15
370
35
100
AcDbMline
  2
L_0_15
340
E
 40
1.0
 70
1
 71
1
 72
2
 73
2
 10
7578455.28890000004
 20
5719993.50719999988
210
0.0
220
0.0
230
1.0
 11
7578455.28890000004
 21
5719993.50719999988
 12
-0.968984189198
 22
0.247122724742
 13
-0.247122724742
 23
-0.968984189198
 74
2
 41
0.0
 41
0.0
 75
0
 74
2
 41
0.0
 41
0.0
 75
0
 11
7578446.73000000045
 21
5719995.69000000041
 12
-0.968984189198
 22
0.247122724742
 13
-0.247122724742
 23
-0.968984189198
 74
2
 41
0.0
 41
0.0
 75
0
 74
2
 41
0.0
 41
0.0
 75
0
  0
INSERT
  5
3C8
100
AcDbEntity
  8
OTO_L_1
  6
CONTINUOUS
100
AcDbBlockReference
 66
0
  2
KTOK02_500
 10
7578467.61209999956
 20
5719980.80574999936
 41
0.50
 42
0.50
 43
0.50
 50
165.23
  0
MLINE
  5
3C9
100
AcDbEntity
  8
OTO_L_1
  6
L_0_C5
370
18
100
AcDbMline
  2
L_0_C5
340
11
 40
1.0
 70
1
 71
1
 72
2
 73
1
 10
7578469.70100000035
 20
5719980.25490000006
210
0.0
220
0.0
230
1.0
 11
7578469.70100000035
 21
5719980.25490000006
 12
-0.966944596586
 22
0.254986562651
 13
-0.254986562651
 23
-0.966944596586
 74
2
 41
0.0
 41
0.0
 75
0
 11
7578465.5231999997
 21
5719981.35659999959
 12
-0.966944596586
 22
0.254986562651
 13
-0.254986562651
 23
-0.966944596586
 74
2
 41
0.0
 41
0.0
 75
0
  0
INSERT
  5
3CA
100
AcDbEntity
  8
OTO_L_1
  6
CONTINUOUS
100
AcDbBlockReference
 66
0
  2
KTOK02_500
 10
7578493.71145000029
 20
5719983.98795000091
 41
0.50
 42
0.50
 43
0.50
 50
344.04
  0
MLINE
  5
3CB
100
AcDbEntity
  8
OTO_L_1
  6
L_0_C5
370
18
100
AcDbMline
  2
L_0_C5
340
11
 40
1.0
 70
1
 71
1
 72
2
 73
1
 10
7578491.25150000025
 20
5719984.69130000006
210
0.0
220
0.0
230
1.0
 11
7578491.25150000025
 21
5719984.69130000006
 12
0.961471571061
 22
-0.274904379815
 13
0.274904379815
 23
0.961471571061
 74
2
 41
0.0
 41
0.0
 75
0
 11
7578496.17140000034
 21
5719983.28460000083
 12
0.961471571061
 22
-0.274904379815
 13
0.274904379815
 23
0.961471571061
 74
2
 41
0.0
 41
0.0
 75
0
  0
INSERT
  5
3CC
100
AcDbEntity
  8
OTO_L_1
  6
CONTINUOUS
100
AcDbBlockReference
 66
0
  2
KTOK02_500
 10
7578458.35940000042
 20
5719992.73304999992
 41
0.50
 42
0.50
 43
0.50
 50
345.85
  0
MLINE
  5
3CD
100
AcDbEntity
  8
OTO_L_1
  6
L_0_C5
370
18
100
AcDbMline
  2
L_0_C5
340
11
 40
1.0
 70
1
 71
1
 72
2
 73
1
 10
7578455.28890000004
 20
5719993.50719999988
210
0.0
220
0.0
230
1.0
 11
7578455.28890000004
 21
5719993.50719999988
 12
0.969655719903
 22
-0.244474507585
 13
0.244474507585
 23
0.969655719903
 74
2
 41
0.0
 41
0.0
 75
0
 11
7578461.42989999987
 21
5719991.95889999997
 12
0.969655719903
 22
-0.244474507585
 13
0.244474507585
 23
0.969655719903
 74
2
 41
0.0
 41
0.0
 75
0
  0
CIRCLE
  5
3CE
100
AcDbEntity
  8
OTR_T_1
  6
CONTINUOUS
 62
7
370
18
100
AcDbCircle
 10
7578506.49490051996
 20
5719969.79356572963
 40
0.044999999925
  0
CIRCLE
  5
3CF
100
AcDbEntity
  8
OTR_T_1
  6
CONTINUOUS
 62
7
370
18
100
AcDbCircle
 10
7578488.77462115139
 20
5719985.9188682111
 40
0.044999999925
  0
POLYLINE
  5
3D0
100
AcDbEntity
  8
Podzial_sekcyjny_krzyze
  6
CONTINUOUS
 62
7
370
18
100
AcDb2dPolyline
 66
1
 70
128
  0
VERTEX
  5
3D1
100
AcDbEntity
  8
Podzial_sekcyjny_krzyze
100
AcDbVertex
100
AcDb2dVertex
 10
7578447.5
 20
5719900.0
  0
VERTEX
  5
3D2
100
AcDbEntity
  8
Podzial_sekcyjny_krzyze
100
AcDbVertex
100
AcDb2dVertex
 10
7578452.5
 20
5719900.0
  0
SEQEND
  5
3D3
100
AcDbEntity
  8
Podzial_sekcyjny_krzyze
  0
POLYLINE
  5
3D4
100
AcDbEntity
  8
Podzial_sekcyjny_krzyze
  6
CONTINUOUS
 62
7
370
18
100
AcDb2dPolyline
 66
1
 70
128
  0
VERTEX
  5
3D5
100
AcDbEntity
  8
Podzial_sekcyjny_krzyze
100
AcDbVertex
100
AcDb2dVertex
 10
7578450.0
 20
5719897.5
  0
VERTEX
  5
3D6
100
AcDbEntity
  8
Podzial_sekcyjny_krzyze
100
AcDbVertex
100
AcDb2dVertex
 10
7578450.0
 20
5719902.5
  0
SEQEND
  5
3D7
100
AcDbEntity
  8
Podzial_sekcyjny_krzyze
  0
POLYLINE
  5
3D8
100
AcDbEntity
  8
Podzial_sekcyjny_krzyze
  6
CONTINUOUS
 62
7
370
18
100
AcDb2dPolyline
 66
1
 70
128
  0
VERTEX
  5
3D9
100
AcDbEntity
  8
Podzial_sekcyjny_krzyze
100
AcDbVertex
100
AcDb2dVertex
 10
7578497.5
 20
5719900.0
  0
VERTEX
  5
3DA
100
AcDbEntity
  8
Podzial_sekcyjny_krzyze
100
AcDbVertex
100
AcDb2dVertex
 10
7578502.5
 20
5719900.0
  0
SEQEND
  5
3DB
100
AcDbEntity
  8
Podzial_sekcyjny_krzyze
  0
POLYLINE
  5
3DC
100
AcDbEntity
  8
Podzial_sekcyjny_krzyze
  6
CONTINUOUS
 62
7
370
18
100
AcDb2dPolyline
 66
1
 70
128
  0
VERTEX
  5
3DD
100
AcDbEntity
  8
Podzial_sekcyjny_krzyze
100
AcDbVertex
100
AcDb2dVertex
 10
7578500.0
 20
5719897.5
  0
VERTEX
  5
3DE
100
AcDbEntity
  8
Podzial_sekcyjny_krzyze
100
AcDbVertex
100
AcDb2dVertex
 10
7578500.0
 20
5719902.5
  0
SEQEND
  5
3DF
100
AcDbEntity
  8
Podzial_sekcyjny_krzyze
  0
POLYLINE
  5
3E0
100
AcDbEntity
  8
Podzial_sekcyjny_krzyze
  6
CONTINUOUS
 62
7
370
18
100
AcDb2dPolyline
 66
1
 70
128
  0
VERTEX
  5
3E1
100
AcDbEntity
  8
Podzial_sekcyjny_krzyze
100
AcDbVertex
100
AcDb2dVertex
 10
7578447.5
 20
5719950.0
  0
VERTEX
  5
3E2
100
AcDbEntity
  8
Podzial_sekcyjny_krzyze
100
AcDbVertex
100
AcDb2dVertex
 10
7578452.5
 20
5719950.0
  0
SEQEND
  5
3E3
100
AcDbEntity
  8
Podzial_sekcyjny_krzyze
  0
POLYLINE
  5
3E4
100
AcDbEntity
  8
Podzial_sekcyjny_krzyze
  6
CONTINUOUS
 62
7
370
18
100
AcDb2dPolyline
 66
1
 70
128
  0
VERTEX
  5
3E5
100
AcDbEntity
  8
Podzial_sekcyjny_krzyze
100
AcDbVertex
100
AcDb2dVertex
 10
7578450.0
 20
5719947.5
  0
VERTEX
  5
3E6
100
AcDbEntity
  8
Podzial_sekcyjny_krzyze
100
AcDbVertex
100
AcDb2dVertex
 10
7578450.0
 20
5719952.5
  0
SEQEND
  5
3E7
100
AcDbEntity
  8
Podzial_sekcyjny_krzyze
  0
POLYLINE
  5
3E8
100
AcDbEntity
  8
Podzial_sekcyjny_krzyze
  6
CONTINUOUS
 62
7
370
18
100
AcDb2dPolyline
 66
1
 70
128
  0
VERTEX
  5
3E9
100
AcDbEntity
  8
Podzial_sekcyjny_krzyze
100
AcDbVertex
100
AcDb2dVertex
 10
7578497.5
 20
5719950.0
  0
VERTEX
  5
3EA
100
AcDbEntity
  8
Podzial_sekcyjny_krzyze
100
AcDbVertex
100
AcDb2dVertex
 10
7578502.5
 20
5719950.0
  0
SEQEND
  5
3EB
100
AcDbEntity
  8
Podzial_sekcyjny_krzyze
  0
POLYLINE
  5
3EC
100
AcDbEntity
  8
Podzial_sekcyjny_krzyze
  6
CONTINUOUS
 62
7
370
18
100
AcDb2dPolyline
 66
1
 70
128
  0
VERTEX
  5
3ED
100
AcDbEntity
  8
Podzial_sekcyjny_krzyze
100
AcDbVertex
100
AcDb2dVertex
 10
7578500.0
 20
5719947.5
  0
VERTEX
  5
3EE
100
AcDbEntity
  8
Podzial_sekcyjny_krzyze
100
AcDbVertex
100
AcDb2dVertex
 10
7578500.0
 20
5719952.5
  0
SEQEND
  5
3EF
100
AcDbEntity
  8
Podzial_sekcyjny_krzyze
  0
POLYLINE
  5
3F0
100
AcDbEntity
  8
Podzial_sekcyjny_krzyze
  6
CONTINUOUS
 62
7
370
18
100
AcDb2dPolyline
 66
1
 70
128
  0
VERTEX
  5
3F1
100
AcDbEntity
  8
Podzial_sekcyjny_krzyze
100
AcDbVertex
100
AcDb2dVertex
 10
7578450.0
 20
5719997.5
  0
VERTEX
  5
3F2
100
AcDbEntity
  8
Podzial_sekcyjny_krzyze
100
AcDbVertex
100
AcDb2dVertex
 10
7578450.0
 20
5719998.9482968729
  0
SEQEND
  5
3F3
100
AcDbEntity
  8
Podzial_sekcyjny_krzyze
  0
POLYLINE
  5
3F4
100
AcDbEntity
  8
Podzial_sekcyjny_podstawowy
  6
CONTINUOUS
 62
7
370
18
100
AcDb2dPolyline
 66
1
 70
128
  0
VERTEX
  5
3F5
100
AcDbEntity
  8
Podzial_sekcyjny_podstawowy
100
AcDbVertex
100
AcDb2dVertex
 10
7578400.0
 20
5719750.0
  0
VERTEX
  5
3F6
100
AcDbEntity
  8
Podzial_sekcyjny_podstawowy
100
AcDbVertex
100
AcDb2dVertex
 10
7578800.0
 20
5719750.0
  0
SEQEND
  5
3F7
100
AcDbEntity
  8
Podzial_sekcyjny_podstawowy
  0
POLYLINE
  5
3F8
100
AcDbEntity
  8
Podzial_sekcyjny_podstawowy
  6
CONTINUOUS
 62
7
370
18
100
AcDb2dPolyline
 66
1
 70
128
  0
VERTEX
  5
3F9
100
AcDbEntity
  8
Podzial_sekcyjny_podstawowy
100
AcDbVertex
100
AcDb2dVertex
 10
7578400.0
 20
5719750.0
  0
VERTEX
  5
3FA
100
AcDbEntity
  8
Podzial_sekcyjny_podstawowy
100
AcDbVertex
100
AcDb2dVertex
 10
7578400.0
 20
5720000.0
  0
SEQEND
  5
3FB
100
AcDbEntity
  8
Podzial_sekcyjny_podstawowy
  0
POLYLINE
  5
3FC
100
AcDbEntity
  8
Podzial_sekcyjny_podstawowy
  6
CONTINUOUS
 62
7
370
18
100
AcDb2dPolyline
 66
1
 70
128
  0
VERTEX
  5
3FD
100
AcDbEntity
  8
Podzial_sekcyjny_podstawowy
100
AcDbVertex
100
AcDb2dVertex
 10
7578800.0
 20
5719750.0
  0
VERTEX
  5
3FE
100
AcDbEntity
  8
Podzial_sekcyjny_podstawowy
100
AcDbVertex
100
AcDb2dVertex
 10
7578800.0
 20
5720000.0
  0
SEQEND
  5
3FF
100
AcDbEntity
  8
Podzial_sekcyjny_podstawowy
  0
POLYLINE
  5
400
100
AcDbEntity
  8
Podzial_sekcyjny_podstawowy
  6
CONTINUOUS
 62
7
370
18
100
AcDb2dPolyline
 66
1
 70
128
  0
VERTEX
  5
401
100
AcDbEntity
  8
Podzial_sekcyjny_podstawowy
100
AcDbVertex
100
AcDb2dVertex
 10
7578400.0
 20
5720000.0
  0
VERTEX
  5
402
100
AcDbEntity
  8
Podzial_sekcyjny_podstawowy
100
AcDbVertex
100
AcDb2dVertex
 10
7578800.0
 20
5720000.0
  0
SEQEND
  5
403
100
AcDbEntity
  8
Podzial_sekcyjny_podstawowy
  0
POLYLINE
  5
404
100
AcDbEntity
  8
Podzial_sekcyjny_podstawowy
  6
CONTINUOUS
 62
7
370
18
100
AcDb2dPolyline
 66
1
 70
128
  0
VERTEX
  5
405
100
AcDbEntity
  8
Podzial_sekcyjny_podstawowy
100
AcDbVertex
100
AcDb2dVertex
 10
7578400.0
 20
5720000.0
  0
VERTEX
  5
406
100
AcDbEntity
  8
Podzial_sekcyjny_podstawowy
100
AcDbVertex
100
AcDb2dVertex
 10
7578400.0
 20
5720250.0
  0
SEQEND
  5
407
100
AcDbEntity
  8
Podzial_sekcyjny_podstawowy
  0
POLYLINE
  5
408
100
AcDbEntity
  8
Podzial_sekcyjny_podstawowy
  6
CONTINUOUS
 62
7
370
18
100
AcDb2dPolyline
 66
1
 70
128
  0
VERTEX
  5
409
100
AcDbEntity
  8
Podzial_sekcyjny_podstawowy
100
AcDbVertex
100
AcDb2dVertex
 10
7578800.0
 20
5720000.0
  0
VERTEX
  5
40A
100
AcDbEntity
  8
Podzial_sekcyjny_podstawowy
100
AcDbVertex
100
AcDb2dVertex
 10
7578800.0
 20
5720250.0
  0
SEQEND
  5
40B
100
AcDbEntity
  8
Podzial_sekcyjny_podstawowy
  0
POLYLINE
  5
40C
100
AcDbEntity
  8
Podzial_sekcyjny_podstawowy
  6
CONTINUOUS
 62
7
370
18
100
AcDb2dPolyline
 66
1
 70
128
  0
VERTEX
  5
40D
100
AcDbEntity
  8
Podzial_sekcyjny_podstawowy
100
AcDbVertex
100
AcDb2dVertex
 10
7578400.0
 20
5720250.0
  0
VERTEX
  5
40E
100
AcDbEntity
  8
Podzial_sekcyjny_podstawowy
100
AcDbVertex
100
AcDb2dVertex
 10
7578800.0
 20
5720250.0
  0
SEQEND
  5
40F
100
AcDbEntity
  8
Podzial_sekcyjny_podstawowy
  0
POLYLINE
  5
410
100
AcDbEntity
  8
SUEP_L_0
  6
CONTINUOUS
 62
1
370
18
100
AcDb2dPolyline
 66
1
 70
128
  0
VERTEX
  5
411
100
AcDbEntity
  8
SUEP_L_0
100
AcDbVertex
100
AcDb2dVertex
 10
7578475.22580000013
 20
5719988.3125
  0
VERTEX
  5
412
100
AcDbEntity
  8
SUEP_L_0
100
AcDbVertex
100
AcDb2dVertex
 10
7578443.89292849693
 20
5719996.31645455491
  0
SEQEND
  5
413
100
AcDbEntity
  8
SUEP_L_0
  0
POLYLINE
  5
414
100
AcDbEntity
  8
SUEP_L_0
  6
CONTINUOUS
 62
1
370
18
100
AcDb2dPolyline
 66
1
 70
128
  0
VERTEX
  5
415
100
AcDbEntity
  8
SUEP_L_0
100
AcDbVertex
100
AcDb2dVertex
 10
7578518.30470000021
 20
5719977.1146999998
  0
VERTEX
  5
416
100
AcDbEntity
  8
SUEP_L_0
100
AcDbVertex
100
AcDb2dVertex
 10
7578475.22580000013
 20
5719988.3125
  0
SEQEND
  5
417
100
AcDbEntity
  8
SUEP_L_0
  0
POLYLINE
  5
418
100
AcDbEntity
  8
SUEP_L_0
  6
CONTINUOUS
 62
1
370
18
100
AcDb2dPolyline
 66
1
 70
128
  0
VERTEX
  5
419
100
AcDbEntity
  8
SUEP_L_0
100
AcDbVertex
100
AcDb2dVertex
 10
7578518.34604369197
 20
5719977.10384717304
  0
VERTEX
  5
41A
100
AcDbEntity
  8
SUEP_L_0
100
AcDbVertex
100
AcDb2dVertex
 10
7578518.30470000021
 20
5719977.1146999998
  0
SEQEND
  5
41B
100
AcDbEntity
  8
SUEP_L_0
  0
ARC
  5
41C
100
AcDbEntity
  8
SUE_T_3
  6
CONTINUOUS
 62
7
370
18
100
AcDbCircle
 10
7578518.3045768952
 20
5719977.1147095067
 30
0
 40
0.2498765332
100
AcDbArc
 50
76.5537776003
 51
275.9476374232
  0
CIRCLE
  5
41D
100
AcDbEntity
  8
SUE_T_3
  6
CONTINUOUS
 62
7
370
18
100
AcDbCircle
 10
7578475.22580000013
 20
5719988.3125
 40
0.025000000373
  0
CIRCLE
  5
41E
100
AcDbEntity
  8
SUE_T_3
  6
CONTINUOUS
 62
7
370
18
100
AcDbCircle
 10
7578518.30470000021
 20
5719977.1146999998
 40
0.025000000373
  0
CIRCLE
  5
41F
100
AcDbEntity
  8
SUE_T_3
  6
CONTINUOUS
 62
7
370
18
100
AcDbCircle
 10
7578475.22580000013
 20
5719988.3125
 40
0.25
  0
POLYLINE
  5
420
100
AcDbEntity
  8
SUE_T_3
  6
CONTINUOUS
 62
250
370
18
100
AcDb2dPolyline
 66
1
 70
128
  0
VERTEX
  5
421
100
AcDbEntity
  8
SUE_T_3
100
AcDbVertex
100
AcDb2dVertex
 10
7578474.69545000046
 20
5719988.84284999967
  0
VERTEX
  5
422
100
AcDbEntity
  8
SUE_T_3
100
AcDbVertex
100
AcDb2dVertex
 10
7578474.34190000035
 20
5719989.19639999978
  0
SEQEND
  5
423
100
AcDbEntity
  8
SUE_T_3
  0
POLYLINE
  5
424
100
AcDbEntity
  8
SUE_T_3
  6
CONTINUOUS
 62
250
370
18
100
AcDb2dPolyline
 66
1
 70
128
  0
VERTEX
  5
425
100
AcDbEntity
  8
SUE_T_3
100
AcDbVertex
100
AcDb2dVertex
 10
7578475.7561499998
 20
5719988.84284999967
  0
VERTEX
  5
426
100
AcDbEntity
  8
SUE_T_3
100
AcDbVertex
100
AcDb2dVertex
 10
7578476.10969999991
 20
5719989.19639999978
  0
SEQEND
  5
427
100
AcDbEntity
  8
SUE_T_3
  0
POLYLINE
  5
428
100
AcDbEntity
  8
SUE_T_3
  6
CONTINUOUS
 62
250
370
18
100
AcDb2dPolyline
 66
1
 70
128
  0
VERTEX
  5
429
100
AcDbEntity
  8
SUE_T_3
100
AcDbVertex
100
AcDb2dVertex
 10
7578475.7561499998
 20
5719987.78215000033
  0
VERTEX
  5
42A
100
AcDbEntity
  8
SUE_T_3
100
AcDbVertex
100
AcDb2dVertex
 10
7578476.10969999991
 20
5719987.42860000022
  0
SEQEND
  5
42B
100
AcDbEntity
  8
SUE_T_3
  0
POLYLINE
  5
42C
100
AcDbEntity
  8
SUE_T_3
  6
CONTINUOUS
 62
250
370
18
100
AcDb2dPolyline
 66
1
 70
128
  0
VERTEX
  5
42D
100
AcDbEntity
  8
SUE_T_3
100
AcDbVertex
100
AcDb2dVertex
 10
7578474.69545000046
 20
5719987.78215000033
  0
VERTEX
  5
42E
100
AcDbEntity
  8
SUE_T_3
100
AcDbVertex
100
AcDb2dVertex
 10
7578474.34190000035
 20
5719987.42860000022
  0
SEQEND
  5
42F
100
AcDbEntity
  8
SUE_T_3
  0
POLYLINE
  5
430
100
AcDbEntity
  8
SUE_T_3
  6
CONTINUOUS
 62
250
370
18
100
AcDb2dPolyline
 66
1
 70
128
  0
VERTEX
  5
431
100
AcDbEntity
  8
SUE_T_3
100
AcDbVertex
100
AcDb2dVertex
 10
7578517.77435000054
 20
5719977.64504999947
  0
VERTEX
  5
432
100
AcDbEntity
  8
SUE_T_3
100
AcDbVertex
100
AcDb2dVertex
 10
7578517.42080000043
 20
5719977.99859999958
  0
SEQEND
  5
433
100
AcDbEntity
  8
SUE_T_3
  0
POLYLINE
  5
434
100
AcDbEntity
  8
SUE_T_3
  6
CONTINUOUS
 62
250
370
18
100
AcDb2dPolyline
 66
1
 70
128
  0
VERTEX
  5
435
100
AcDbEntity
  8
SUE_T_3
100
AcDbVertex
100
AcDb2dVertex
 10
7578517.77435000054
 20
5719976.58435000014
  0
VERTEX
  5
436
100
AcDbEntity
  8
SUE_T_3
100
AcDbVertex
100
AcDb2dVertex
 10
7578517.42080000043
 20
5719976.23080000002
  0
SEQEND
  5
437
100
AcDbEntity
  8
SUE_T_3
  0
POLYLINE
  5
438
100
AcDbEntity
  8
SUKP_L_0
  6
CONTINUOUS
 62
34
370
18
100
AcDb2dPolyline
 66
1
 70
128
  0
VERTEX
  5
439
100
AcDbEntity
  8
SUKP_L_0
100
AcDbVertex
100
AcDb2dVertex
 10
7578467.0148
 20
5719962.27660000045
  0
VERTEX
  5
43A
100
AcDbEntity
  8
SUKP_L_0
100
AcDbVertex
100
AcDb2dVertex
 10
7578467.01300000027
 20
5719961.09660000075
  0
SEQEND
  5
43B
100
AcDbEntity
  8
SUKP_L_0
  0
POLYLINE
  5
43C
100
AcDbEntity
  8
SUKP_L_0
  6
CONTINUOUS
 62
34
370
18
100
AcDb2dPolyline
 66
1
 70
128
  0
VERTEX
  5
43D
100
AcDbEntity
  8
SUKP_L_0
100
AcDbVertex
100
AcDb2dVertex
 10
7578467.01300000027
 20
5719961.09660000075
  0
VERTEX
  5
43E
100
AcDbEntity
  8
SUKP_L_0
100
AcDbVertex
100
AcDb2dVertex
 10
7578471.15310709085
 20
5719956.51737471018
  0
SEQEND
  5
43F
100
AcDbEntity
  8
SUKP_L_0
  0
CIRCLE
  5
440
100
AcDbEntity
  8
SUKR_T_0
  6
CONTINUOUS
 62
34
370
18
100
AcDbCircle
 10
7578467.0148
 20
5719962.27660000045
 40
0.0625
  0
POLYLINE
  5
441
100
AcDbEntity
  8
SUKR_T_0
  6
CONTINUOUS
 62
34
370
18
100
AcDb2dPolyline
 66
1
 70
128
  0
VERTEX
  5
442
100
AcDbEntity
  8
SUKR_T_0
100
AcDbVertex
100
AcDb2dVertex
 10
7578467.01480001304
 20
5719962.27659998741
  0
VERTEX
  5
443
100
AcDbEntity
  8
SUKR_T_0
100
AcDbVertex
100
AcDb2dVertex
 10
7578468.12635844946
 20
5719964.12217537966
  0
SEQEND
  5
444
100
AcDbEntity
  8
SUKR_T_0
  0
POLYLINE
  5
445
100
AcDbEntity
  8
SUKR_T_0
  6
CONTINUOUS
 62
34
370
18
100
AcDb2dPolyline
 66
1
 70
128
  0
VERTEX
  5
446
100
AcDbEntity
  8
SUKR_T_0
100
AcDbVertex
100
AcDb2dVertex
 10
7578468.12635844946
 20
5719964.12217537966
  0
VERTEX
  5
447
100
AcDbEntity
  8
SUKR_T_0
100
AcDbVertex
100
AcDb2dVertex
 10
7578470.732053902
 20
5719964.12217537966
  0
SEQEND
  5
448
100
AcDbEntity
  8
SUKR_T_0
  0
ARC
  5
449
100
AcDbEntity
  8
SUP_T_2
  6
CONTINUOUS
 62
7
370
18
100
AcDbCircle
 10
7578518.3045768952
 20
5719977.1147095067
 30
0
 40
0.2498765332
100
AcDbArc
 50
76.5537776003
 51
275.9476374232
  0
CIRCLE
  5
44A
100
AcDbEntity
  8
SUP_T_2
  6
CONTINUOUS
 62
7
370
18
100
AcDbCircle
 10
7578475.22580000013
 20
5719988.3125
 40
0.25
  0
CIRCLE
  5
44B
100
AcDbEntity
  8
SUP_T_4
  6
CONTINUOUS
 62
7
370
18
100
AcDbCircle
 10
7578467.01300000027
 20
5719961.09660000075
 40
0.25
  0
CIRCLE
  5
44C
100
AcDbEntity
  8
SUP_T_4
  6
CONTINUOUS
 62
7
370
18
100
AcDbCircle
 10
7578467.0148
 20
5719962.27660000045
 40
0.25
  0
POLYLINE
  5
44D
100
AcDbEntity
  8
SUTP_L_0
  6
CONTINUOUS
 62
30
370
18
100
AcDb2dPolyline
 66
1
 70
128
  0
VERTEX
  5
44E
100
AcDbEntity
  8
SUTP_L_0
100
AcDbVertex
100
AcDb2dVertex
 10
7578444.11677268893
 20
5719999.59128648508
  0
VERTEX
  5
44F
100
AcDbEntity
  8
SUTP_L_0
100
AcDbVertex
100
AcDb2dVertex
 10
7578445.77099095006
 20
5719999.97958253138
  0
SEQEND
  5
450
100
AcDbEntity
  8
SUTP_L_0
  0
POLYLINE
  5
451
100
AcDbEntity
  8
SUTP_L_0
  6
CONTINUOUS
 62
30
370
18
100
AcDb2dPolyline
 66
1
 70
128
  0
VERTEX
  5
452
100
AcDbEntity
  8
SUTP_L_0
100
AcDbVertex
100
AcDb2dVertex
 10
7578443.31352036446
 20
5719987.8397358302
  0
VERTEX
  5
453
100
AcDbEntity
  8
SUTP_L_0
100
AcDbVertex
100
AcDb2dVertex
 10
7578476.71910000034
 20
5719979.12260000035
  0
SEQEND
  5
454
100
AcDbEntity
  8
SUTP_L_0
  0
POLYLINE
  5
455
100
AcDbEntity
  8
SUTP_L_0
  6
CONTINUOUS
 62
30
370
18
100
AcDb2dPolyline
 66
1
 70
128
  0
VERTEX
  5
456
100
AcDbEntity
  8
SUTP_L_0
100
AcDbVertex
100
AcDb2dVertex
 10
7578475.71439999994
 20
5719968.18569999933
  0
VERTEX
  5
457
100
AcDbEntity
  8
SUTP_L_0
100
AcDbVertex
100
AcDb2dVertex
 10
7578474.6952203
 20
5719956.30179167073
  0
SEQEND
  5
458
100
AcDbEntity
  8
SUTP_L_0
  0
POLYLINE
  5
459
100
AcDbEntity
  8
SUTP_L_0
  6
CONTINUOUS
 62
30
370
18
100
AcDb2dPolyline
 66
1
 70
128
  0
VERTEX
  5
45A
100
AcDbEntity
  8
SUTP_L_0
100
AcDbVertex
100
AcDb2dVertex
 10
7578476.71910000034
 20
5719979.12260000035
  0
VERTEX
  5
45B
100
AcDbEntity
  8
SUTP_L_0
100
AcDbVertex
100
AcDb2dVertex
 10
7578475.71439999994
 20
5719968.18569999933
  0
SEQEND
  5
45C
100
AcDbEntity
  8
SUTP_L_0
  0
POLYLINE
  5
45D
100
AcDbEntity
  8
SUTP_L_0
  6
CONTINUOUS
 62
30
370
18
100
AcDb2dPolyline
 66
1
 70
128
  0
VERTEX
  5
45E
100
AcDbEntity
  8
SUTP_L_0
100
AcDbVertex
100
AcDb2dVertex
 10
7578476.71910000034
 20
5719979.12260000035
  0
VERTEX
  5
45F
100
AcDbEntity
  8
SUTP_L_0
100
AcDbVertex
100
AcDb2dVertex
 10
7578511.77410000004
 20
5719969.88030000031
  0
SEQEND
  5
460
100
AcDbEntity
  8
SUTP_L_0
  0
POLYLINE
  5
461
100
AcDbEntity
  8
SUTP_L_0
  6
CONTINUOUS
 62
30
370
18
100
AcDb2dPolyline
 66
1
 70
128
  0
VERTEX
  5
462
100
AcDbEntity
  8
SUTP_L_0
100
AcDbVertex
100
AcDb2dVertex
 10
7578511.77410000004
 20
5719969.88030000031
  0
VERTEX
  5
463
100
AcDbEntity
  8
SUTP_L_0
100
AcDbVertex
100
AcDb2dVertex
 10
7578517.77109062485
 20
5719968.33009852655
  0
SEQEND
  5
464
100
AcDbEntity
  8
SUTP_L_0
  0
POLYLINE
  5
465
100
AcDbEntity
  8
SUTP_L_0
  6
CONTINUOUS
 62
30
370
18
100
AcDb2dPolyline
 66
1
 70
128
  0
VERTEX
  5
466
100
AcDbEntity
  8
SUTP_L_0
100
AcDbVertex
100
AcDb2dVertex
 10
7578511.32506808918
 20
5719957.03647017106
  0
VERTEX
  5
467
100
AcDbEntity
  8
SUTP_L_0
100
AcDbVertex
100
AcDb2dVertex
 10
7578511.77410000004
 20
5719969.88030000031
  0
SEQEND
  5
468
100
AcDbEntity
  8
SUTP_L_0
  0
POLYLINE
  5
469
100
AcDbEntity
  8
SUWP_L_0
  6
CONTINUOUS
 62
5
370
18
100
AcDb2dPolyline
 66
1
 70
128
  0
VERTEX
  5
46A
100
AcDbEntity
  8
SUWP_L_0
100
AcDbVertex
100
AcDb2dVertex
 10
7578476.29359498061
 20
5719956.20451006014
  0
VERTEX
  5
46B
100
AcDbEntity
  8
SUWP_L_0
100
AcDbVertex
100
AcDb2dVertex
 10
7578478.36900000088
 20
5719980.60380000062
  0
SEQEND
  5
46C
100
AcDbEntity
  8
SUWP_L_0
  0
POLYLINE
  5
46D
100
AcDbEntity
  8
SUWP_L_0
  6
CONTINUOUS
 62
5
370
18
100
AcDb2dPolyline
 66
1
 70
128
  0
VERTEX
  5
46E
100
AcDbEntity
  8
SUWP_L_0
100
AcDbVertex
100
AcDb2dVertex
 10
7578505.78703084029
 20
5719951.46956884954
  0
VERTEX
  5
46F
100
AcDbEntity
  8
SUWP_L_0
100
AcDbVertex
100
AcDb2dVertex
 10
7578502.79225521069
 20
5719951.64654044062
  0
SEQEND
  5
470
100
AcDbEntity
  8
SUWP_L_0
  0
POLYLINE
  5
471
100
AcDbEntity
  8
SUWP_L_0
  6
CONTINUOUS
 62
5
370
18
100
AcDb2dPolyline
 66
1
 70
128
  0
VERTEX
  5
472
100
AcDbEntity
  8
SUWP_L_0
100
AcDbVertex
100
AcDb2dVertex
 10
7578502.79225521069
 20
5719951.64654044062
  0
VERTEX
  5
473
100
AcDbEntity
  8
SUWP_L_0
100
AcDbVertex
100
AcDb2dVertex
 10
7578503.21220000088
 20
5719958.48209999967
  0
SEQEND
  5
474
100
AcDbEntity
  8
SUWP_L_0
  0
POLYLINE
  5
475
100
AcDbEntity
  8
SUWP_L_0
  6
CONTINUOUS
 62
5
370
18
100
AcDb2dPolyline
 66
1
 70
128
  0
VERTEX
  5
476
100
AcDbEntity
  8
SUWP_L_0
100
AcDbVertex
100
AcDb2dVertex
 10
7578503.21220000088
 20
5719958.48209999967
  0
VERTEX
  5
477
100
AcDbEntity
  8
SUWP_L_0
100
AcDbVertex
100
AcDb2dVertex
 10
7578504.15740000084
 20
5719973.72869999986
  0
SEQEND
  5
478
100
AcDbEntity
  8
SUWP_L_0
  0
POLYLINE
  5
479
100
AcDbEntity
  8
SUWP_L_0
  6
CONTINUOUS
 62
5
370
18
100
AcDb2dPolyline
 66
1
 70
128
  0
VERTEX
  5
47A
100
AcDbEntity
  8
SUWP_L_0
100
AcDbVertex
100
AcDb2dVertex
 10
7578442.02863616496
 20
5719969.04192934651
  0
VERTEX
  5
47B
100
AcDbEntity
  8
SUWP_L_0
100
AcDbVertex
100
AcDb2dVertex
 10
7578443.88729999959
 20
5719969.00969999936
  0
SEQEND
  5
47C
100
AcDbEntity
  8
SUWP_L_0
  0
POLYLINE
  5
47D
100
AcDbEntity
  8
SUWP_L_0
  6
CONTINUOUS
 62
5
370
18
100
AcDb2dPolyline
 66
1
 70
128
  0
VERTEX
  5
47E
100
AcDbEntity
  8
SUWP_L_0
100
AcDbVertex
100
AcDb2dVertex
 10
7578443.88729999959
 20
5719969.00969999936
  0
VERTEX
  5
47F
100
AcDbEntity
  8
SUWP_L_0
100
AcDbVertex
100
AcDb2dVertex
 10
7578447.06940000039
 20
5719989.01129999943
  0
SEQEND
  5
480
100
AcDbEntity
  8
SUWP_L_0
  0
POLYLINE
  5
481
100
AcDbEntity
  8
SUWP_L_0
  6
CONTINUOUS
 62
5
370
18
100
AcDb2dPolyline
 66
1
 70
128
  0
VERTEX
  5
482
100
AcDbEntity
  8
SUWP_L_0
100
AcDbVertex
100
AcDb2dVertex
 10
7578457.68660280481
 20
5719997.07384280022
  0
VERTEX
  5
483
100
AcDbEntity
  8
SUWP_L_0
100
AcDbVertex
100
AcDb2dVertex
 10
7578456.2070000004
 20
5719986.53340000007
  0
SEQEND
  5
484
100
AcDbEntity
  8
SUWP_L_0
  0
POLYLINE
  5
485
100
AcDbEntity
  8
SUWP_L_0
  6
CONTINUOUS
 62
5
370
18
100
AcDb2dPolyline
 66
1
 70
128
  0
VERTEX
  5
486
100
AcDbEntity
  8
SUWP_L_0
100
AcDbVertex
100
AcDb2dVertex
 10
7578443.45801309217
 20
5719989.95365888253
  0
VERTEX
  5
487
100
AcDbEntity
  8
SUWP_L_0
100
AcDbVertex
100
AcDb2dVertex
 10
7578447.06940000039
 20
5719989.01129999943
  0
SEQEND
  5
488
100
AcDbEntity
  8
SUWP_L_0
  0
POLYLINE
  5
489
100
AcDbEntity
  8
SUWP_L_0
  6
CONTINUOUS
 62
5
370
18
100
AcDb2dPolyline
 66
1
 70
128
  0
VERTEX
  5
48A
100
AcDbEntity
  8
SUWP_L_0
100
AcDbVertex
100
AcDb2dVertex
 10
7578447.06940000039
 20
5719989.01129999943
  0
VERTEX
  5
48B
100
AcDbEntity
  8
SUWP_L_0
100
AcDbVertex
100
AcDb2dVertex
 10
7578456.2070000004
 20
5719986.53340000007
  0
SEQEND
  5
48C
100
AcDbEntity
  8
SUWP_L_0
  0
POLYLINE
  5
48D
100
AcDbEntity
  8
SUWP_L_0
  6
CONTINUOUS
 62
5
370
18
100
AcDb2dPolyline
 66
1
 70
128
  0
VERTEX
  5
48E
100
AcDbEntity
  8
SUWP_L_0
100
AcDbVertex
100
AcDb2dVertex
 10
7578456.2070000004
 20
5719986.53340000007
  0
VERTEX
  5
48F
100
AcDbEntity
  8
SUWP_L_0
100
AcDbVertex
100
AcDb2dVertex
 10
7578478.36900000088
 20
5719980.60380000062
  0
SEQEND
  5
490
100
AcDbEntity
  8
SUWP_L_0
  0
POLYLINE
  5
491
100
AcDbEntity
  8
SUWP_L_0
  6
CONTINUOUS
 62
5
370
18
100
AcDb2dPolyline
 66
1
 70
128
  0
VERTEX
  5
492
100
AcDbEntity
  8
SUWP_L_0
100
AcDbVertex
100
AcDb2dVertex
 10
7578478.36900000088
 20
5719980.60380000062
  0
VERTEX
  5
493
100
AcDbEntity
  8
SUWP_L_0
100
AcDbVertex
100
AcDb2dVertex
 10
7578504.15740000084
 20
5719973.72869999986
  0
SEQEND
  5
494
100
AcDbEntity
  8
SUWP_L_0
  0
POLYLINE
  5
495
100
AcDbEntity
  8
SUWP_L_0
  6
CONTINUOUS
 62
5
370
18
100
AcDb2dPolyline
 66
1
 70
128
  0
VERTEX
  5
496
100
AcDbEntity
  8
SUWP_L_0
100
AcDbVertex
100
AcDb2dVertex
 10
7578504.15740000084
 20
5719973.72869999986
  0
VERTEX
  5
497
100
AcDbEntity
  8
SUWP_L_0
100
AcDbVertex
100
AcDb2dVertex
 10
7578517.89020584244
 20
5719970.14778946526
  0
SEQEND
  5
498
100
AcDbEntity
  8
SUWP_L_0
  0
CIRCLE
  5
499
100
AcDbEntity
  8
SUWR_T_0
  6
CONTINUOUS
 62
5
370
18
100
AcDbCircle
 10
7578447.06940000039
 20
5719989.01129999943
 40
0.0625
  0
CIRCLE
  5
49A
100
AcDbEntity
  8
SUWR_T_0
  6
CONTINUOUS
 62
5
370
18
100
AcDbCircle
 10
7578456.2070000004
 20
5719986.53340000007
 40
0.0625
  0
POLYLINE
  5
49B
100
AcDbEntity
  8
SUWR_T_0
  6
CONTINUOUS
 62
5
370
18
100
AcDb2dPolyline
 66
1
 70
128
  0
VERTEX
  5
49C
100
AcDbEntity
  8
SUWR_T_0
100
AcDbVertex
100
AcDb2dVertex
 10
7578447.06940005161
 20
5719989.01129989978
  0
VERTEX
  5
49D
100
AcDbEntity
  8
SUWR_T_0
100
AcDbVertex
100
AcDb2dVertex
 10
7578445.54731951095
 20
5719991.02028231975
  0
SEQEND
  5
49E
100
AcDbEntity
  8
SUWR_T_0
  0
POLYLINE
  5
49F
100
AcDbEntity
  8
SUWR_T_0
  6
CONTINUOUS
 62
5
370
18
100
AcDb2dPolyline
 66
1
 70
128
  0
VERTEX
  5
4A0
100
AcDbEntity
  8
SUWR_T_0
100
AcDbVertex
100
AcDb2dVertex
 10
7578443.53091987502
 20
5719991.02028231975
  0
VERTEX
  5
4A1
100
AcDbEntity
  8
SUWR_T_0
100
AcDbVertex
100
AcDb2dVertex
 10
7578445.54731951095
 20
5719991.02028231975
  0
SEQEND
  5
4A2
100
AcDbEntity
  8
SUWR_T_0
  0
POLYLINE
  5
4A3
100
AcDbEntity
  8
SUWR_T_0
  6
CONTINUOUS
 62
5
370
18
100
AcDb2dPolyline
 66
1
 70
128
  0
VERTEX
  5
4A4
100
AcDbEntity
  8
SUWR_T_0
100
AcDbVertex
100
AcDb2dVertex
 10
7578456.20700000133
 20
5719986.53340002801
  0
VERTEX
  5
4A5
100
AcDbEntity
  8
SUWR_T_0
100
AcDbVertex
100
AcDb2dVertex
 10
7578454.56974922121
 20
5719983.28791209869
  0
SEQEND
  5
4A6
100
AcDbEntity
  8
SUWR_T_0
  0
POLYLINE
  5
4A7
100
AcDbEntity
  8
SUWR_T_0
  6
CONTINUOUS
 62
5
370
18
100
AcDb2dPolyline
 66
1
 70
128
  0
VERTEX
  5
4A8
100
AcDbEntity
  8
SUWR_T_0
100
AcDbVertex
100
AcDb2dVertex
 10
7578451.96405376773
 20
5719983.28791209869
  0
VERTEX
  5
4A9
100
AcDbEntity
  8
SUWR_T_0
100
AcDbVertex
100
AcDb2dVertex
 10
7578454.56974922121
 20
5719983.28791209869
  0
SEQEND
  5
4AA
100
AcDbEntity
  8
SUWR_T_0
  0
CIRCLE
  5
4AB
100
AcDbEntity
  8
SUW_T_3
  6
CONTINUOUS
 62
5
370
18
100
AcDbCircle
 10
7578508.97449999955
 20
5719982.92150000017
 40
0.25
  0
CIRCLE
  5
4AC
100
AcDbEntity
  8
SUW_T_3
  6
CONTINUOUS
 62
5
370
18
100
AcDbCircle
 10
7578508.97449999955
 20
5719982.92150000017
 40
0.75
  0
CIRCLE
  5
4AD
100
AcDbEntity
  8
SUW_T_5
  6
CONTINUOUS
 62
5
370
18
100
AcDbCircle
 10
7578478.36900000088
 20
5719980.60380000062
 40
0.200000000186
  0
CIRCLE
  5
4AE
100
AcDbEntity
  8
SUW_T_5
  6
CONTINUOUS
 62
5
370
18
100
AcDbCircle
 10
7578478.36900000088
 20
5719980.60380000062
 40
0.174999999814
  0
CIRCLE
  5
4AF
100
AcDbEntity
  8
SUW_T_5
  6
CONTINUOUS
 62
5
370
18
100
AcDbCircle
 10
7578478.36900000088
 20
5719980.60380000062
 40
0.150000000373
  0
CIRCLE
  5
4B0
100
AcDbEntity
  8
SUW_T_5
  6
CONTINUOUS
 62
5
370
18
100
AcDbCircle
 10
7578478.36900000088
 20
5719980.60380000062
 40
0.125
  0
CIRCLE
  5
4B1
100
AcDbEntity
  8
SUW_T_5
  6
CONTINUOUS
 62
5
370
18
100
AcDbCircle
 10
7578478.36900000088
 20
5719980.60380000062
 40
0.099999999627
  0
CIRCLE
  5
4B2
100
AcDbEntity
  8
SUW_T_5
  6
CONTINUOUS
 62
5
370
18
100
AcDbCircle
 10
7578478.36900000088
 20
5719980.60380000062
 40
0.075000000186
  0
CIRCLE
  5
4B3
100
AcDbEntity
  8
SUW_T_5
  6
CONTINUOUS
 62
5
370
18
100
AcDbCircle
 10
7578478.36900000088
 20
5719980.60380000062
 40
0.049999999814
  0
CIRCLE
  5
4B4
100
AcDbEntity
  8
SUW_T_5
  6
CONTINUOUS
 62
5
370
18
100
AcDbCircle
 10
7578478.36900000088
 20
5719980.60380000062
 40
0.025000000373
  0
CIRCLE
  5
4B5
100
AcDbEntity
  8
SUW_T_5
  6
CONTINUOUS
 62
5
370
18
100
AcDbCircle
 10
7578478.36900000088
 20
5719980.60380000062
 40
0.007149999961
  0
CIRCLE
  5
4B6
100
AcDbEntity
  8
SUW_T_5
  6
CONTINUOUS
 62
5
370
18
100
AcDbCircle
 10
7578456.2070000004
 20
5719986.53340000007
 40
0.200000000186
  0
CIRCLE
  5
4B7
100
AcDbEntity
  8
SUW_T_5
  6
CONTINUOUS
 62
5
370
18
100
AcDbCircle
 10
7578456.2070000004
 20
5719986.53340000007
 40
0.174999999814
  0
CIRCLE
  5
4B8
100
AcDbEntity
  8
SUW_T_5
  6
CONTINUOUS
 62
5
370
18
100
AcDbCircle
 10
7578456.2070000004
 20
5719986.53340000007
 40
0.150000000373
  0
CIRCLE
  5
4B9
100
AcDbEntity
  8
SUW_T_5
  6
CONTINUOUS
 62
5
370
18
100
AcDbCircle
 10
7578456.2070000004
 20
5719986.53340000007
 40
0.125
  0
CIRCLE
  5
4BA
100
AcDbEntity
  8
SUW_T_5
  6
CONTINUOUS
 62
5
370
18
100
AcDbCircle
 10
7578456.2070000004
 20
5719986.53340000007
 40
0.099999999627
  0
CIRCLE
  5
4BB
100
AcDbEntity
  8
SUW_T_5
  6
CONTINUOUS
 62
5
370
18
100
AcDbCircle
 10
7578456.2070000004
 20
5719986.53340000007
 40
0.075000000186
  0
CIRCLE
  5
4BC
100
AcDbEntity
  8
SUW_T_5
  6
CONTINUOUS
 62
5
370
18
100
AcDbCircle
 10
7578456.2070000004
 20
5719986.53340000007
 40
0.049999999814
  0
CIRCLE
  5
4BD
100
AcDbEntity
  8
SUW_T_5
  6
CONTINUOUS
 62
5
370
18
100
AcDbCircle
 10
7578456.2070000004
 20
5719986.53340000007
 40
0.025000000373
  0
CIRCLE
  5
4BE
100
AcDbEntity
  8
SUW_T_5
  6
CONTINUOUS
 62
5
370
18
100
AcDbCircle
 10
7578456.2070000004
 20
5719986.53340000007
 40
0.007149999961
  0
CIRCLE
  5
4BF
100
AcDbEntity
  8
SUW_T_5
  6
CONTINUOUS
 62
5
370
18
100
AcDbCircle
 10
7578447.06940000039
 20
5719989.01129999943
 40
0.200000000186
  0
CIRCLE
  5
4C0
100
AcDbEntity
  8
SUW_T_5
  6
CONTINUOUS
 62
5
370
18
100
AcDbCircle
 10
7578447.06940000039
 20
5719989.01129999943
 40
0.174999999814
  0
CIRCLE
  5
4C1
100
AcDbEntity
  8
SUW_T_5
  6
CONTINUOUS
 62
5
370
18
100
AcDbCircle
 10
7578447.06940000039
 20
5719989.01129999943
 40
0.150000000373
  0
CIRCLE
  5
4C2
100
AcDbEntity
  8
SUW_T_5
  6
CONTINUOUS
 62
5
370
18
100
AcDbCircle
 10
7578447.06940000039
 20
5719989.01129999943
 40
0.125
  0
CIRCLE
  5
4C3
100
AcDbEntity
  8
SUW_T_5
  6
CONTINUOUS
 62
5
370
18
100
AcDbCircle
 10
7578447.06940000039
 20
5719989.01129999943
 40
0.099999999627
  0
CIRCLE
  5
4C4
100
AcDbEntity
  8
SUW_T_5
  6
CONTINUOUS
 62
5
370
18
100
AcDbCircle
 10
7578447.06940000039
 20
5719989.01129999943
 40
0.075000000186
  0
CIRCLE
  5
4C5
100
AcDbEntity
  8
SUW_T_5
  6
CONTINUOUS
 62
5
370
18
100
AcDbCircle
 10
7578447.06940000039
 20
5719989.01129999943
 40
0.049999999814
  0
CIRCLE
  5
4C6
100
AcDbEntity
  8
SUW_T_5
  6
CONTINUOUS
 62
5
370
18
100
AcDbCircle
 10
7578447.06940000039
 20
5719989.01129999943
 40
0.025000000373
  0
CIRCLE
  5
4C7
100
AcDbEntity
  8
SUW_T_5
  6
CONTINUOUS
 62
5
370
18
100
AcDbCircle
 10
7578447.06940000039
 20
5719989.01129999943
 40
0.007149999961
  0
CIRCLE
  5
4C8
100
AcDbEntity
  8
SUW_T_5
  6
CONTINUOUS
 62
5
370
18
100
AcDbCircle
 10
7578504.15740000084
 20
5719973.72869999986
 40
0.200000000186
  0
CIRCLE
  5
4C9
100
AcDbEntity
  8
SUW_T_5
  6
CONTINUOUS
 62
5
370
18
100
AcDbCircle
 10
7578504.15740000084
 20
5719973.72869999986
 40
0.174999999814
  0
CIRCLE
  5
4CA
100
AcDbEntity
  8
SUW_T_5
  6
CONTINUOUS
 62
5
370
18
100
AcDbCircle
 10
7578504.15740000084
 20
5719973.72869999986
 40
0.150000000373
  0
CIRCLE
  5
4CB
100
AcDbEntity
  8
SUW_T_5
  6
CONTINUOUS
 62
5
370
18
100
AcDbCircle
 10
7578504.15740000084
 20
5719973.72869999986
 40
0.125
  0
CIRCLE
  5
4CC
100
AcDbEntity
  8
SUW_T_5
  6
CONTINUOUS
 62
5
370
18
100
AcDbCircle
 10
7578504.15740000084
 20
5719973.72869999986
 40
0.099999999627
  0
CIRCLE
  5
4CD
100
AcDbEntity
  8
SUW_T_5
  6
CONTINUOUS
 62
5
370
18
100
AcDbCircle
 10
7578504.15740000084
 20
5719973.72869999986
 40
0.075000000186
  0
CIRCLE
  5
4CE
100
AcDbEntity
  8
SUW_T_5
  6
CONTINUOUS
 62
5
370
18
100
AcDbCircle
 10
7578504.15740000084
 20
5719973.72869999986
 40
0.049999999814
  0
CIRCLE
  5
4CF
100
AcDbEntity
  8
SUW_T_5
  6
CONTINUOUS
 62
5
370
18
100
AcDbCircle
 10
7578504.15740000084
 20
5719973.72869999986
 40
0.025000000373
  0
CIRCLE
  5
4D0
100
AcDbEntity
  8
SUW_T_5
  6
CONTINUOUS
 62
5
370
18
100
AcDbCircle
 10
7578504.15740000084
 20
5719973.72869999986
 40
0.007149999961
  0
POLYLINE
  5
4D1
100
AcDbEntity
  8
Uzytki
  6
L_0_03
370
18
100
AcDb2dPolyline
 66
1
 70
128
  0
VERTEX
  5
4D2
100
AcDbEntity
  8
Uzytki
100
AcDbVertex
100
AcDb2dVertex
 10
7578443.85673245322
 20
5719995.78690782934
  0
VERTEX
  5
4D3
100
AcDbEntity
  8
Uzytki
100
AcDbVertex
100
AcDb2dVertex
 10
7578446.41000000015
 20
5719995.12000000011
  0
SEQEND
  5
4D4
100
AcDbEntity
  8
Uzytki
  0
POLYLINE
  5
4D5
100
AcDbEntity
  8
Uzytki
  6
L_0_03
370
18
100
AcDb2dPolyline
 66
1
 70
128
  0
VERTEX
  5
4D6
100
AcDbEntity
  8
Uzytki
100
AcDbVertex
100
AcDb2dVertex
 10
7578446.41000000015
 20
5719995.12000000011
  0
VERTEX
  5
4D7
100
AcDbEntity
  8
Uzytki
100
AcDbVertex
100
AcDb2dVertex
 10
7578488.26999999955
 20
5719984.20999999996
  0
SEQEND
  5
4D8
100
AcDbEntity
  8
Uzytki
  0
POLYLINE
  5
4D9
100
AcDbEntity
  8
Uzytki
  6
L_0_03
370
18
100
AcDb2dPolyline
 66
1
 70
128
  0
VERTEX
  5
4DA
100
AcDbEntity
  8
Uzytki
100
AcDbVertex
100
AcDb2dVertex
 10
7578488.26999999955
 20
5719984.20999999996
  0
VERTEX
  5
4DB
100
AcDbEntity
  8
Uzytki
100
AcDbVertex
100
AcDb2dVertex
 10
7578503.54999999981
 20
5719980.20999999996
  0
SEQEND
  5
4DC
100
AcDbEntity
  8
Uzytki
  0
POLYLINE
  5
4DD
100
AcDbEntity
  8
Uzytki
  6
L_0_03
370
18
100
AcDb2dPolyline
 66
1
 70
128
  0
VERTEX
  5
4DE
100
AcDbEntity
  8
Uzytki
100
AcDbVertex
100
AcDb2dVertex
 10
7578503.54999999981
 20
5719980.20999999996
  0
VERTEX
  5
4DF
100
AcDbEntity
  8
Uzytki
100
AcDbVertex
100
AcDb2dVertex
 10
7578504.0247559417
 20
5719985.77382612415
  0
SEQEND
  5
4E0
100
AcDbEntity
  8
Uzytki
  0
POLYLINE
  5
4E1
100
AcDbEntity
  8
Uzytki
  6
L_0_03
370
18
100
AcDb2dPolyline
 66
1
 70
128
  0
VERTEX
  5
4E2
100
AcDbEntity
  8
Uzytki
100
AcDbVertex
100
AcDb2dVertex
 10
7578443.33999999985
 20
5719957.84999999963
  0
VERTEX
  5
4E3
100
AcDbEntity
  8
Uzytki
100
AcDbVertex
100
AcDb2dVertex
 10
7578445.20000000019
 20
5719990.03000000026
  0
SEQEND
  5
4E4
100
AcDbEntity
  8
Uzytki
  0
POLYLINE
  5
4E5
100
AcDbEntity
  8
Uzytki
  6
L_0_03
370
18
100
AcDb2dPolyline
 66
1
 70
128
  0
VERTEX
  5
4E6
100
AcDbEntity
  8
Uzytki
100
AcDbVertex
100
AcDb2dVertex
 10
7578445.20000000019
 20
5719990.03000000026
  0
VERTEX
  5
4E7
100
AcDbEntity
  8
Uzytki
100
AcDbVertex
100
AcDb2dVertex
 10
7578443.49369801022
 20
5719990.47572786734
  0
SEQEND
  5
4E8
100
AcDbEntity
  8
Uzytki
  0
POLYLINE
  5
4E9
100
AcDbEntity
  8
Uzytki
  6
L_0_03
370
18
100
AcDb2dPolyline
 66
1
 70
128
  0
VERTEX
  5
4EA
100
AcDbEntity
  8
Uzytki
100
AcDbVertex
100
AcDb2dVertex
 10
7578441.26518859249
 20
5719957.87272068206
  0
VERTEX
  5
4EB
100
AcDbEntity
  8
Uzytki
100
AcDbVertex
100
AcDb2dVertex
 10
7578443.33999999985
 20
5719957.84999999963
  0
SEQEND
  5
4EC
100
AcDbEntity
  8
Uzytki
  0
POLYLINE
  5
4ED
100
AcDbEntity
  8
Uzytki
  6
L_0_03
370
18
100
AcDb2dPolyline
 66
1
 70
128
  0
VERTEX
  5
4EE
100
AcDbEntity
  8
Uzytki
100
AcDbVertex
100
AcDb2dVertex
 10
7578485.90000000037
 20
5719943.36000000034
  0
VERTEX
  5
4EF
100
AcDbEntity
  8
Uzytki
100
AcDbVertex
100
AcDb2dVertex
 10
7578488.24000000022
 20
5719978.78000000026
  0
SEQEND
  5
4F0
100
AcDbEntity
  8
Uzytki
  0
POLYLINE
  5
4F1
100
AcDbEntity
  8
Uzytki
  6
L_0_03
370
18
100
AcDb2dPolyline
 66
1
 70
128
  0
VERTEX
  5
4F2
100
AcDbEntity
  8
Uzytki
100
AcDbVertex
100
AcDb2dVertex
 10
7578488.24000000022
 20
5719978.78000000026
  0
VERTEX
  5
4F3
100
AcDbEntity
  8
Uzytki
100
AcDbVertex
100
AcDb2dVertex
 10
7578473.25999999978
 20
5719982.69000000041
  0
SEQEND
  5
4F4
100
AcDbEntity
  8
Uzytki
  0
POLYLINE
  5
4F5
100
AcDbEntity
  8
Uzytki
  6
L_0_03
370
18
100
AcDb2dPolyline
 66
1
 70
128
  0
VERTEX
  5
4F6
100
AcDbEntity
  8
Uzytki
100
AcDbVertex
100
AcDb2dVertex
 10
7578473.25999999978
 20
5719982.69000000041
  0
VERTEX
  5
4F7
100
AcDbEntity
  8
Uzytki
100
AcDbVertex
100
AcDb2dVertex
 10
7578457.51999999955
 20
5719986.80999999959
  0
SEQEND
  5
4F8
100
AcDbEntity
  8
Uzytki
  0
POLYLINE
  5
4F9
100
AcDbEntity
  8
Uzytki
  6
L_0_03
370
18
100
AcDb2dPolyline
 66
1
 70
128
  0
VERTEX
  5
4FA
100
AcDbEntity
  8
Uzytki
100
AcDbVertex
100
AcDb2dVertex
 10
7578457.51999999955
 20
5719986.80999999959
  0
VERTEX
  5
4FB
100
AcDbEntity
  8
Uzytki
100
AcDbVertex
100
AcDb2dVertex
 10
7578454.91000000015
 20
5719948.5700000003
  0
SEQEND
  5
4FC
100
AcDbEntity
  8
Uzytki
  0
POLYLINE
  5
4FD
100
AcDbEntity
  8
Uzytki
  6
L_0_03
370
18
100
AcDb2dPolyline
 66
1
 70
128
  0
VERTEX
  5
4FE
100
AcDbEntity
  8
Uzytki
100
AcDbVertex
100
AcDb2dVertex
 10
7578454.91000000015
 20
5719948.5700000003
  0
VERTEX
  5
4FF
100
AcDbEntity
  8
Uzytki
100
AcDbVertex
100
AcDb2dVertex
 10
7578469.86000000034
 20
5719947.33999999985
  0
SEQEND
  5
500
100
AcDbEntity
  8
Uzytki
  0
POLYLINE
  5
501
100
AcDbEntity
  8
Uzytki
  6
L_0_03
370
18
100
AcDb2dPolyline
 66
1
 70
128
  0
VERTEX
  5
502
100
AcDbEntity
  8
Uzytki
100
AcDbVertex
100
AcDb2dVertex
 10
7578469.86000000034
 20
5719947.33999999985
  0
VERTEX
  5
503
100
AcDbEntity
  8
Uzytki
100
AcDbVertex
100
AcDb2dVertex
 10
7578470.65000000037
 20
5719944.26999999862
  0
SEQEND
  5
504
100
AcDbEntity
  8
Uzytki
  0
POLYLINE
  5
505
100
AcDbEntity
  8
Uzytki
  6
L_0_03
370
18
100
AcDb2dPolyline
 66
1
 70
128
  0
VERTEX
  5
506
100
AcDbEntity
  8
Uzytki
100
AcDbVertex
100
AcDb2dVertex
 10
7578470.65000000037
 20
5719944.26999999862
  0
VERTEX
  5
507
100
AcDbEntity
  8
Uzytki
100
AcDbVertex
100
AcDb2dVertex
 10
7578485.90000000037
 20
5719943.36000000034
  0
SEQEND
  5
508
100
AcDbEntity
  8
Uzytki
  0
POLYLINE
  5
509
100
AcDbEntity
  8
Uzytki
  6
L_0_03
370
18
100
AcDb2dPolyline
 66
1
 70
128
  0
VERTEX
  5
50A
100
AcDbEntity
  8
Uzytki
100
AcDbVertex
100
AcDb2dVertex
 10
7578445.20000000019
 20
5719990.03000000026
  0
VERTEX
  5
50B
100
AcDbEntity
  8
Uzytki
100
AcDbVertex
100
AcDb2dVertex
 10
7578457.51999999955
 20
5719986.80999999959
  0
SEQEND
  5
50C
100
AcDbEntity
  8
Uzytki
  0
POLYLINE
  5
50D
100
AcDbEntity
  8
Uzytki
  6
L_0_03
370
18
100
AcDb2dPolyline
 66
1
 70
128
  0
VERTEX
  5
50E
100
AcDbEntity
  8
Uzytki
100
AcDbVertex
100
AcDb2dVertex
 10
7578488.24000000022
 20
5719978.78000000026
  0
VERTEX
  5
50F
100
AcDbEntity
  8
Uzytki
100
AcDbVertex
100
AcDb2dVertex
 10
7578503.23000000045
 20
5719974.86000000034
  0
SEQEND
  5
510
100
AcDbEntity
  8
Uzytki
  0
POLYLINE
  5
511
100
AcDbEntity
  8
Uzytki
  6
L_0_03
370
18
100
AcDb2dPolyline
 66
1
 70
128
  0
VERTEX
  5
512
100
AcDbEntity
  8
Uzytki
100
AcDbVertex
100
AcDb2dVertex
 10
7578503.23000000045
 20
5719974.86000000034
  0
VERTEX
  5
513
100
AcDbEntity
  8
Uzytki
100
AcDbVertex
100
AcDb2dVertex
 10
7578517.94684667513
 20
5719971.01212511025
  0
SEQEND
  5
514
100
AcDbEntity
  8
Uzytki
  0
POLYLINE
  5
515
100
AcDbEntity
  8
Uzytki
  6
L_0_03
370
18
100
AcDb2dPolyline
 66
1
 70
128
  0
VERTEX
  5
516
100
AcDbEntity
  8
Uzytki
100
AcDbVertex
100
AcDb2dVertex
 10
7578518.29748406541
 20
5719976.362830244
  0
VERTEX
  5
517
100
AcDbEntity
  8
Uzytki
100
AcDbVertex
100
AcDb2dVertex
 10
7578503.54999999981
 20
5719980.20999999996
  0
SEQEND
  5
518
100
AcDbEntity
  8
Uzytki
  0
POLYLINE
  5
519
100
AcDbEntity
  8
Uzytki
  6
L_0_03
370
18
100
AcDb2dPolyline
 66
1
 70
128
  0
VERTEX
  5
51A
100
AcDbEntity
  8
Uzytki
100
AcDbVertex
100
AcDb2dVertex
 10
7578503.23000000045
 20
5719974.86000000034
  0
VERTEX
  5
51B
100
AcDbEntity
  8
Uzytki
100
AcDbVertex
100
AcDb2dVertex
 10
7578501.79000000004
 20
5719951.87999999989
  0
SEQEND
  5
51C
100
AcDbEntity
  8
Uzytki
  0
POLYLINE
  5
51D
100
AcDbEntity
  8
Uzytki
  6
L_0_03
370
18
100
AcDb2dPolyline
 66
1
 70
128
  0
VERTEX
  5
51E
100
AcDbEntity
  8
Uzytki
100
AcDbVertex
100
AcDb2dVertex
 10
7578501.79000000004
 20
5719951.87999999989
  0
VERTEX
  5
51F
100
AcDbEntity
  8
Uzytki
100
AcDbVertex
100
AcDb2dVertex
 10
7578500.58000000007
 20
5719932.61000000034
  0
SEQEND
  5
520
100
AcDbEntity
  8
Uzytki
  0
POLYLINE
  5
521
100
AcDbEntity
  8
Uzytki
  6
L_0_03
370
18
100
AcDb2dPolyline
 66
1
 70
128
  0
VERTEX
  5
522
100
AcDbEntity
  8
Uzytki
100
AcDbVertex
100
AcDb2dVertex
 10
7578500.58000000007
 20
5719932.61000000034
  0
VERTEX
  5
523
100
AcDbEntity
  8
Uzytki
100
AcDbVertex
100
AcDb2dVertex
 10
7578506.5700000003
 20
5719932.24000000022
  0
SEQEND
  5
524
100
AcDbEntity
  8
Uzytki
  0
POLYLINE
  5
525
100
AcDbEntity
  8
Uzytki
  6
L_0_03
370
18
100
AcDb2dPolyline
 66
1
 70
128
  0
VERTEX
  5
526
100
AcDbEntity
  8
Uzytki
100
AcDbVertex
100
AcDb2dVertex
 10
7578506.5700000003
 20
5719932.24000000022
  0
VERTEX
  5
527
100
AcDbEntity
  8
Uzytki
100
AcDbVertex
100
AcDb2dVertex
 10
7578515.37077743839
 20
5719931.70146611519
  0
SEQEND
  5
528
100
AcDbEntity
  8
Uzytki
  0
POLYLINE
  5
529
100
AcDbEntity
  8
zakres
  6
ByLayer
370
25
100
AcDb2dPolyline
 66
1
 70
129
  0
VERTEX
  5
52A
100
AcDbEntity
  8
zakres
100
AcDbVertex
100
AcDb2dVertex
 10
7578512.13999999966
 20
5719882.40000000037
  0
VERTEX
  5
52B
100
AcDbEntity
  8
zakres
100
AcDbVertex
100
AcDb2dVertex
 10
7578436.36000000034
 20
5719886.11000000034
  0
VERTEX
  5
52C
100
AcDbEntity
  8
zakres
100
AcDbVertex
100
AcDb2dVertex
 10
7578444.16999999993
 20
5720000.37000000011
  0
VERTEX
  5
52D
100
AcDbEntity
  8
zakres
100
AcDbVertex
100
AcDb2dVertex
 10
7578518.6799999997
 20
5719982.20000000019
  0
SEQEND
  5
52E
100
AcDbEntity
  8
zakres
  0
INSERT
  5
52F
100
AcDbEntity
  8
OTR_T_0
  6
CONTINUOUS
 62
7
100
AcDbBlockReference
 66
0
  2
OTRS
 10
7578502.85500000045
 20
5719974.67300000042
 41
0.50
 42
0.50
 43
0.50
 50
270.00
  0
INSERT
  5
530
100
AcDbEntity
  8
OTR_T_0
  6
CONTINUOUS
 62
7
100
AcDbBlockReference
 66
0
  2
OTRS
 10
7578502.35800000001
 20
5719972.94100000057
 41
0.50
 42
0.50
 43
0.50
 50
270.00
  0
INSERT
  5
531
100
AcDbEntity
  8
OTR_T_0
  6
CONTINUOUS
 62
7
100
AcDbBlockReference
 66
0
  2
OTRS
 10
7578504.21999999974
 20
5719979.56500000041
 41
0.50
 42
0.50
 43
0.50
 50
270.00
  0
INSERT
  5
532
100
AcDbEntity
  8
OTR_T_0
  6
CONTINUOUS
 62
7
100
AcDbBlockReference
 66
0
  2
OTRS
 10
7578446.00900000054
 20
5719991.92200000025
 41
0.50
 42
0.50
 43
0.50
 50
270.00
  0
INSERT
  5
533
100
AcDbEntity
  8
OTR_T_0
  6
CONTINUOUS
 62
7
100
AcDbBlockReference
 66
0
  2
OTRS
 10
7578504.78100000042
 20
5719982.78300000075
 41
0.50
 42
0.50
 43
0.50
 50
270.00
  0
INSERT
  5
534
100
AcDbEntity
  8
Punkty
  6
CONTINUOUS
 62
7
100
AcDbBlockReference
 66
0
  2
OSHF
 10
7578507.79000000004
 20
5720029.90000000037
 41
0.50
 42
0.50
 43
0.50
 50
0.00
  0
INSERT
  5
535
100
AcDbEntity
  8
Punkty
  6
CONTINUOUS
 62
7
100
AcDbBlockReference
 66
0
  2
OSPB
 10
7578503.54999999981
 20
5719980.20999999996
 41
0.50
 42
0.50
 43
0.50
 50
0.00
  0
INSERT
  5
536
100
AcDbEntity
  8
Punkty
  6
CONTINUOUS
 62
7
100
AcDbBlockReference
 66
0
  2
OSHF
 10
7578527.24000000022
 20
5719974.03000000026
 41
0.50
 42
0.50
 43
0.50
 50
0.00
  0
INSERT
  5
537
100
AcDbEntity
  8
Punkty
  6
CONTINUOUS
 62
7
100
AcDbBlockReference
 66
0
  2
OSHF
 10
7578425.59999999963
 20
5719995.15000000037
 41
0.50
 42
0.50
 43
0.50
 50
0.00
  0
INSERT
  5
538
100
AcDbEntity
  8
Punkty
  6
CONTINUOUS
 62
7
100
AcDbBlockReference
 66
0
  2
OSHF
 10
7578457.51999999955
 20
5719986.80999999959
 41
0.50
 42
0.50
 43
0.50
 50
0.00
  0
INSERT
  5
539
100
AcDbEntity
  8
Punkty
  6
CONTINUOUS
 62
7
100
AcDbBlockReference
 66
0
  2
OSHF
 10
7578473.25999999978
 20
5719982.69000000041
 41
0.50
 42
0.50
 43
0.50
 50
0.00
  0
INSERT
  5
53A
100
AcDbEntity
  8
Punkty
  6
CONTINUOUS
 62
7
100
AcDbBlockReference
 66
0
  2
OSHF
 10
7578488.24000000022
 20
5719978.78000000026
 41
0.50
 42
0.50
 43
0.50
 50
0.00
  0
INSERT
  5
53B
100
AcDbEntity
  8
Punkty
  6
CONTINUOUS
 62
7
100
AcDbBlockReference
 66
0
  2
OSHF
 10
7578503.23000000045
 20
5719974.86000000034
 41
0.50
 42
0.50
 43
0.50
 50
0.00
  0
INSERT
  5
53C
100
AcDbEntity
  8
Punkty
  6
CONTINUOUS
 62
7
100
AcDbBlockReference
 66
0
  2
OSPB
 10
7578540.75
 20
5719965.04999999981
 41
0.50
 42
0.50
 43
0.50
 50
0.00
  0
INSERT
  5
53D
100
AcDbEntity
  8
Punkty
  6
CONTINUOUS
 62
7
100
AcDbBlockReference
 66
0
  2
OSHF
 10
7578488.26999999955
 20
5719984.20999999996
 41
0.50
 42
0.50
 43
0.50
 50
0.00
  0
INSERT
  5
53E
100
AcDbEntity
  8
Punkty
  6
CONTINUOUS
 62
7
100
AcDbBlockReference
 66
0
  2
OSHF
 10
7578446.41000000015
 20
5719995.12000000011
 41
0.50
 42
0.50
 43
0.50
 50
0.00
  0
INSERT
  5
53F
100
AcDbEntity
  8
Punkty
  6
CONTINUOUS
 62
7
100
AcDbBlockReference
 66
0
  2
OSHF
 10
7578426.54000000004
 20
5720000.30999999959
 41
0.50
 42
0.50
 43
0.50
 50
0.00
  0
INSERT
  5
540
100
AcDbEntity
  8
Punkty
  6
CONTINUOUS
 62
7
100
AcDbBlockReference
 66
0
  2
OSHF
 10
7578433.05999999959
 20
5719628.25999999978
 41
0.50
 42
0.50
 43
0.50
 50
0.00
  0
INSERT
  5
541
100
AcDbEntity
  8
Punkty
  6
CONTINUOUS
 62
7
100
AcDbBlockReference
 66
0
  2
OSHF
 10
7578449.04999999981
 20
5719626.30999999959
 41
0.50
 42
0.50
 43
0.50
 50
0.00
  0
INSERT
  5
542
100
AcDbEntity
  8
Punkty
  6
CONTINUOUS
 62
7
100
AcDbBlockReference
 66
0
  2
OSHF
 10
7578464.79000000004
 20
5719624.40000000037
 41
0.50
 42
0.50
 43
0.50
 50
0.00
  0
INSERT
  5
543
100
AcDbEntity
  8
Punkty
  6
CONTINUOUS
 62
7
100
AcDbBlockReference
 66
0
  2
OSHF
 10
7578488.94000000041
 20
5719746.98000000045
 41
0.50
 42
0.50
 43
0.50
 50
0.00
  0
INSERT
  5
544
100
AcDbEntity
  8
Punkty
  6
CONTINUOUS
 62
7
100
AcDbBlockReference
 66
0
  2
OSHF
 10
7578498.38999999966
 20
5720129.48000000045
 41
0.50
 42
0.50
 43
0.50
 50
0.00
  0
INSERT
  5
545
100
AcDbEntity
  8
Punkty
  6
CONTINUOUS
 62
7
100
AcDbBlockReference
 66
0
  2
OSHF
 10
7578448.20999999996
 20
5720022.48000000045
 41
0.50
 42
0.50
 43
0.50
 50
0.00
  0
POINT
  5
546
100
AcDbEntity
  8
0
100
AcDbPoint
 62
256
 10
7578500.88999999966
 20
5719975.75999999978
  0
TEXT
  5
547
100
AcDbEntity
  8
EADTD_T_0
 62
214
370
25
100
AcDbText
 39
0.25
 10
7578512.28981355857
 20
5719956.29110145103
 40
1.25
  1
14
 50
184.20
 41
0.66
  7
STANDARD
 72
0
 11
7578512.38136130478
 21
5719955.04445835482
100
AcDbText
 73
3
  0
TEXT
  5
548
100
AcDbEntity
  8
EADTD_T_0
 62
214
370
25
100
AcDbText
 39
0.25
 10
7578476.60814055614
 20
5719955.37195734773
 40
1.25
  1
20
 50
175.80
 41
0.66
  7
STANDARD
 72
0
 11
7578476.51659280993
 21
5719954.12531425152
100
AcDbText
 73
3
  0
TEXT
  5
549
100
AcDbEntity
  8
EGBB_E_T_0
 62
7
370
20
100
AcDbText
 39
0.20
 10
7578510.61232823506
 20
5719949.48603980988
 40
1.00
  1
mj1
 50
0.00
 41
0.66
  7
STANDARD
 72
0
 11
7578510.61232823506
 21
5719950.48603980988
100
AcDbText
 73
3
  0
TEXT
  5
54A
100
AcDbEntity
  8
EGBB_E_T_0
 62
7
370
20
100
AcDbText
 39
0.20
 10
7578475.34925176576
 20
5719950.97358035017
 40
1.00
  1
mj1
 50
0.00
 41
0.66
  7
STANDARD
 72
0
 11
7578475.34925176576
 21
5719951.97358035017
100
AcDbText
 73
3
  0
TEXT
  5
54B
100
AcDbEntity
  8
EGBB_E_T_0
 62
7
370
20
100
AcDbText
 39
0.20
 10
7578463.39811996836
 20
5719956.3964210907
 40
1.00
  1
g1
 50
0.00
 41
0.66
  7
STANDARD
 72
0
 11
7578463.39811996836
 21
5719957.3964210907
100
AcDbText
 73
3
  0
TEXT
  5
54C
100
AcDbEntity
  8
EGBB_E_T_1
 62
7
370
20
100
AcDbText
 39
0.20
 10
7578463.61955000088
 20
5719956.49859999958
 40
1.00
  1
457;1g1
 50
0.00
 41
0.66
  7
STANDARD
 72
0
 11
7578463.61955000088
 21
5719957.49859999958
100
AcDbText
 73
3
  0
TEXT
  5
54D
100
AcDbEntity
  8
EGBB_E_T_1
 62
7
370
20
100
AcDbText
 39
0.20
 10
7578475.60118752066
 20
5719950.99764204957
 40
1.00
  1
458;1mj1
 50
0.00
 41
0.66
  7
STANDARD
 72
0
 11
7578475.60118752066
 21
5719951.99764204957
100
AcDbText
 73
3
  0
TEXT
  5
54E
100
AcDbEntity
  8
EGBB_E_T_1
 62
7
370
20
100
AcDbText
 39
0.20
 10
7578511.33784828894
 20
5719950.51526557002
 40
1.00
  1
460;1mj1
 50
0.00
 41
0.66
  7
STANDARD
 72
0
 11
7578511.33784828894
 21
5719951.51526557002
100
AcDbText
 73
3
  0
TEXT
  5
54F
100
AcDbEntity
  8
Numery_dzialek
 62
7
370
20
100
AcDbText
 39
0.20
 10
7578511.13805997837
 20
5719980.13666409347
 40
1.00
  1
11-376/1
 50
0.00
 41
0.66
  7
STANDARD
 72
0
 11
7578511.13805997837
 21
5719981.13666409347
100
AcDbText
 73
3
  0
TEXT
  5
550
100
AcDbEntity
  8
Numery_dzialek
 62
7
370
20
100
AcDbText
 39
0.20
 10
7578483.2399999965
 20
5719981.60999999754
 40
1.00
  1
11-421
 50
0.00
 41
0.66
  7
STANDARD
 72
0
 11
7578483.2399999965
 21
5719982.60999999754
100
AcDbText
 73
3
  0
TEXT
  5
551
100
AcDbEntity
  8
Numery_dzialek
 62
7
370
20
100
AcDbText
 39
0.20
 10
7578446.99409747217
 20
5719936.20187346544
 40
1.00
  1
11-456
 50
0.00
 41
0.66
  7
STANDARD
 72
0
 11
7578446.99409747217
 21
5719937.20187346544
100
AcDbText
 73
3
  0
TEXT
  5
552
100
AcDbEntity
  8
Numery_dzialek
 62
7
370
20
100
AcDbText
 39
0.20
 10
7578461.99530223478
 20
5719933.88557770755
 40
1.00
  1
11-457
 50
0.00
 41
0.66
  7
STANDARD
 72
0
 11
7578461.99530223478
 21
5719934.88557770755
100
AcDbText
 73
3
  0
TEXT
  5
553
100
AcDbEntity
  8
Numery_dzialek
 62
7
370
20
100
AcDbText
 39
0.20
 10
7578477.51464384608
 20
5719931.49428307265
 40
1.00
  1
11-458
 50
0.00
 41
0.66
  7
STANDARD
 72
0
 11
7578477.51464384608
 21
5719932.49428307265
100
AcDbText
 73
3
  0
TEXT
  5
554
100
AcDbEntity
  8
Numery_dzialek
 62
7
370
20
100
AcDbText
 39
0.20
 10
7578492.72677909024
 20
5719929.15884896554
 40
1.00
  1
11-459
 50
0.00
 41
0.66
  7
STANDARD
 72
0
 11
7578492.72677909024
 21
5719930.15884896554
100
AcDbText
 73
3
  0
TEXT
  5
555
100
AcDbEntity
  8
Numery_dzialek
 62
7
370
20
100
AcDbText
 39
0.20
 10
7578507.69846005645
 20
5719926.84749734309
 40
1.00
  1
11-460
 50
0.00
 41
0.66
  7
STANDARD
 72
0
 11
7578507.69846005645
 21
5719927.84749734309
100
AcDbText
 73
3
  0
TEXT
  5
556
100
AcDbEntity
  8
Numery_dzialek
 62
7
370
20
100
AcDbText
 39
0.20
 10
7578496.12126252893
 20
5719983.92982632201
 40
1.00
  1
11-475
 50
0.00
 41
0.66
  7
STANDARD
 72
0
 11
7578496.12126252893
 21
5719984.92982632201
100
AcDbText
 73
3
  0
TEXT
  5
557
100
AcDbEntity
  8
Numery_dzialek
 62
7
370
20
100
AcDbText
 39
0.20
 10
7578467.50871634018
 20
5719991.15124008898
 40
1.00
  1
11-375
 50
0.00
 41
0.66
  7
STANDARD
 72
0
 11
7578467.50871634018
 21
5719992.15124008898
100
AcDbText
 73
3
  0
TEXT
  5
558
100
AcDbEntity
  8
Numery_konturow
370
20
100
AcDbText
 39
0.20
 10
7578469.33000000007
 20
5719891.83999999985
 40
1.00
  1
RIIIb
 50
0.00
 41
0.66
  7
STANDARD
 72
0
 11
7578469.33000000007
 21
5719892.83999999985
100
AcDbText
 73
3
  0
TEXT
  5
559
100
AcDbEntity
  8
Numery_konturow
370
20
100
AcDbText
 39
0.20
 10
7578460.89813269488
 20
5719964.51838939264
 40
1.00
  1
RIVb
 50
0.00
 41
0.66
  7
STANDARD
 72
0
 11
7578460.89813269488
 21
5719965.51838939264
100
AcDbText
 73
3
  0
TEXT
  5
55A
100
AcDbEntity
  8
Numery_konturow
370
20
100
AcDbText
 39
0.20
 10
7578436.63059151918
 20
5719885.74519706797
 40
1.00
  1
RIVa
 50
0.00
 41
0.66
  7
STANDARD
 72
0
 11
7578436.63059151918
 21
5719886.74519706797
100
AcDbText
 73
3
  0
TEXT
  5
55B
100
AcDbEntity
  8
Numery_konturow
370
20
100
AcDbText
 39
0.20
 10
7578458.47654071636
 20
5719931.15936988872
 40
1.00
  1
RIVa
 50
0.00
 41
0.66
  7
STANDARD
 72
0
 11
7578458.47654071636
 21
5719932.15936988872
100
AcDbText
 73
3
  0
TEXT
  5
55C
100
AcDbEntity
  8
Numery_punktow
 62
7
370
18
100
AcDbText
 39
0.18
 10
7578507.79000000004
 20
5720029.00000002421
 40
0.90
  1
11-288
 50
0.00
 41
0.66
  7
STANDARD
 72
0
 11
7578507.79000000004
 21
5720029.90000000037
100
AcDbText
 73
3
  0
TEXT
  5
55D
100
AcDbEntity
  8
Numery_punktow
 62
7
370
18
100
AcDbText
 39
0.18
 10
7578503.54999999981
 20
5719979.3100000238
 40
0.90
  1
11-287
 50
0.00
 41
0.66
  7
STANDARD
 72
0
 11
7578503.54999999981
 21
5719980.20999999996
100
AcDbText
 73
3
  0
TEXT
  5
55E
100
AcDbEntity
  8
Numery_punktow
 62
7
370
18
100
AcDbText
 39
0.18
 10
7578527.24000000022
 20
5719973.1300000241
 40
0.90
  1
11-298
 50
0.00
 41
0.66
  7
STANDARD
 72
0
 11
7578527.24000000022
 21
5719974.03000000026
100
AcDbText
 73
3
  0
TEXT
  5
55F
100
AcDbEntity
  8
Numery_punktow
 62
7
370
18
100
AcDbText
 39
0.18
 10
7578425.59999999963
 20
5719994.25000002421
 40
0.90
  1
11-1615
 50
0.00
 41
0.66
  7
STANDARD
 72
0
 11
7578425.59999999963
 21
5719995.15000000037
100
AcDbText
 73
3
  0
TEXT
  5
560
100
AcDbEntity
  8
Numery_punktow
 62
7
370
18
100
AcDbText
 39
0.18
 10
7578457.51999999955
 20
5719985.91000002343
 40
0.90
  1
11-1614
 50
0.00
 41
0.66
  7
STANDARD
 72
0
 11
7578457.51999999955
 21
5719986.80999999959
100
AcDbText
 73
3
  0
TEXT
  5
561
100
AcDbEntity
  8
Numery_punktow
 62
7
370
18
100
AcDbText
 39
0.18
 10
7578473.25999999978
 20
5719981.79000002425
 40
0.90
  1
11-1613
 50
0.00
 41
0.66
  7
STANDARD
 72
0
 11
7578473.25999999978
 21
5719982.69000000041
100
AcDbText
 73
3
  0
TEXT
  5
562
100
AcDbEntity
  8
Numery_punktow
 62
7
370
18
100
AcDbText
 39
0.18
 10
7578488.24000000022
 20
5719977.8800000241
 40
0.90
  1
11-1612
 50
0.00
 41
0.66
  7
STANDARD
 72
0
 11
7578488.24000000022
 21
5719978.78000000026
100
AcDbText
 73
3
  0
TEXT
  5
563
100
AcDbEntity
  8
Numery_punktow
 62
7
370
18
100
AcDbText
 39
0.18
 10
7578503.23000000045
 20
5719973.96000002418
 40
0.90
  1
11-1610
 50
0.00
 41
0.66
  7
STANDARD
 72
0
 11
7578503.23000000045
 21
5719974.86000000034
100
AcDbText
 73
3
  0
TEXT
  5
564
100
AcDbEntity
  8
Numery_punktow
 62
7
370
18
100
AcDbText
 39
0.18
 10
7578540.75
 20
5719964.15000002366
 40
0.90
  1
11-1609
 50
0.00
 41
0.66
  7
STANDARD
 72
0
 11
7578540.75
 21
5719965.04999999981
100
AcDbText
 73
3
  0
TEXT
  5
565
100
AcDbEntity
  8
Numery_punktow
 62
7
370
18
100
AcDbText
 39
0.18
 10
7578488.26999999955
 20
5719983.3100000238
 40
0.90
  1
11-285
 50
0.00
 41
0.66
  7
STANDARD
 72
0
 11
7578488.26999999955
 21
5719984.20999999996
100
AcDbText
 73
3
  0
TEXT
  5
566
100
AcDbEntity
  8
Numery_punktow
 62
7
370
18
100
AcDbText
 39
0.18
 10
7578446.41000000015
 20
5719994.22000002395
 40
0.90
  1
11-339
 50
0.00
 41
0.66
  7
STANDARD
 72
0
 11
7578446.41000000015
 21
5719995.12000000011
100
AcDbText
 73
3
  0
TEXT
  5
567
100
AcDbEntity
  8
Numery_punktow
 62
7
370
18
100
AcDbText
 39
0.18
 10
7578426.54000000004
 20
5719999.41000002343
 40
0.90
  1
11-278
 50
0.00
 41
0.66
  7
STANDARD
 72
0
 11
7578426.54000000004
 21
5720000.30999999959
100
AcDbText
 73
3
  0
TEXT
  5
568
100
AcDbEntity
  8
Numery_punktow
 62
7
370
18
100
AcDbText
 39
0.18
 10
7578433.05999999959
 20
5719627.36000002362
 40
0.90
  1
11-55
 50
0.00
 41
0.66
  7
STANDARD
 72
0
 11
7578433.05999999959
 21
5719628.25999999978
100
AcDbText
 73
3
  0
TEXT
  5
569
100
AcDbEntity
  8
Numery_punktow
 62
7
370
18
100
AcDbText
 39
0.18
 10
7578449.04999999981
 20
5719625.41000002343
 40
0.90
  1
11-56
 50
0.00
 41
0.66
  7
STANDARD
 72
0
 11
7578449.04999999981
 21
5719626.30999999959
100
AcDbText
 73
3
  0
TEXT
  5
56A
100
AcDbEntity
  8
Numery_punktow
 62
7
370
18
100
AcDbText
 39
0.18
 10
7578464.79000000004
 20
5719623.50000002421
 40
0.90
  1
11-57
 50
0.00
 41
0.66
  7
STANDARD
 72
0
 11
7578464.79000000004
 21
5719624.40000000037
100
AcDbText
 73
3
  0
TEXT
  5
56B
100
AcDbEntity
  8
Numery_punktow
 62
7
370
18
100
AcDbText
 39
0.18
 10
7578488.94000000041
 20
5719746.08000002429
 40
0.90
  1
11-1611
 50
0.00
 41
0.66
  7
STANDARD
 72
0
 11
7578488.94000000041
 21
5719746.98000000045
100
AcDbText
 73
3
  0
TEXT
  5
56C
100
AcDbEntity
  8
Numery_punktow
 62
7
370
18
100
AcDbText
 39
0.18
 10
7578498.38999999966
 20
5720128.58000002429
 40
0.90
  1
11-286
 50
0.00
 41
0.66
  7
STANDARD
 72
0
 11
7578498.38999999966
 21
5720129.48000000045
100
AcDbText
 73
3
  0
TEXT
  5
56D
100
AcDbEntity
  8
Numery_punktow
 62
7
370
18
100
AcDbText
 39
0.18
 10
7578448.20999999996
 20
5720021.58000002429
 40
0.90
  1
11-284
 50
0.00
 41
0.66
  7
STANDARD
 72
0
 11
7578448.20999999996
 21
5720022.48000000045
100
AcDbText
 73
3
  0
TEXT
  5
56E
100
AcDbEntity
  8
Numery_uzytkow
370
20
100
AcDbText
 39
0.20
 10
7578479.08999999613
 20
5719958.8099999968
 40
1.00
  1
Br
 50
0.00
 41
0.66
  7
STANDARD
 72
0
 11
7578479.08999999613
 21
5719959.8099999968
100
AcDbText
 73
3
  0
TEXT
  5
56F
100
AcDbEntity
  8
Numery_uzytkow
370
20
100
AcDbText
 39
0.20
 10
7578482.65322202444
 20
5719988.91239505261
 40
1.00
  1
Br
 50
0.00
 41
0.66
  7
STANDARD
 72
0
 11
7578482.65322202444
 21
5719989.91239505261
100
AcDbText
 73
3
  0
TEXT
  5
570
100
AcDbEntity
  8
Numery_uzytkow
370
20
100
AcDbText
 39
0.20
 10
7578443.32472163718
 20
5719974.55711213499
 40
1.00
  1
Br
 50
0.00
 41
0.66
  7
STANDARD
 72
0
 11
7578443.32472163718
 21
5719975.55711213499
100
AcDbText
 73
3
  0
TEXT
  5
571
100
AcDbEntity
  8
Numery_uzytkow
370
20
100
AcDbText
 39
0.20
 10
7578489.85999999661
 20
5719980.22999999672
 40
1.00
  1
dr
 50
0.00
 41
0.66
  7
STANDARD
 72
0
 11
7578489.85999999661
 21
5719981.22999999672
100
AcDbText
 73
3
  0
TEXT
  5
572
100
AcDbEntity
  8
Numery_uzytkow
370
20
100
AcDbText
 39
0.20
 10
7578507.6699999962
 20
5719959.40999999736
 40
1.00
  1
Br
 50
0.00
 41
0.66
  7
STANDARD
 72
0
 11
7578507.6699999962
 21
5719960.40999999736
100
AcDbText
 73
3
  0
TEXT
  5
573
100
AcDbEntity
  8
Numery_uzytkow
370
20
100
AcDbText
 39
0.20
 10
7578511.13805997837
 20
5719981.63666409347
 40
1.00
  1
Ps
 50
0.00
 41
0.66
  7
STANDARD
 72
0
 11
7578511.13805997837
 21
5719982.63666409347
100
AcDbText
 73
3
  0
TEXT
  5
574
100
AcDbEntity
  8
Numery_uzytkow
370
20
100
AcDbText
 39
0.20
 10
7578477.05787287559
 20
5719917.81412531063
 40
1.00
  1
R
 50
0.00
 41
0.66
  7
STANDARD
 72
0
 11
7578477.05787287559
 21
5719918.81412531063
100
AcDbText
 73
3
  0
TEXT
  5
575
100
AcDbEntity
  8
OTK_E_T_0
 62
7
370
15
100
AcDbText
 39
0.15
 10
7578467.14028145466
 20
5719972.18957359064
 40
0.75
  1
j.bt.
 50
78.20
 41
0.66
  7
STANDARD
 72
0
 11
7578466.40613091271
 21
5719972.34294562973
100
AcDbText
 73
3
  0
TEXT
  5
576
100
AcDbEntity
  8
OTK_E_T_0
 62
7
370
15
100
AcDbText
 39
0.15
 10
7578479.13561709132
 20
5719983.34116071835
 40
0.75
  1
j.mb.
 50
337.80
 41
0.66
  7
STANDARD
 72
0
 11
7578479.4189976817
 21
5719984.03556365706
100
AcDbText
 73
3
  0
TEXT
  5
577
100
AcDbEntity
  8
OTR_T_0
 62
7
370
15
100
AcDbText
 39
0.15
 10
7578502.85529551748
 20
5719974.67292406037
 40
0.75
  1
162.54
 50
345.60
 41
0.66
  7
STANDARD
 72
0
 11
7578503.04181293305
 21
5719975.3993614316
100
AcDbText
 73
3
  0
TEXT
  5
578
100
AcDbEntity
  8
OTR_T_0
 62
7
370
15
100
AcDbText
 39
0.15
 10
7578501.71494701691
 20
5719969.67661622353
 40
0.75
  1
161.59
 50
71.60
 41
0.66
  7
STANDARD
 72
0
 11
7578501.00329000782
 21
5719969.9133530017
100
AcDbText
 73
3
  0
TEXT
  5
579
100
AcDbEntity
  8
OTR_T_0
 62
7
370
15
100
AcDbText
 39
0.15
 10
7578504.0322149964
 20
5719978.83888927009
 40
0.75
  1
162.57
 50
345.50
 41
0.66
  7
STANDARD
 72
0
 11
7578504.21999999974
 21
5719979.56500000041
100
AcDbText
 73
3
  0
TEXT
  5
57A
100
AcDbEntity
  8
OTR_T_0
 62
7
370
15
100
AcDbText
 39
0.15
 10
7578445.92152324505
 20
5719991.55734560732
 40
0.75
  1
163.02
 50
346.50
 41
0.66
  7
STANDARD
 72
0
 11
7578446.09660726786
 21
5719992.28662304766
100
AcDbText
 73
3
  0
TEXT
  5
57B
100
AcDbEntity
  8
OTR_T_0
 62
7
370
15
100
AcDbText
 39
0.15
 10
7578505.28345405869
 20
5719983.61049173027
 40
0.75
  1
161.38
 50
73.90
 41
0.66
  7
STANDARD
 72
0
 11
7578504.56286969315
 21
5719983.81847772002
100
AcDbText
 73
3
  0
TEXT
  5
57C
100
AcDbEntity
  8
OTR_T_1
 62
7
370
15
100
AcDbText
 39
0.15
 10
7578506.49490051996
 20
5719969.04356572963
 40
0.75
  1
162.6
 50
0.00
 41
0.66
  7
STANDARD
 72
0
 11
7578506.49490051996
 21
5719969.79356572963
100
AcDbText
 73
3
  0
TEXT
  5
57D
100
AcDbEntity
  8
OTR_T_1
 62
7
370
15
100
AcDbText
 39
0.15
 10
7578488.77462115139
 20
5719985.9188682111
 40
0.75
  1
162.8
 50
0.00
 41
0.66
  7
STANDARD
 72
0
 11
7578488.77462115139
 21
5719986.6688682111
100
AcDbText
 73
3
  0
TEXT
  5
57E
100
AcDbEntity
  8
Podzial_sekcyjny_godla
 62
7
370
100
100
AcDbText
 39
1.00
 10
7578402.5
 20
5719992.5
 40
5.00
  1
7.159.30.05.1.1
 50
0.00
 41
0.66
  7
STANDARD
 72
0
 11
7578402.5
 21
5719997.5
100
AcDbText
 73
3
  0
TEXT
  5
57F
100
AcDbEntity
  8
Podzial_sekcyjny_godla
 62
7
370
100
100
AcDbText
 39
1.00
 10
7578402.5
 20
5720242.5
 40
5.00
  1
7.160.30.25.3.3
 50
0.00
 41
0.66
  7
STANDARD
 72
0
 11
7578402.5
 21
5720247.5
100
AcDbText
 73
3
  0
TEXT
  5
580
100
AcDbEntity
  8
SUKP_E_T_0
 62
34
370
15
100
AcDbText
 39
0.15
 10
7578469.02302990388
 20
5719958.31421495508
 40
0.75
  1
kl
 50
312.10
 41
0.66
  7
STANDARD
 72
0
 11
7578469.57951178495
 21
5719958.81703491975
100
AcDbText
 73
3
  0
TEXT
  5
581
100
AcDbEntity
  8
SUKR_T_0
 62
34
370
15
100
AcDbText
 39
0.15
 10
7578468.12635844946
 20
5719964.37217537966
 40
0.75
  1
162.80
 50
0.00
 41
0.66
  7
STANDARD
 72
0
 11
7578468.12635844946
 21
5719965.12217537966
100
AcDbText
 73
3
  0
TEXT
  5
582
100
AcDbEntity
  8
SUKR_T_0
 62
34
370
15
100
AcDbText
 39
0.15
 10
7578468.12635844946
 20
5719963.12217537966
 40
0.75
  1
160.95
 50
0.00
 41
0.66
  7
STANDARD
 72
0
 11
7578468.12635844946
 21
5719963.87217537966
100
AcDbText
 73
3
  0
TEXT
  5
583
100
AcDbEntity
  8
SUP_E_T_1
 62
7
370
15
100
AcDbText
 39
0.15
 10
7578466.05225292128
 20
5719961.01234014984
 40
0.75
  1
k
 50
0.00
 41
0.66
  7
STANDARD
 72
0
 11
7578466.05225292128
 21
5719961.76234014984
100
AcDbText
 73
3
  0
TEXT
  5
584
100
AcDbEntity
  8
SUP_E_T_1
 62
7
370
15
100
AcDbText
 39
0.15
 10
7578466.48428658955
 20
5719962.70847231988
 40
0.75
  1
k
 50
0.00
 41
0.66
  7
STANDARD
 72
0
 11
7578466.48428658955
 21
5719963.45847231988
100
AcDbText
 73
3
  0
TEXT
  5
585
100
AcDbEntity
  8
SUTP_E_T_0
 62
30
370
15
100
AcDbText
 39
0.15
 10
7578470.14727084525
 20
5719980.44995164871
 40
0.75
  1
t
 50
345.40
 41
0.66
  7
STANDARD
 72
0
 11
7578470.33632286359
 21
5719981.17573352624
100
AcDbText
 73
3
  0
TEXT
  5
586
100
AcDbEntity
  8
SUTP_E_T_0
 62
30
370
15
100
AcDbText
 39
0.15
 10
7578476.36762143951
 20
5719971.19716019928
 40
0.75
  1
t
 50
84.80
 41
0.66
  7
STANDARD
 72
0
 11
7578475.62070814054
 21
5719971.26513463445
100
AcDbText
 73
3
  0
TEXT
  5
587
100
AcDbEntity
  8
SUTP_E_T_0
 62
30
370
15
100
AcDbText
 39
0.15
 10
7578490.953633992
 20
5719974.98183062579
 40
0.75
  1
t
 50
345.20
 41
0.66
  7
STANDARD
 72
0
 11
7578491.14521831088
 21
5719975.70694816764
100
AcDbText
 73
3
  0
TEXT
  5
588
100
AcDbEntity
  8
SUTP_E_T_0
 62
30
370
15
100
AcDbText
 39
0.15
 10
7578511.93588485662
 20
5719963.77507246472
 40
0.75
  1
t
 50
88.00
 41
0.66
  7
STANDARD
 72
0
 11
7578511.18634173647
 21
5719963.80124708731
100
AcDbText
 73
3
  0
TEXT
  5
589
100
AcDbEntity
  8
SUWP_E_T_0
 62
5
370
15
100
AcDbText
 39
0.15
 10
7578477.745036765
 20
5719968.84366743639
 40
0.75
  1
woB40
 50
85.10
 41
0.66
  7
STANDARD
 72
0
 11
7578476.99777779262
 21
5719968.90773012862
100
AcDbText
 73
3
  0
TEXT
  5
58A
100
AcDbEntity
  8
SUWP_E_T_0
 62
5
370
15
100
AcDbText
 39
0.15
 10
7578503.70507361274
 20
5719960.37185811065
 40
0.75
  1
wo
 50
86.50
 41
0.66
  7
STANDARD
 72
0
 11
7578502.9564725142
 21
5719960.41764451563
100
AcDbText
 73
3
  0
TEXT
  5
58B
100
AcDbEntity
  8
SUWP_E_T_0
 62
5
370
15
100
AcDbText
 39
0.15
 10
7578445.56331052259
 20
5719977.15776874311
 40
0.75
  1
wo50
 50
81.00
 41
0.66
  7
STANDARD
 72
0
 11
7578444.8225442674
 21
5719977.27509459201
100
AcDbText
 73
3
  0
TEXT
  5
58C
100
AcDbEntity
  8
SUWP_E_T_0
 62
5
370
15
100
AcDbText
 39
0.15
 10
7578483.58223810885
 20
5719978.82587096002
 40
0.75
  1
wo100
 50
345.10
 41
0.66
  7
STANDARD
 72
0
 11
7578483.77508770395
 21
5719979.55065301992
100
AcDbText
 73
3
  0
TEXT
  5
58D
100
AcDbEntity
  8
SUWR_T_0
 62
5
370
15
100
AcDbText
 39
0.15
 10
7578452.32729499135
 20
5719983.53791209869
 40
0.75
  1
163.03
 50
0.00
 41
0.66
  7
STANDARD
 72
0
 11
7578452.32729499135
 21
5719984.28791209869
100
AcDbText
 73
3
  0
TEXT
  5
58E
100
AcDbEntity
  8
SUW_E_T_2
 62
5
370
15
100
AcDbText
 39
0.15
 10
7578478.85618476942
 20
5719981.46295063943
 40
0.75
  1
w
 50
0.00
 41
0.66
  7
STANDARD
 72
0
 11
7578478.85618476942
 21
5719982.21295063943
100
AcDbText
 73
3
  0
TEXT
  5
58F
100
AcDbEntity
  8
SUW_E_T_2
 62
5
370
15
100
AcDbText
 39
0.15
 10
7578456.6750346804
 20
5719987.34679832961
 40
0.75
  1
w
 50
0.00
 41
0.66
  7
STANDARD
 72
0
 11
7578456.6750346804
 21
5719988.09679832961
100
AcDbText
 73
3
  0
TEXT
  5
590
100
AcDbEntity
  8
SUW_E_T_2
 62
5
370
15
100
AcDbText
 39
0.15
 10
7578447.33853758033
 20
5719989.60573222022
 40
0.75
  1
w
 50
0.00
 41
0.66
  7
STANDARD
 72
0
 11
7578447.33853758033
 21
5719990.35573222022
100
AcDbText
 73
3
  0
TEXT
  5
591
100
AcDbEntity
  8
SUW_E_T_2
 62
5
370
15
100
AcDbText
 39
0.15
 10
7578504.60173731949
 20
5719972.56216369011
 40
0.75
  1
w
 50
0.00
 41
0.66
  7
STANDARD
 72
0
 11
7578504.60173731949
 21
5719973.3121636901
100
AcDbText
 73
3
  0
ENDSEC
  0
SECTION
  2
OBJECTS
  0
DICTIONARY
  5
592
330
0
100
AcDbDictionary
280
0
281
1
  3
ACAD_GROUP
350
593
  3
ACAD_LAYOUT
350
594
  3
ACAD_MLINESTYLE
350
595
  3
ACAD_PLOTSETTINGS
350
596
  3
ACAD_PLOTSTYLENAME
350
597
  0
DICTIONARY
  5
593
102
{ACAD_REACTORS
330
592
102
}
330
592
100
AcDbDictionary
280
0
281
1
  0
DICTIONARY
  5
594
102
{ACAD_REACTORS
330
592
102
}
330
592
100
AcDbDictionary
280
0
281
1
  3
Layout
350
169
  3
Model
350
167
  0
DICTIONARY
  5
595
102
{ACAD_REACTORS
330
592
102
}
330
592
100
AcDbDictionary
280
0
281
1
  3
Standard
350
598
  3
L_0_02
350
7
  3
L_0_15
350
E
  3
L_0_C5
350
11
  0
DICTIONARY
  5
596
102
{ACAD_REACTORS
330
592
102
}
330
592
100
AcDbDictionary
280
0
281
1
  0
ACDBDICTIONARYWDFLT
  5
597
102
{ACAD_REACTORS
330
592
102
}
330
592
100
AcDbDictionary
281
1
  3
Normal
350
15
100
AcDbDictionaryWithDefault
340
15
  0
LAYOUT
  5
169
100
AcDbPlotSettings
  1

  2

  4

  6

 40
0.0
 41
0.0
 42
0.0
 43
0.0
 44
0.0
 45
0.0
 46
0.0
 47
0.0
 48
0.0
 49
0.0
140
0.0
141
0.0
142
1.0
143
1.0
 70
688
 72
1
 73
0
 74
5
  7

 75
0
147
1.0
148
0.0
149
0.0
100
AcDbLayout
  1
Layout
 70
1
 71
1
 10
0.0
 20
0.0
 11
420.0
 21
297.0
 12
0.0
 22
0.0
 32
0.0
 14
100000000000000000000.0
 24
100000000000000000000.0
 34
100000000000000000000.0
 15
-100000000000000000000.0
 25
-100000000000000000000.0
 35
-100000000000000000000.0
146
0.0
 13
0.0
 23
0.0
 33
0.0
 16
1.0
 26
0.0
 36
0.0
 17
0.0
 27
1.0
 37
0.0
 76
0
330
168
  0
LAYOUT
  5
167
100
AcDbPlotSettings
  1

  2

  4

  6

 40
0.0
 41
0.0
 42
0.0
 43
0.0
 44
0.0
 45
0.0
 46
0.0
 47
0.0
 48
0.0
 49
0.0
140
0.0
141
0.0
142
1.0
143
1.0
 70
1712
 72
1
 73
0
 74
0
  7

 75
0
147
1.0
148
0.0
149
0.0
100
AcDbLayout
  1
Model
 70
1
 71
0
 10
0.0
 20
0.0
 11
12.0
 21
9.0
 12
0.0
 22
0.0
 32
0.0
 14
0.0
 24
0.0
 34
0.0
 15
0.0
 25
0.0
 35
0.0
146
0.0
 13
0.0
 23
0.0
 33
0.0
 16
1.0
 26
0.0
 36
0.0
 17
0.0
 27
1.0
 37
0.0
 76
0
330
166
  0
MLINESTYLE
  5
598
102
{ACAD_REACTORS
330
595
102
}
330
595
100
AcDbMlineStyle
  2
Standard
 70
0
  3

 62
256
 51
90.0
 52
90.0
  2
Standard
 71
2
 49
0.5
 62
256
  6
ByLayer
 49
-0.5
 62
256
  6
ByLayer
  0
MLINESTYLE
  5
7
100
AcDbMlineStyle
  2
L_0_02
 70
0
  3

 51
90.0
 52
90.0
 71
1
 49
0.0
 62
256
  6
CONTINUOUS
  0
MLINESTYLE
  5
E
100
AcDbMlineStyle
  2
L_0_15
 70
0
  3

 51
90.0
 52
90.0
 71
2
 49
0.0
 62
256
  6
CONTINUOUS
 49
0.0
 62
256
  6
L_0_15_SHX
  0
MLINESTYLE
  5
11
100
AcDbMlineStyle
  2
L_0_C5
 70
0
  3

 51
90.0
 52
90.0
 71
1
 49
0.0
 62
256
  6
CONTINUOUS
  0
ACDBPLACEHOLDER
  5
15
  0
ENDSEC
  0
EOF
