  0
SECTION
  2
HEADER
  9
$ACADVER
  1
AC1018
  9
$HANDSEED
  5
FFFFFF
  9
$EXTMAX
 10
7578012.90000000037
 20
5720776.98000000045
 30
1000000.00
  9
$EXTMIN
 10
7577408.58999999985
 20
5720004.4299999997
 30
0.00
  9
$LIMMIN
 10
7577408.58999999985
 20
5720004.4299999997
  9
$LIMMAX
 10
7578012.90000000037
 20
5720776.98000000045
  9
$DIMASZ
 40
2.5
  9
$DIMGAP
 40
0.625
  9
$INSUNITS
 70
6
  9
$DIMEXO
 40
0.625
  9
$DIMTXT
 40
2.5
  9
$DIMSTYLE
  2
Standard
  9
$PLIMMIN
 10
0.0
 20
0.0
  9
$PLIMMAX
 10
210.0
 20
297.0
  9
$DIMEXE
 40
1.25
  9
$TEXTSIZE
 40
2.5
  9
$TEXTSTYLE
  7
Standard
  9
$LWDISPLAY
290
1
  9
$TDCREATE
 40
45015.392297222
  9
$TDUCREATE
 40
45015.308963889
  9
$TDUPDATE
 40
45015.392297222
  9
$TDUUPDATE
 40
45015.308963889
  9
$TDINDWG
 40
0.0
  9
$TDUSRTIMER
 40
0.0
  9
$USRTIMER
 70
1
  0
ENDSEC
  0
SECTION
  2
TABLES
  0
TABLE
  2
VPORT
  5
1
100
AcDbSymbolTable
 70
1
  0
VPORT
  5
2
100
AcDbSymbolTableRecord
100
AcDbViewportTableRecord
  2
*ACTIVE
 70
0
 10
0.0
 20
0.0
 11
1.0
 21
1.0
 12
7577710.75
 22
5720390.71
 13
0.0
 23
0.0
 14
1.0
 24
1.0
 15
0.0
 25
0.0
 16
0.0
 26
0.0
 36
1.0
 17
0.0
 27
0.0
 37
0.0
 40
772.55
 41
0.78
 42
50.0
 43
0.0
 44
0.0
 50
0.0
 51
0.0
 71
0
 72
100
 73
1
 74
1
 75
0
 76
0
 77
0
 78
0
  0
ENDTAB
  0
TABLE
  2
LTYPE
  5
3
100
AcDbSymbolTable
 70
3
  0
LTYPE
  5
4
100
AcDbSymbolTableRecord
100
AcDbLinetypeTableRecord
  2
ByBlock
 70
0
  3

 72
65
 73
0
 40
0.0
  0
LTYPE
  5
5
100
AcDbSymbolTableRecord
100
AcDbLinetypeTableRecord
  2
ByLayer
 70
0
  3

 72
65
 73
0
 40
0.0
  0
LTYPE
  5
6
100
AcDbSymbolTableRecord
100
AcDbLinetypeTableRecord
  2
CONTINUOUS
 70
0
  3
Solid line
 72
65
 73
0
 40
0.0
  0
LTYPE
  5
8
100
AcDbSymbolTableRecord
100
AcDbLinetypeTableRecord
  2
L_0_02
 70
0
  3
Dzialka_ewidencyjna (MLineStyle)
 72
65
 73
0
 40
0.0
  0
LTYPE
  5
9
100
AcDbSymbolTableRecord
100
AcDbLinetypeTableRecord
  2
L_0_03
 70
0
  3
Uzytek_gruntowy
 72
65
 73
2
 40
1.0
 49
0.5
 74
0
 49
-0.5
 74
0
  0
LTYPE
  5
A
100
AcDbSymbolTableRecord
100
AcDbLinetypeTableRecord
  2
L_0_04
 70
0
  3
Budynek_projektowany
 72
65
 73
2
 40
1.5
 49
1.0
 74
0
 49
-0.5
 74
0
  0
LTYPE
  5
B
100
AcDbSymbolTableRecord
100
AcDbLinetypeTableRecord
  2
L_0_05
 70
0
  3
Szczyt_skarpy_nie_umocnionej_Podnoze_skarpy
 72
65
 73
2
 40
1.75
 49
1.25
 74
0
 49
-0.5
 74
0
  0
LTYPE
  5
C
100
AcDbSymbolTableRecord
100
AcDbLinetypeTableRecord
  2
L_0_06
 70
0
  3
Granica_konturu_klasyfikacyjnego_Krawedz_chodnika
 72
65
 73
2
 40
2.0
 49
1.5
 74
0
 49
-0.5
 74
0
  0
LTYPE
  5
D
100
AcDbSymbolTableRecord
100
AcDbLinetypeTableRecord
  2
L_0_A4_SHX
 70
0
  3
Ogrodzenie_trwale_1_500_
 72
65
 73
12
 40
7.5
 49
0.0
 74
0
 49
-0.375
 74
0
 49
-0.75
 74
0
 49
-0.75
 74
0
 49
-0.75
 74
0
 49
-0.75
 74
0
 49
-0.75
 74
4
 75
1
340
E
 46
0.05
 50
0.0
 44
0.0
 45
0.0
 49
-0.75
 74
0
 49
-0.75
 74
0
 49
-0.75
 74
0
 49
-0.75
 74
0
 49
-0.375
 74
0
  0
LTYPE
  5
10
100
AcDbSymbolTableRecord
100
AcDbLinetypeTableRecord
  2
L_0_A4
 70
0
  3
Ogrodzenie_trwale_1_500_ (MLineStyle)
 72
65
 73
0
 40
0.0
  0
LTYPE
  5
12
100
AcDbSymbolTableRecord
100
AcDbLinetypeTableRecord
  2
L_0_E3_00
 70
0
  3
Budynek_w_budowie_dla_MZ2015_1_500___1_1000
 72
65
 73
3
 40
1.5
 49
0.0
 74
0
 49
1.0
 74
0
 49
-0.5
 74
0
  0
LTYPE
  5
13
100
AcDbSymbolTableRecord
100
AcDbLinetypeTableRecord
  2
L_0_E3
 70
0
  3
Budynek_w_budowie_dla_MZ2015_1_500___1_1000 (MLineStyle)
 72
65
 73
0
 40
0.0
  0
ENDTAB
  0
TABLE
  2
LAYER
  5
14
100
AcDbSymbolTable
 70
141
  0
LAYER
  5
15
100
AcDbSymbolTableRecord
100
AcDbLayerTableRecord
  2
0
 70
0
420
0
  6
CONTINUOUS
370
18
390
16
  0
LAYER
  5
17
100
AcDbSymbolTableRecord
100
AcDbLayerTableRecord
  2
BDZ_BudowlaHydrotechniczna
 70
0
420
657673
  6
CONTINUOUS
370
18
390
16
  0
LAYER
  5
18
100
AcDbSymbolTableRecord
100
AcDbLayerTableRecord
  2
BDZ_BudowlaInzynierska
 70
0
420
657673
  6
CONTINUOUS
370
18
390
16
  0
LAYER
  5
19
100
AcDbSymbolTableRecord
100
AcDbLayerTableRecord
  2
BDZ_BudowlaSportowa
 70
0
420
657673
  6
CONTINUOUS
370
18
390
16
  0
LAYER
  5
1A
100
AcDbSymbolTableRecord
100
AcDbLayerTableRecord
  2
BDZ_BudowlaZiemna
 70
0
420
657673
  6
CONTINUOUS
370
18
390
16
  0
LAYER
  5
1B
100
AcDbSymbolTableRecord
100
AcDbLayerTableRecord
  2
BDZ_CiagRuchuPieszegoIRowerowego
 70
0
420
657673
  6
CONTINUOUS
370
18
390
16
  0
LAYER
  5
1C
100
AcDbSymbolTableRecord
100
AcDbLayerTableRecord
  2
BDZ_Cmentarz
 70
0
420
657673
  6
CONTINUOUS
370
18
390
16
  0
LAYER
  5
1D
100
AcDbSymbolTableRecord
100
AcDbLayerTableRecord
  2
BDZ_InnaBudowla
 70
0
420
657673
  6
CONTINUOUS
370
18
390
16
  0
LAYER
  5
1E
100
AcDbSymbolTableRecord
100
AcDbLayerTableRecord
  2
BDZ_InnaBudowla_P
 70
0
420
657673
  6
CONTINUOUS
370
18
390
16
  0
LAYER
  5
1F
100
AcDbSymbolTableRecord
100
AcDbLayerTableRecord
  2
BDZ_Jezdnia
 70
0
420
657673
  6
CONTINUOUS
370
18
390
16
  0
LAYER
  5
20
100
AcDbSymbolTableRecord
100
AcDbLayerTableRecord
  2
BDZ_Kraweznik
 70
0
420
657673
  6
CONTINUOUS
370
18
390
16
  0
LAYER
  5
21
100
AcDbSymbolTableRecord
100
AcDbLayerTableRecord
  2
BDZ_Mokradlo
 70
0
420
657673
  6
CONTINUOUS
370
18
390
16
  0
LAYER
  5
22
100
AcDbSymbolTableRecord
100
AcDbLayerTableRecord
  2
BDZ_ObiektOZnaczeniuOrientacyjnymWTerenie
 70
0
420
657673
  6
CONTINUOUS
370
18
390
16
  0
LAYER
  5
23
100
AcDbSymbolTableRecord
100
AcDbLayerTableRecord
  2
BDZ_ObiektOZnaczeniuOrientacyjnymWTerenie_P
 70
0
420
657673
  6
CONTINUOUS
370
18
390
16
  0
LAYER
  5
24
100
AcDbSymbolTableRecord
100
AcDbLayerTableRecord
  2
BDZ_ObiektPrzyrodniczy
 70
0
420
657673
  6
CONTINUOUS
370
18
390
16
  0
LAYER
  5
25
100
AcDbSymbolTableRecord
100
AcDbLayerTableRecord
  2
BDZ_ObiektPrzyrodniczy_P
 70
0
420
657673
  6
CONTINUOUS
370
18
390
16
  0
LAYER
  5
26
100
AcDbSymbolTableRecord
100
AcDbLayerTableRecord
  2
BDZ_ObiektZwiazanyZKomunikacja
 70
0
420
657673
  6
CONTINUOUS
370
18
390
16
  0
LAYER
  5
27
100
AcDbSymbolTableRecord
100
AcDbLayerTableRecord
  2
BDZ_Plac
 70
0
420
657673
  6
CONTINUOUS
370
18
390
16
  0
LAYER
  5
28
100
AcDbSymbolTableRecord
100
AcDbLayerTableRecord
  2
BDZ_Przeprawa
 70
0
420
657673
  6
CONTINUOUS
370
18
390
16
  0
LAYER
  5
29
100
AcDbSymbolTableRecord
100
AcDbLayerTableRecord
  2
BDZ_PunktOOkreslonejWysokosci
 70
0
420
657673
  6
CONTINUOUS
370
18
390
16
  0
LAYER
  5
2A
100
AcDbSymbolTableRecord
100
AcDbLayerTableRecord
  2
BDZ_Row
 70
0
420
657673
  6
CONTINUOUS
370
18
390
16
  0
LAYER
  5
2B
100
AcDbSymbolTableRecord
100
AcDbLayerTableRecord
  2
BDZ_Szuwary
 70
0
420
657673
  6
CONTINUOUS
370
18
390
16
  0
LAYER
  5
2C
100
AcDbSymbolTableRecord
100
AcDbLayerTableRecord
  2
BDZ_TerenLesnyZadrzewionyLubZakrzewiony
 70
0
420
657673
  6
CONTINUOUS
370
18
390
16
  0
LAYER
  5
2D
100
AcDbSymbolTableRecord
100
AcDbLayerTableRecord
  2
BDZ_TerenUprawTrwalychITrawnik
 70
0
420
657673
  6
CONTINUOUS
370
18
390
16
  0
LAYER
  5
2E
100
AcDbSymbolTableRecord
100
AcDbLayerTableRecord
  2
BDZ_Tor
 70
0
420
657673
  6
CONTINUOUS
370
18
390
16
  0
LAYER
  5
2F
100
AcDbSymbolTableRecord
100
AcDbLayerTableRecord
  2
BDZ_Ulica
 70
0
420
657673
  6
CONTINUOUS
370
18
390
16
  0
LAYER
  5
30
100
AcDbSymbolTableRecord
100
AcDbLayerTableRecord
  2
BDZ_UmocnienieDrogoweKolejoweLubWodne
 70
0
420
657673
  6
CONTINUOUS
370
18
390
16
  0
LAYER
  5
31
100
AcDbSymbolTableRecord
100
AcDbLayerTableRecord
  2
BDZ_UrzadzenieTransportowe
 70
0
420
657673
  6
CONTINUOUS
370
18
390
16
  0
LAYER
  5
32
100
AcDbSymbolTableRecord
100
AcDbLayerTableRecord
  2
BDZ_UrzadzenieTransportowe_P
 70
0
420
657673
  6
CONTINUOUS
370
18
390
16
  0
LAYER
  5
33
100
AcDbSymbolTableRecord
100
AcDbLayerTableRecord
  2
BDZ_WodaPowierzchniowa
 70
0
420
5888511
  6
CONTINUOUS
370
18
390
16
  0
LAYER
  5
34
100
AcDbSymbolTableRecord
100
AcDbLayerTableRecord
  2
BDZ_WysokaBudowlaTechniczna
 70
0
420
657673
  6
CONTINUOUS
370
18
390
16
  0
LAYER
  5
35
100
AcDbSymbolTableRecord
100
AcDbLayerTableRecord
  2
BDZ_WysokaBudowlaTechniczna_P
 70
0
420
657673
  6
CONTINUOUS
370
18
390
16
  0
LAYER
  5
36
100
AcDbSymbolTableRecord
100
AcDbLayerTableRecord
  2
BDZ_ZbiornikTechniczny
 70
0
420
657673
  6
CONTINUOUS
370
18
390
16
  0
LAYER
  5
37
100
AcDbSymbolTableRecord
100
AcDbLayerTableRecord
  2
BUIB_E_T_6
 70
0
420
0
  6
CONTINUOUS
370
18
390
16
  0
LAYER
  5
38
100
AcDbSymbolTableRecord
100
AcDbLayerTableRecord
  2
BUIB_L_10
 70
0
420
0
  6
CONTINUOUS
370
25
390
16
  0
LAYER
  5
39
100
AcDbSymbolTableRecord
100
AcDbLayerTableRecord
  2
DZIALKI_L_0
 70
0
420
0
  6
CONTINUOUS
370
18
390
16
  0
LAYER
  5
3A
100
AcDbSymbolTableRecord
100
AcDbLayerTableRecord
  2
EADTD_T_0
 70
0
420
10027161
  6
CONTINUOUS
370
25
390
16
  0
LAYER
  5
3B
100
AcDbSymbolTableRecord
100
AcDbLayerTableRecord
  2
EGBB_E_T_0
 70
0
420
0
  6
CONTINUOUS
370
25
390
16
  0
LAYER
  5
3C
100
AcDbSymbolTableRecord
100
AcDbLayerTableRecord
  2
EGBE_L_2
 70
0
420
0
  6
CONTINUOUS
370
18
390
16
  0
LAYER
  5
3D
100
AcDbSymbolTableRecord
100
AcDbLayerTableRecord
  2
EGB_Adres
 70
0
420
657673
  6
CONTINUOUS
370
13
390
16
  0
LAYER
  5
3E
100
AcDbSymbolTableRecord
100
AcDbLayerTableRecord
  2
EGB_ArkuszEwidencyjny
 70
0
420
657673
  6
CONTINUOUS
370
18
390
16
  0
LAYER
  5
3F
100
AcDbSymbolTableRecord
100
AcDbLayerTableRecord
  2
EGB_BlokBudynku
 70
0
420
657673
  6
CONTINUOUS
370
18
390
16
  0
LAYER
  5
40
100
AcDbSymbolTableRecord
100
AcDbLayerTableRecord
  2
EGB_Budynek
 70
0
420
657673
  6
CONTINUOUS
370
50
390
16
  0
LAYER
  5
41
100
AcDbSymbolTableRecord
100
AcDbLayerTableRecord
  2
EGB_BudynekProjektowany
 70
0
420
16711680
  6
L_0_04
370
18
390
16
  0
LAYER
  5
42
100
AcDbSymbolTableRecord
100
AcDbLayerTableRecord
  2
EGB_BudynekProjektowany_P
 70
0
420
657673
  6
L_0_04
370
18
390
16
  0
LAYER
  5
43
100
AcDbSymbolTableRecord
100
AcDbLayerTableRecord
  2
EGB_BudynekWBudowie
 70
0
420
657673
  6
L_0_E3
370
50
390
16
  0
LAYER
  5
44
100
AcDbSymbolTableRecord
100
AcDbLayerTableRecord
  2
EGB_Budynek_P
 70
0
420
657673
  6
CONTINUOUS
370
18
390
16
  0
LAYER
  5
45
100
AcDbSymbolTableRecord
100
AcDbLayerTableRecord
  2
EGB_DzialkaEwidencyjna
 70
0
420
32768
  6
L_0_02
370
18
390
16
  0
LAYER
  5
46
100
AcDbSymbolTableRecord
100
AcDbLayerTableRecord
  2
EGB_JednostkaEwidencyjna
 70
0
420
657673
  6
CONTINUOUS
370
18
390
16
  0
LAYER
  5
47
100
AcDbSymbolTableRecord
100
AcDbLayerTableRecord
  2
EGB_Klasouzytek
 70
0
420
32768
  6
L_0_03
370
18
390
16
  0
LAYER
  5
48
100
AcDbSymbolTableRecord
100
AcDbLayerTableRecord
  2
EGB_KonturKlasyfikacyjny
 70
0
420
32768
  6
L_0_06
370
18
390
16
  0
LAYER
  5
49
100
AcDbSymbolTableRecord
100
AcDbLayerTableRecord
  2
EGB_KonturUzytkuGruntowego
 70
0
420
32768
  6
L_0_03
370
18
390
16
  0
LAYER
  5
4A
100
AcDbSymbolTableRecord
100
AcDbLayerTableRecord
  2
EGB_ObiektTrwaleZwiazanyZBudynkiem
 70
0
420
657673
  6
CONTINUOUS
370
18
390
16
  0
LAYER
  5
4B
100
AcDbSymbolTableRecord
100
AcDbLayerTableRecord
  2
EGB_ObiektTrwaleZwiazanyZBudynkiem_P
 70
0
420
657673
  6
CONTINUOUS
370
18
390
16
  0
LAYER
  5
4C
100
AcDbSymbolTableRecord
100
AcDbLayerTableRecord
  2
EGB_ObrebEwidencyjny
 70
0
420
657673
  6
CONTINUOUS
370
18
390
16
  0
LAYER
  5
4D
100
AcDbSymbolTableRecord
100
AcDbLayerTableRecord
  2
EGB_PunktGraniczny
 70
0
420
657673
  6
CONTINUOUS
370
18
390
16
  0
LAYER
  5
4E
100
AcDbSymbolTableRecord
100
AcDbLayerTableRecord
  2
GES_BudowlaPodziemna
 70
0
420
657673
  6
CONTINUOUS
370
18
390
16
  0
LAYER
  5
4F
100
AcDbSymbolTableRecord
100
AcDbLayerTableRecord
  2
GES_BudowlaPodziemna_ProjLubWBud
 70
0
420
657673
  6
L_0_04
370
18
390
16
  0
LAYER
  5
50
100
AcDbSymbolTableRecord
100
AcDbLayerTableRecord
  2
GES_KorytarzPrzesylowy
 70
0
420
14800840
  6
CONTINUOUS
370
18
390
16
  0
LAYER
  5
51
100
AcDbSymbolTableRecord
100
AcDbLayerTableRecord
  2
GES_ObudowaPrzewodu
 70
0
420
657673
  6
CONTINUOUS
370
18
390
16
  0
LAYER
  5
52
100
AcDbSymbolTableRecord
100
AcDbLayerTableRecord
  2
GES_ObudowaPrzewodu_ProjLubWBud
 70
0
420
657673
  6
L_0_04
370
18
390
16
  0
LAYER
  5
53
100
AcDbSymbolTableRecord
100
AcDbLayerTableRecord
  2
GES_PrzewodBenzynowy
 70
0
420
657673
  6
CONTINUOUS
370
18
390
16
  0
LAYER
  5
54
100
AcDbSymbolTableRecord
100
AcDbLayerTableRecord
  2
GES_PrzewodBenzynowy_ProjLubWBud
 70
0
420
657673
  6
L_0_04
370
18
390
16
  0
LAYER
  5
55
100
AcDbSymbolTableRecord
100
AcDbLayerTableRecord
  2
GES_PrzewodCieplowniczy
 70
0
420
13762770
  6
CONTINUOUS
370
18
390
16
  0
LAYER
  5
56
100
AcDbSymbolTableRecord
100
AcDbLayerTableRecord
  2
GES_PrzewodCieplowniczy_ProjLubWBud
 70
0
420
13762770
  6
L_0_04
370
18
390
16
  0
LAYER
  5
57
100
AcDbSymbolTableRecord
100
AcDbLayerTableRecord
  2
GES_PrzewodElektroenergetyczny
 70
0
420
16711680
  6
CONTINUOUS
370
18
390
16
  0
LAYER
  5
58
100
AcDbSymbolTableRecord
100
AcDbLayerTableRecord
  2
GES_PrzewodElektroenergetyczny_ProjLubWBud
 70
0
420
16711680
  6
L_0_04
370
18
390
16
  0
LAYER
  5
59
100
AcDbSymbolTableRecord
100
AcDbLayerTableRecord
  2
GES_PrzewodGazowy
 70
0
420
12566272
  6
CONTINUOUS
370
18
390
16
  0
LAYER
  5
5A
100
AcDbSymbolTableRecord
100
AcDbLayerTableRecord
  2
GES_PrzewodGazowy_ProjLubWBud
 70
0
420
12566272
  6
L_0_04
370
18
390
16
  0
LAYER
  5
5B
100
AcDbSymbolTableRecord
100
AcDbLayerTableRecord
  2
GES_PrzewodInny
 70
0
420
657673
  6
CONTINUOUS
370
18
390
16
  0
LAYER
  5
5C
100
AcDbSymbolTableRecord
100
AcDbLayerTableRecord
  2
GES_PrzewodInny_ProjLubWBud
 70
0
420
657673
  6
L_0_04
370
18
390
16
  0
LAYER
  5
5D
100
AcDbSymbolTableRecord
100
AcDbLayerTableRecord
  2
GES_PrzewodKanalizacyjny
 70
0
420
8401664
  6
CONTINUOUS
370
18
390
16
  0
LAYER
  5
5E
100
AcDbSymbolTableRecord
100
AcDbLayerTableRecord
  2
GES_PrzewodKanalizacyjny_ProjLubWBud
 70
0
420
8401664
  6
L_0_04
370
18
390
16
  0
LAYER
  5
5F
100
AcDbSymbolTableRecord
100
AcDbLayerTableRecord
  2
GES_PrzewodNaftowy
 70
0
420
657673
  6
CONTINUOUS
370
18
390
16
  0
LAYER
  5
60
100
AcDbSymbolTableRecord
100
AcDbLayerTableRecord
  2
GES_PrzewodNaftowy_ProjLubWBud
 70
0
420
657673
  6
L_0_04
370
18
390
16
  0
LAYER
  5
61
100
AcDbSymbolTableRecord
100
AcDbLayerTableRecord
  2
GES_PrzewodNiezidentyfikowany
 70
0
420
657673
  6
CONTINUOUS
370
18
390
16
  0
LAYER
  5
62
100
AcDbSymbolTableRecord
100
AcDbLayerTableRecord
  2
GES_PrzewodNiezidentyfikowany_ProjLubWBud
 70
0
420
657673
  6
L_0_04
370
18
390
16
  0
LAYER
  5
63
100
AcDbSymbolTableRecord
100
AcDbLayerTableRecord
  2
GES_PrzewodTelekomunikacyjny
 70
0
420
16748800
  6
CONTINUOUS
370
18
390
16
  0
LAYER
  5
64
100
AcDbSymbolTableRecord
100
AcDbLayerTableRecord
  2
GES_PrzewodTelekomunikacyjny_ProjLubWBud
 70
0
420
16748800
  6
L_0_04
370
18
390
16
  0
LAYER
  5
65
100
AcDbSymbolTableRecord
100
AcDbLayerTableRecord
  2
GES_PrzewodWodociagowy
 70
0
420
255
  6
CONTINUOUS
370
18
390
16
  0
LAYER
  5
66
100
AcDbSymbolTableRecord
100
AcDbLayerTableRecord
  2
GES_PrzewodWodociagowy_ProjLubWBud
 70
0
420
255
  6
L_0_04
370
18
390
16
  0
LAYER
  5
67
100
AcDbSymbolTableRecord
100
AcDbLayerTableRecord
  2
GES_PunktOOkreslonejWysokosci
 70
0
420
657673
  6
CONTINUOUS
370
18
390
16
  0
LAYER
  5
68
100
AcDbSymbolTableRecord
100
AcDbLayerTableRecord
  2
GES_SlupIMaszt
 70
0
420
657673
  6
CONTINUOUS
370
18
390
16
  0
LAYER
  5
69
100
AcDbSymbolTableRecord
100
AcDbLayerTableRecord
  2
GES_SlupIMaszt_ProjLubWBud
 70
0
420
657673
  6
L_0_04
370
18
390
16
  0
LAYER
  5
6A
100
AcDbSymbolTableRecord
100
AcDbLayerTableRecord
  2
GES_SlupIMaszt_P
 70
0
420
657673
  6
CONTINUOUS
370
18
390
16
  0
LAYER
  5
6B
100
AcDbSymbolTableRecord
100
AcDbLayerTableRecord
  2
GES_SlupIMaszt_P_ProjLubWBud
 70
0
420
657673
  6
L_0_04
370
18
390
16
  0
LAYER
  5
6C
100
AcDbSymbolTableRecord
100
AcDbLayerTableRecord
  2
GES_UrzadzenieTechniczneZwiazaneZSiecia
 70
0
420
657673
  6
CONTINUOUS
370
18
390
16
  0
LAYER
  5
6D
100
AcDbSymbolTableRecord
100
AcDbLayerTableRecord
  2
GES_UrzadzenieTechniczneZwiazaneZSiecia_ProjLubWBud
 70
0
420
657673
  6
L_0_04
370
18
390
16
  0
LAYER
  5
6E
100
AcDbSymbolTableRecord
100
AcDbLayerTableRecord
  2
GES_UrzadzenieTechniczneZwiazaneZSiecia_P
 70
0
420
657673
  6
CONTINUOUS
370
18
390
16
  0
LAYER
  5
6F
100
AcDbSymbolTableRecord
100
AcDbLayerTableRecord
  2
GES_UrzadzenieTechniczneZwiazaneZSiecia_P_ProjLubWBud
 70
0
420
657673
  6
L_0_04
370
18
390
16
  0
LAYER
  5
70
100
AcDbSymbolTableRecord
100
AcDbLayerTableRecord
  2
k1_obiekt
 70
0
420
657673
  6
CONTINUOUS
370
18
390
16
  0
LAYER
  5
71
100
AcDbSymbolTableRecord
100
AcDbLayerTableRecord
  2
k1_obiekt_p
 70
0
420
657673
  6
CONTINUOUS
370
18
390
16
  0
LAYER
  5
72
100
AcDbSymbolTableRecord
100
AcDbLayerTableRecord
  2
KONTURY_L_0
 70
0
420
65280
  6
L_0_06
370
18
390
16
  0
LAYER
  5
73
100
AcDbSymbolTableRecord
100
AcDbLayerTableRecord
  2
KR_Etykieta
 70
0
420
657673
  6
CONTINUOUS
370
18
390
16
  0
LAYER
  5
74
100
AcDbSymbolTableRecord
100
AcDbLayerTableRecord
  2
KR_ObiektKarto
 70
0
420
657673
  6
CONTINUOUS
370
18
390
16
  0
LAYER
  5
75
100
AcDbSymbolTableRecord
100
AcDbLayerTableRecord
  2
KR_ObiektKarto_P
 70
0
420
657673
  6
CONTINUOUS
370
13
390
16
  0
LAYER
  5
76
100
AcDbSymbolTableRecord
100
AcDbLayerTableRecord
  2
KR_Obiekty
 70
0
420
0
  6
CONTINUOUS
370
18
390
16
  0
LAYER
  5
77
100
AcDbSymbolTableRecord
100
AcDbLayerTableRecord
  2
KR_Punkty
 70
0
420
0
  6
CONTINUOUS
370
18
390
16
  0
LAYER
  5
78
100
AcDbSymbolTableRecord
100
AcDbLayerTableRecord
  2
KTCR_E_T_1
 70
0
420
0
  6
CONTINUOUS
370
13
390
16
  0
LAYER
  5
79
100
AcDbSymbolTableRecord
100
AcDbLayerTableRecord
  2
KTCR_L_1
 70
0
420
0
  6
L_0_04
370
18
390
16
  0
LAYER
  5
7A
100
AcDbSymbolTableRecord
100
AcDbLayerTableRecord
  2
KTJZ_E_T_0
 70
0
420
0
  6
CONTINUOUS
370
13
390
16
  0
LAYER
  5
7B
100
AcDbSymbolTableRecord
100
AcDbLayerTableRecord
  2
KTJZ_L_0
 70
0
420
0
  6
L_0_06
370
18
390
16
  0
LAYER
  5
7C
100
AcDbSymbolTableRecord
100
AcDbLayerTableRecord
  2
KTKR_L_0
 70
0
420
0
  6
CONTINUOUS
370
25
390
16
  0
LAYER
  5
7D
100
AcDbSymbolTableRecord
100
AcDbLayerTableRecord
  2
KTOK_L_1
 70
0
420
0
  6
L_0_03
370
18
390
16
  0
LAYER
  5
7E
100
AcDbSymbolTableRecord
100
AcDbLayerTableRecord
  2
KTOK_L_4
 70
0
420
0
  6
L_0_A4
370
35
390
16
  0
LAYER
  5
7F
100
AcDbSymbolTableRecord
100
AcDbLayerTableRecord
  2
NOWA_DZIALKA_L_0
 70
0
420
16711680
  6
L_0_06
370
18
390
16
  0
LAYER
  5
80
100
AcDbSymbolTableRecord
100
AcDbLayerTableRecord
  2
NR_DZIALKI_T_0
 70
0
420
0
  6
CONTINUOUS
370
18
390
16
  0
LAYER
  5
81
100
AcDbSymbolTableRecord
100
AcDbLayerTableRecord
  2
NR_UZYTKU_T_0
 70
0
420
32768
  6
CONTINUOUS
370
18
390
16
  0
LAYER
  5
82
100
AcDbSymbolTableRecord
100
AcDbLayerTableRecord
  2
OBOP_T_1
 70
0
420
65280
  6
CONTINUOUS
370
18
390
16
  0
LAYER
  5
83
100
AcDbSymbolTableRecord
100
AcDbLayerTableRecord
  2
OS_LiniaNiwelacyjna
 70
0
420
657673
  6
CONTINUOUS
370
18
390
16
  0
LAYER
  5
84
100
AcDbSymbolTableRecord
100
AcDbLayerTableRecord
  2
OS_ObserwacjaAzymutu
 70
0
420
657673
  6
CONTINUOUS
370
18
390
16
  0
LAYER
  5
85
100
AcDbSymbolTableRecord
100
AcDbLayerTableRecord
  2
OS_ObserwacjaGrawimetrycznaPrzeslo
 70
0
420
657673
  6
CONTINUOUS
370
18
390
16
  0
LAYER
  5
86
100
AcDbSymbolTableRecord
100
AcDbLayerTableRecord
  2
OS_ObserwacjaGrawimetrycznaPunkt
 70
0
420
657673
  6
CONTINUOUS
370
18
390
16
  0
LAYER
  5
87
100
AcDbSymbolTableRecord
100
AcDbLayerTableRecord
  2
OS_ObserwacjaKata
 70
0
420
657673
  6
CONTINUOUS
370
18
390
16
  0
LAYER
  5
88
100
AcDbSymbolTableRecord
100
AcDbLayerTableRecord
  2
OS_ObserwacjaKierunku
 70
0
420
657673
  6
CONTINUOUS
370
18
390
16
  0
LAYER
  5
89
100
AcDbSymbolTableRecord
100
AcDbLayerTableRecord
  2
OS_ObserwacjaMagnetyczna
 70
0
420
657673
  6
CONTINUOUS
370
18
390
16
  0
LAYER
  5
8A
100
AcDbSymbolTableRecord
100
AcDbLayerTableRecord
  2
OS_ObserwacjaOdleglosci
 70
0
420
657673
  6
CONTINUOUS
370
18
390
16
  0
LAYER
  5
8B
100
AcDbSymbolTableRecord
100
AcDbLayerTableRecord
  2
OS_OdcinekLiniiNiwelacyjnej
 70
0
420
657673
  6
CONTINUOUS
370
18
390
16
  0
LAYER
  5
8C
100
AcDbSymbolTableRecord
100
AcDbLayerTableRecord
  2
OS_PrzesloGrawimetryczne
 70
0
420
657673
  6
CONTINUOUS
370
18
390
16
  0
LAYER
  5
8D
100
AcDbSymbolTableRecord
100
AcDbLayerTableRecord
  2
OS_PunktKierunkowy
 70
0
420
657673
  6
CONTINUOUS
370
18
390
16
  0
LAYER
  5
8E
100
AcDbSymbolTableRecord
100
AcDbLayerTableRecord
  2
OS_PunktOsnowyGrawimetrycznej
 70
0
420
657673
  6
CONTINUOUS
370
18
390
16
  0
LAYER
  5
8F
100
AcDbSymbolTableRecord
100
AcDbLayerTableRecord
  2
OS_PunktOsnowyMagnetycznej
 70
0
420
657673
  6
CONTINUOUS
370
18
390
16
  0
LAYER
  5
90
100
AcDbSymbolTableRecord
100
AcDbLayerTableRecord
  2
OS_PunktOsnowyPoziomej
 70
0
420
657673
  6
CONTINUOUS
370
18
390
16
  0
LAYER
  5
91
100
AcDbSymbolTableRecord
100
AcDbLayerTableRecord
  2
OS_PunktOsnowyWysokosciowej
 70
0
420
657673
  6
CONTINUOUS
370
18
390
16
  0
LAYER
  5
92
100
AcDbSymbolTableRecord
100
AcDbLayerTableRecord
  2
OS_RINEXFile
 70
0
420
657673
  6
CONTINUOUS
370
18
390
16
  0
LAYER
  5
93
100
AcDbSymbolTableRecord
100
AcDbLayerTableRecord
  2
OS_WektorGNSS
 70
0
420
657673
  6
CONTINUOUS
370
18
390
16
  0
LAYER
  5
94
100
AcDbSymbolTableRecord
100
AcDbLayerTableRecord
  2
PRG_Granica
 70
0
420
657673
  6
CONTINUOUS
370
18
390
16
  0
LAYER
  5
95
100
AcDbSymbolTableRecord
100
AcDbLayerTableRecord
  2
projekt_woda
 70
0
420
255
  6
CONTINUOUS
370
35
390
16
  0
LAYER
  5
96
100
AcDbSymbolTableRecord
100
AcDbLayerTableRecord
  2
RTPW_T_0
 70
0
420
0
  6
CONTINUOUS
370
13
390
16
  0
LAYER
  5
97
100
AcDbSymbolTableRecord
100
AcDbLayerTableRecord
  2
SUOT_L_1
 70
0
420
16744192
  6
CONTINUOUS
370
35
390
16
  0
LAYER
  5
98
100
AcDbSymbolTableRecord
100
AcDbLayerTableRecord
  2
SUPE_E_T_3
 70
0
420
16711680
  6
CONTINUOUS
370
13
390
16
  0
LAYER
  5
99
100
AcDbSymbolTableRecord
100
AcDbLayerTableRecord
  2
SUPE_L_3
 70
0
420
16711680
  6
CONTINUOUS
370
18
390
16
  0
LAYER
  5
9A
100
AcDbSymbolTableRecord
100
AcDbLayerTableRecord
  2
SUPT_E_T_0
 70
0
420
16744192
  6
CONTINUOUS
370
13
390
16
  0
LAYER
  5
9B
100
AcDbSymbolTableRecord
100
AcDbLayerTableRecord
  2
SUPT_L_0
 70
0
420
16744192
  6
CONTINUOUS
370
18
390
16
  0
LAYER
  5
9C
100
AcDbSymbolTableRecord
100
AcDbLayerTableRecord
  2
SUPW_E_T_0
 70
0
420
255
  6
CONTINUOUS
370
13
390
16
  0
LAYER
  5
9D
100
AcDbSymbolTableRecord
100
AcDbLayerTableRecord
  2
SUPW_L_0
 70
0
420
255
  6
CONTINUOUS
370
18
390
16
  0
LAYER
  5
9E
100
AcDbSymbolTableRecord
100
AcDbLayerTableRecord
  2
SUSM_T_0
 70
0
420
0
  6
CONTINUOUS
370
18
390
16
  0
LAYER
  5
9F
100
AcDbSymbolTableRecord
100
AcDbLayerTableRecord
  2
SUSM_T_3
 70
0
420
0
  6
CONTINUOUS
370
18
390
16
  0
LAYER
  5
A0
100
AcDbSymbolTableRecord
100
AcDbLayerTableRecord
  2
SUTW_T_0
 70
0
420
255
  6
CONTINUOUS
370
18
390
16
  0
LAYER
  5
A1
100
AcDbSymbolTableRecord
100
AcDbLayerTableRecord
  2
SUUW_E_T_5
 70
0
420
0
  6
CONTINUOUS
370
13
390
16
  0
LAYER
  5
A2
100
AcDbSymbolTableRecord
100
AcDbLayerTableRecord
  2
SUUW_T_7
 70
0
420
0
  6
CONTINUOUS
370
18
390
16
  0
ENDTAB
  0
TABLE
  2
STYLE
  5
A3
100
AcDbSymbolTable
 70
3
  0
STYLE
  5
A4
100
AcDbSymbolTableRecord
100
AcDbTextStyleTableRecord
  2
STANDARD
 70
0
 40
0.0
 41
1.0
 50
0.0
 71
0
  3
simplex.shx
  4

  0
STYLE
  5
A5
100
AcDbSymbolTableRecord
100
AcDbTextStyleTableRecord
  2
STANDARD_ITALIC
 70
0
 40
0.0
 41
1.0
 50
15.0
 71
0
  3
simplex.shx
  4

  0
STYLE
  5
E
100
AcDbSymbolTableRecord
100
AcDbTextStyleTableRecord
  2

 70
1
 40
0.0
 41
0.050
 50
0.0
 71
0
  3
zosin_144_1_podgi+proj_w32.shx
  4

  0
ENDTAB
  0
TABLE
  2
VIEW
  5
A6
100
AcDbSymbolTable
 70
0
  0
ENDTAB
  0
TABLE
  2
UCS
  5
A7
100
AcDbSymbolTable
 70
0
  0
ENDTAB
  0
TABLE
  2
APPID
  5
A8
100
AcDbSymbolTable
 70
1
  0
APPID
  5
A9
100
AcDbSymbolTableRecord
100
AcDbRegAppTableRecord
  2
ACAD
 70
0
  0
ENDTAB
  0
TABLE
  2
DIMSTYLE
  5
AA
100
AcDbSymbolTable
 70
1
100
AcDbDimStyleTable
  0
DIMSTYLE
105
AB
100
AcDbSymbolTableRecord
100
AcDbDimStyleTableRecord
  2
Standard
 70
0
340
A4
  0
ENDTAB
  0
TABLE
  2
BLOCK_RECORD
  5
AC
100
AcDbSymbolTable
 70
7
  0
BLOCK_RECORD
  5
AD
100
AcDbSymbolTableRecord
100
AcDbBlockTableRecord
  2
*Model_Space
340
AE
  0
BLOCK_RECORD
  5
AF
100
AcDbSymbolTableRecord
100
AcDbBlockTableRecord
  2
*Paper_Space
340
B0
  0
BLOCK_RECORD
  5
B1
100
AcDbSymbolTableRecord
100
AcDbBlockTableRecord
  2
OBOP02_01
340
B2
  0
BLOCK_RECORD
  5
B3
100
AcDbSymbolTableRecord
100
AcDbBlockTableRecord
  2
RTPW01
340
B4
  0
BLOCK_RECORD
  5
B5
100
AcDbSymbolTableRecord
100
AcDbBlockTableRecord
  2
SUPS01_08
340
B6
  0
BLOCK_RECORD
  5
B7
100
AcDbSymbolTableRecord
100
AcDbBlockTableRecord
  2
L_0_02_1
340
B8
  0
BLOCK_RECORD
  5
B9
100
AcDbSymbolTableRecord
100
AcDbBlockTableRecord
  2
L_0_02_2
340
BA
  0
ENDTAB
  0
ENDSEC
  0
SECTION
  2
BLOCKS
  0
BLOCK
  5
BB
100
AcDbEntity
  8
0
100
AcDbBlockBegin
  2
*Model_Space
 70
0
 10
0.0
 20
0.0
 30
0.0
  3
*Model_Space
  1

  0
ENDBLK
  5
BC
100
AcDbEntity
  8
0
100
AcDbBlockEnd
  0
BLOCK
  5
BD
100
AcDbEntity
 67
1
  8
0
100
AcDbBlockBegin
  2
*Paper_Space
 70
0
 10
0.0
 20
0.0
 30
0.0
  3
*Paper_Space
  1

  0
ENDBLK
  5
BE
100
AcDbEntity
 67
1
  8
0
100
AcDbBlockEnd
  0
BLOCK
  5
B2
100
AcDbEntity
  8
0
100
AcDbBlockBegin
 62
0
370
13
  2
OBOP02_01
 70
0
 10
0
 20
0
 30
0
  3
OBOP02_01
  0
ARC
  5
BF
100
AcDbEntity
  8
0
  6
CONTINUOUS
 62
0
370
18
100
AcDbCircle
 10
0.0000000000
 20
0.8000000000
 30
0
 40
0.7000000000
100
AcDbArc
 50
29.8459319497
 51
150.1540680503
  0
ARC
  5
C0
100
AcDbEntity
  8
0
  6
CONTINUOUS
 62
0
370
18
100
AcDbCircle
 10
0.7700000000
 20
0.2500000000
 30
0
 40
0.7000000000
100
AcDbArc
 50
317.3373058591
 51
78.3663660011
  0
ARC
  5
C1
100
AcDbEntity
  8
0
  6
CONTINUOUS
 62
0
370
18
100
AcDbCircle
 10
0.4600000000
 20
-0.6400000000
 30
0
 40
0.7100000000
100
AcDbArc
 50
247.4427533653
 51
5.6306827576
  0
ARC
  5
C2
100
AcDbEntity
  8
0
  6
CONTINUOUS
 62
0
370
18
100
AcDbCircle
 10
-0.4600000000
 20
-0.6400000000
 30
0
 40
0.7100000000
100
AcDbArc
 50
174.3693172424
 51
292.5572466347
  0
ARC
  5
C3
100
AcDbEntity
  8
0
  6
CONTINUOUS
 62
0
370
18
100
AcDbCircle
 10
-0.7700000000
 20
0.2500000000
 30
0
 40
0.7000000000
100
AcDbArc
 50
101.6336339989
 51
222.6626941409
  0
HATCH
  5
C4
100
AcDbEntity
  8
0
  6
CONTINUOUS
 62
0
370
18
100
AcDbHatch
 10
0.0
 20
0.0
 30
0.0
210
0.0
220
0.0
230
1.0
  2
SOLID
 70
1
 71
1
 91
1
 92
3
 72
1
 73
1
 93
2
 10
0.0
 20
-0.1
 42
1.0
 10
0.0
 20
0.1
 42
1.0
 97
0
 75
0
 76
1
 98
0
  0
CIRCLE
  5
C5
100
AcDbEntity
  8
0
  6
CONTINUOUS
 62
0
370
18
100
AcDbCircle
 10
0.0
 20
-0.0
 40
0.1
  0
ENDBLK
  5
C6
100
AcDbEntity
  8
0
100
AcDbBlockEnd
  0
BLOCK
  5
B4
100
AcDbEntity
  8
0
100
AcDbBlockBegin
 62
0
370
13
  2
RTPW01
 70
0
 10
0
 20
0
 30
0
  3
RTPW01
  0
HATCH
  5
C7
100
AcDbEntity
  8
0
  6
CONTINUOUS
 62
0
370
13
100
AcDbHatch
 10
0.0
 20
0.0
 30
0.0
210
0.0
220
0.0
230
1.0
  2
SOLID
 70
1
 71
1
 91
1
 92
3
 72
1
 73
1
 93
2
 10
0.0
 20
-0.090553851381
 42
1.0
 10
0.0
 20
0.090553851381
 42
1.0
 97
0
 75
0
 76
1
 98
0
  0
CIRCLE
  5
C8
100
AcDbEntity
  8
0
  6
CONTINUOUS
 62
0
370
13
100
AcDbCircle
 10
0.0
 20
-0.0
 40
0.090553851381
  0
ENDBLK
  5
C9
100
AcDbEntity
  8
0
100
AcDbBlockEnd
  0
BLOCK
  5
B6
100
AcDbEntity
  8
0
100
AcDbBlockBegin
 62
0
370
13
  2
SUPS01_08
 70
0
 10
0
 20
0
 30
0
  3
SUPS01_08
  0
HATCH
  5
CA
100
AcDbEntity
  8
0
  6
CONTINUOUS
 62
0
370
13
100
AcDbHatch
 10
0.0
 20
0.0
 30
0.0
210
0.0
220
0.0
230
1.0
  2
SOLID
 70
1
 71
1
 91
1
 92
3
 72
1
 73
1
 93
2
 10
0.0
 20
-0.090553851381
 42
1.0
 10
0.0
 20
0.090553851381
 42
1.0
 97
0
 75
0
 76
1
 98
0
  0
CIRCLE
  5
CB
100
AcDbEntity
  8
0
  6
CONTINUOUS
 62
0
370
13
100
AcDbCircle
 10
0.0
 20
-0.0
 40
0.090553851381
  0
ENDBLK
  5
CC
100
AcDbEntity
  8
0
100
AcDbBlockEnd
  0
BLOCK
  5
B8
100
AcDbEntity
  8
0
100
AcDbBlockBegin
 62
0
370
13
  2
L_0_02_1
 70
0
 10
0
 20
0
 30
0
  3
L_0_02_1
  0
POINT
  5
CD
100
AcDbEntity
  8
0
100
AcDbPoint
 62
0
 10
0.0
 20
0.0
 30
0.000
  0
ENDBLK
  5
CE
100
AcDbEntity
  8
0
100
AcDbBlockEnd
  0
BLOCK
  5
BA
100
AcDbEntity
  8
0
100
AcDbBlockBegin
 62
0
370
13
  2
L_0_02_2
 70
0
 10
0
 20
0
 30
0
  3
L_0_02_2
  0
POINT
  5
CF
100
AcDbEntity
  8
0
100
AcDbPoint
 62
0
 10
-0.0
 20
-0.0
 30
0.000
  0
ENDBLK
  5
D0
100
AcDbEntity
  8
0
100
AcDbBlockEnd
  0
ENDSEC
  0
SECTION
  2
ENTITIES
  0
POLYLINE
  5
D1
100
AcDbEntity
  8
BUIB_L_10
  6
CONTINUOUS
370
25
100
AcDb2dPolyline
 66
1
 70
128
  0
VERTEX
  5
D2
100
AcDbEntity
  8
BUIB_L_10
100
AcDbVertex
100
AcDb2dVertex
 10
7577631.69456311036
 20
5720332.20227518957
  0
VERTEX
  5
D3
100
AcDbEntity
  8
BUIB_L_10
100
AcDbVertex
100
AcDb2dVertex
 10
7577631.52539999876
 20
5720329.35729999933
  0
SEQEND
  5
D4
100
AcDbEntity
  8
BUIB_L_10
  0
POLYLINE
  5
D5
100
AcDbEntity
  8
BUIB_L_10
  6
CONTINUOUS
370
25
100
AcDb2dPolyline
 66
1
 70
128
  0
VERTEX
  5
D6
100
AcDbEntity
  8
BUIB_L_10
100
AcDbVertex
100
AcDb2dVertex
 10
7577627.55389999878
 20
5720332.4804999996
  0
VERTEX
  5
D7
100
AcDbEntity
  8
BUIB_L_10
100
AcDbVertex
100
AcDb2dVertex
 10
7577631.69456311036
 20
5720332.20227518957
  0
SEQEND
  5
D8
100
AcDbEntity
  8
BUIB_L_10
  0
POLYLINE
  5
D9
100
AcDbEntity
  8
BUIB_L_10
  6
CONTINUOUS
370
25
100
AcDb2dPolyline
 66
1
 70
128
  0
VERTEX
  5
DA
100
AcDbEntity
  8
BUIB_L_10
100
AcDbVertex
100
AcDb2dVertex
 10
7577627.42369999923
 20
5720329.56940000039
  0
VERTEX
  5
DB
100
AcDbEntity
  8
BUIB_L_10
100
AcDbVertex
100
AcDb2dVertex
 10
7577627.55389999878
 20
5720332.4804999996
  0
SEQEND
  5
DC
100
AcDbEntity
  8
BUIB_L_10
  0
POLYLINE
  5
DD
100
AcDbEntity
  8
BUIB_L_10
  6
CONTINUOUS
370
25
100
AcDb2dPolyline
 66
1
 70
128
  0
VERTEX
  5
DE
100
AcDbEntity
  8
BUIB_L_10
100
AcDbVertex
100
AcDb2dVertex
 10
7577631.52539999876
 20
5720329.35729999933
  0
VERTEX
  5
DF
100
AcDbEntity
  8
BUIB_L_10
100
AcDbVertex
100
AcDb2dVertex
 10
7577627.42369999923
 20
5720329.56940000039
  0
SEQEND
  5
E0
100
AcDbEntity
  8
BUIB_L_10
  0
POLYLINE
  5
E1
100
AcDbEntity
  8
DZIALKI_L_0
  6
CONTINUOUS
370
18
100
AcDb2dPolyline
 66
1
 70
128
  0
VERTEX
  5
E2
100
AcDbEntity
  8
DZIALKI_L_0
100
AcDbVertex
100
AcDb2dVertex
 10
7577644.1099999994
 20
5720389.9299999997
  0
VERTEX
  5
E3
100
AcDbEntity
  8
DZIALKI_L_0
100
AcDbVertex
100
AcDb2dVertex
 10
7577665.5999999987
 20
5720388.16999999993
  0
SEQEND
  5
E4
100
AcDbEntity
  8
DZIALKI_L_0
  0
POLYLINE
  5
E5
100
AcDbEntity
  8
DZIALKI_L_0
  6
CONTINUOUS
370
18
100
AcDb2dPolyline
 66
1
 70
128
  0
VERTEX
  5
E6
100
AcDbEntity
  8
DZIALKI_L_0
100
AcDbVertex
100
AcDb2dVertex
 10
7577604.67999999877
 20
5720389.12000000011
  0
VERTEX
  5
E7
100
AcDbEntity
  8
DZIALKI_L_0
100
AcDbVertex
100
AcDb2dVertex
 10
7577600.74000000022
 20
5720327.93999999948
  0
SEQEND
  5
E8
100
AcDbEntity
  8
DZIALKI_L_0
  0
POLYLINE
  5
E9
100
AcDbEntity
  8
DZIALKI_L_0
  6
CONTINUOUS
370
18
100
AcDb2dPolyline
 66
1
 70
128
  0
VERTEX
  5
EA
100
AcDbEntity
  8
DZIALKI_L_0
100
AcDbVertex
100
AcDb2dVertex
 10
7577618.33000000007
 20
5720326.79999999981
  0
VERTEX
  5
EB
100
AcDbEntity
  8
DZIALKI_L_0
100
AcDbVertex
100
AcDb2dVertex
 10
7577600.74000000022
 20
5720327.93999999948
  0
SEQEND
  5
EC
100
AcDbEntity
  8
DZIALKI_L_0
  0
POLYLINE
  5
ED
100
AcDbEntity
  8
DZIALKI_L_0
  6
CONTINUOUS
370
18
100
AcDb2dPolyline
 66
1
 70
128
  0
VERTEX
  5
EE
100
AcDbEntity
  8
DZIALKI_L_0
100
AcDbVertex
100
AcDb2dVertex
 10
7577600.70999999996
 20
5720389.6799999997
  0
VERTEX
  5
EF
100
AcDbEntity
  8
DZIALKI_L_0
100
AcDbVertex
100
AcDb2dVertex
 10
7577604.67999999877
 20
5720389.12000000011
  0
SEQEND
  5
F0
100
AcDbEntity
  8
DZIALKI_L_0
  0
POLYLINE
  5
F1
100
AcDbEntity
  8
DZIALKI_L_0
  6
CONTINUOUS
370
18
100
AcDb2dPolyline
 66
1
 70
128
  0
VERTEX
  5
F2
100
AcDbEntity
  8
DZIALKI_L_0
100
AcDbVertex
100
AcDb2dVertex
 10
7577622.16000000015
 20
5720386.6799999997
  0
VERTEX
  5
F3
100
AcDbEntity
  8
DZIALKI_L_0
100
AcDbVertex
100
AcDb2dVertex
 10
7577604.67999999877
 20
5720389.12000000011
  0
SEQEND
  5
F4
100
AcDbEntity
  8
DZIALKI_L_0
  0
POLYLINE
  5
F5
100
AcDbEntity
  8
DZIALKI_L_0
  6
CONTINUOUS
370
18
100
AcDb2dPolyline
 66
1
 70
128
  0
VERTEX
  5
F6
100
AcDbEntity
  8
DZIALKI_L_0
100
AcDbVertex
100
AcDb2dVertex
 10
7577643.79000000004
 20
5720384.91999999993
  0
VERTEX
  5
F7
100
AcDbEntity
  8
DZIALKI_L_0
100
AcDbVertex
100
AcDb2dVertex
 10
7577665.25999999884
 20
5720383.16000000015
  0
SEQEND
  5
F8
100
AcDbEntity
  8
DZIALKI_L_0
  0
POLYLINE
  5
F9
100
AcDbEntity
  8
DZIALKI_L_0
  6
CONTINUOUS
370
18
100
AcDb2dPolyline
 66
1
 70
128
  0
VERTEX
  5
FA
100
AcDbEntity
  8
DZIALKI_L_0
100
AcDbVertex
100
AcDb2dVertex
 10
7577644.1099999994
 20
5720389.9299999997
  0
VERTEX
  5
FB
100
AcDbEntity
  8
DZIALKI_L_0
100
AcDbVertex
100
AcDb2dVertex
 10
7577646.66000000015
 20
5720427.83999999985
  0
SEQEND
  5
FC
100
AcDbEntity
  8
DZIALKI_L_0
  0
POLYLINE
  5
FD
100
AcDbEntity
  8
DZIALKI_L_0
  6
CONTINUOUS
370
18
100
AcDb2dPolyline
 66
1
 70
128
  0
VERTEX
  5
FE
100
AcDbEntity
  8
DZIALKI_L_0
100
AcDbVertex
100
AcDb2dVertex
 10
7577594.80102049187
 20
5720297.89993429743
  0
VERTEX
  5
FF
100
AcDbEntity
  8
DZIALKI_L_0
100
AcDbVertex
100
AcDb2dVertex
 10
7577600.70999999996
 20
5720389.6799999997
  0
SEQEND
  5
100
100
AcDbEntity
  8
DZIALKI_L_0
  0
POLYLINE
  5
101
100
AcDbEntity
  8
DZIALKI_L_0
  6
CONTINUOUS
370
18
100
AcDb2dPolyline
 66
1
 70
128
  0
VERTEX
  5
102
100
AcDbEntity
  8
DZIALKI_L_0
100
AcDbVertex
100
AcDb2dVertex
 10
7577622.41999999993
 20
5720391.68999999948
  0
VERTEX
  5
103
100
AcDbEntity
  8
DZIALKI_L_0
100
AcDbVertex
100
AcDb2dVertex
 10
7577644.1099999994
 20
5720389.9299999997
  0
SEQEND
  5
104
100
AcDbEntity
  8
DZIALKI_L_0
  0
POLYLINE
  5
105
100
AcDbEntity
  8
DZIALKI_L_0
  6
CONTINUOUS
370
18
100
AcDb2dPolyline
 66
1
 70
128
  0
VERTEX
  5
106
100
AcDbEntity
  8
DZIALKI_L_0
100
AcDbVertex
100
AcDb2dVertex
 10
7577622.41999999993
 20
5720391.68999999948
  0
VERTEX
  5
107
100
AcDbEntity
  8
DZIALKI_L_0
100
AcDbVertex
100
AcDb2dVertex
 10
7577624.93999999948
 20
5720429.61000000034
  0
SEQEND
  5
108
100
AcDbEntity
  8
DZIALKI_L_0
  0
POLYLINE
  5
109
100
AcDbEntity
  8
DZIALKI_L_0
  6
CONTINUOUS
370
18
100
AcDb2dPolyline
 66
1
 70
128
  0
VERTEX
  5
10A
100
AcDbEntity
  8
DZIALKI_L_0
100
AcDbVertex
100
AcDb2dVertex
 10
7577579.75
 20
5720397.66999999993
  0
VERTEX
  5
10B
100
AcDbEntity
  8
DZIALKI_L_0
100
AcDbVertex
100
AcDb2dVertex
 10
7577601.04999999888
 20
5720394.68999999948
  0
SEQEND
  5
10C
100
AcDbEntity
  8
DZIALKI_L_0
  0
POLYLINE
  5
10D
100
AcDbEntity
  8
DZIALKI_L_0
  6
CONTINUOUS
370
18
100
AcDb2dPolyline
 66
1
 70
128
  0
VERTEX
  5
10E
100
AcDbEntity
  8
DZIALKI_L_0
100
AcDbVertex
100
AcDb2dVertex
 10
7577601.04999999888
 20
5720394.68999999948
  0
VERTEX
  5
10F
100
AcDbEntity
  8
DZIALKI_L_0
100
AcDbVertex
100
AcDb2dVertex
 10
7577622.41999999993
 20
5720391.68999999948
  0
SEQEND
  5
110
100
AcDbEntity
  8
DZIALKI_L_0
  0
POLYLINE
  5
111
100
AcDbEntity
  8
DZIALKI_L_0
  6
CONTINUOUS
370
18
100
AcDb2dPolyline
 66
1
 70
128
  0
VERTEX
  5
112
100
AcDbEntity
  8
DZIALKI_L_0
100
AcDbVertex
100
AcDb2dVertex
 10
7577604.71726373304
 20
5720450.01209422946
  0
VERTEX
  5
113
100
AcDbEntity
  8
DZIALKI_L_0
100
AcDbVertex
100
AcDb2dVertex
 10
7577601.04999999888
 20
5720394.68999999948
  0
SEQEND
  5
114
100
AcDbEntity
  8
DZIALKI_L_0
  0
POLYLINE
  5
115
100
AcDbEntity
  8
DZIALKI_L_0
  6
CONTINUOUS
370
18
100
AcDb2dPolyline
 66
1
 70
128
  0
VERTEX
  5
116
100
AcDbEntity
  8
DZIALKI_L_0
100
AcDbVertex
100
AcDb2dVertex
 10
7577600.70999999996
 20
5720389.6799999997
  0
VERTEX
  5
117
100
AcDbEntity
  8
DZIALKI_L_0
100
AcDbVertex
100
AcDb2dVertex
 10
7577579.50999999884
 20
5720392.64999999944
  0
SEQEND
  5
118
100
AcDbEntity
  8
DZIALKI_L_0
  0
POLYLINE
  5
119
100
AcDbEntity
  8
DZIALKI_L_0
  6
CONTINUOUS
370
18
100
AcDb2dPolyline
 66
1
 70
128
  0
VERTEX
  5
11A
100
AcDbEntity
  8
DZIALKI_L_0
100
AcDbVertex
100
AcDb2dVertex
 10
7577642.05999999866
 20
5720358.01999999955
  0
VERTEX
  5
11B
100
AcDbEntity
  8
DZIALKI_L_0
100
AcDbVertex
100
AcDb2dVertex
 10
7577620.50999999884
 20
5720360.51999999955
  0
SEQEND
  5
11C
100
AcDbEntity
  8
DZIALKI_L_0
  0
POLYLINE
  5
11D
100
AcDbEntity
  8
DZIALKI_L_0
  6
CONTINUOUS
370
18
100
AcDb2dPolyline
 66
1
 70
128
  0
VERTEX
  5
11E
100
AcDbEntity
  8
DZIALKI_L_0
100
AcDbVertex
100
AcDb2dVertex
 10
7577620.50999999884
 20
5720360.51999999955
  0
VERTEX
  5
11F
100
AcDbEntity
  8
DZIALKI_L_0
100
AcDbVertex
100
AcDb2dVertex
 10
7577618.33000000007
 20
5720326.79999999981
  0
SEQEND
  5
120
100
AcDbEntity
  8
DZIALKI_L_0
  0
POLYLINE
  5
121
100
AcDbEntity
  8
DZIALKI_L_0
  6
CONTINUOUS
370
18
100
AcDb2dPolyline
 66
1
 70
128
  0
VERTEX
  5
122
100
AcDbEntity
  8
DZIALKI_L_0
100
AcDbVertex
100
AcDb2dVertex
 10
7577618.33000000007
 20
5720326.79999999981
  0
VERTEX
  5
123
100
AcDbEntity
  8
DZIALKI_L_0
100
AcDbVertex
100
AcDb2dVertex
 10
7577616.42927894834
 20
5720297.39810722508
  0
SEQEND
  5
124
100
AcDbEntity
  8
DZIALKI_L_0
  0
POLYLINE
  5
125
100
AcDbEntity
  8
DZIALKI_L_0
  6
CONTINUOUS
370
18
100
AcDb2dPolyline
 66
1
 70
128
  0
VERTEX
  5
126
100
AcDbEntity
  8
DZIALKI_L_0
100
AcDbVertex
100
AcDb2dVertex
 10
7577622.16000000015
 20
5720386.6799999997
  0
VERTEX
  5
127
100
AcDbEntity
  8
DZIALKI_L_0
100
AcDbVertex
100
AcDb2dVertex
 10
7577620.50999999884
 20
5720360.51999999955
  0
SEQEND
  5
128
100
AcDbEntity
  8
DZIALKI_L_0
  0
POLYLINE
  5
129
100
AcDbEntity
  8
DZIALKI_L_0
  6
CONTINUOUS
370
18
100
AcDb2dPolyline
 66
1
 70
128
  0
VERTEX
  5
12A
100
AcDbEntity
  8
DZIALKI_L_0
100
AcDbVertex
100
AcDb2dVertex
 10
7577643.79000000004
 20
5720384.91999999993
  0
VERTEX
  5
12B
100
AcDbEntity
  8
DZIALKI_L_0
100
AcDbVertex
100
AcDb2dVertex
 10
7577622.16000000015
 20
5720386.6799999997
  0
SEQEND
  5
12C
100
AcDbEntity
  8
DZIALKI_L_0
  0
POLYLINE
  5
12D
100
AcDbEntity
  8
DZIALKI_L_0
  6
CONTINUOUS
370
18
100
AcDb2dPolyline
 66
1
 70
128
  0
VERTEX
  5
12E
100
AcDbEntity
  8
DZIALKI_L_0
100
AcDbVertex
100
AcDb2dVertex
 10
7577642.05999999866
 20
5720358.01999999955
  0
VERTEX
  5
12F
100
AcDbEntity
  8
DZIALKI_L_0
100
AcDbVertex
100
AcDb2dVertex
 10
7577643.79000000004
 20
5720384.91999999993
  0
SEQEND
  5
130
100
AcDbEntity
  8
DZIALKI_L_0
  0
POLYLINE
  5
131
100
AcDbEntity
  8
EGBE_L_2
  6
CONTINUOUS
370
18
100
AcDb2dPolyline
 66
1
 70
128
  0
VERTEX
  5
132
100
AcDbEntity
  8
EGBE_L_2
100
AcDbVertex
100
AcDb2dVertex
 10
7577628.01848191861
 20
5720363.79008185957
  0
VERTEX
  5
133
100
AcDbEntity
  8
EGBE_L_2
100
AcDbVertex
100
AcDb2dVertex
 10
7577627.91295886133
 20
5720360.91812653933
  0
SEQEND
  5
134
100
AcDbEntity
  8
EGBE_L_2
  0
POLYLINE
  5
135
100
AcDbEntity
  8
EGBE_L_2
  6
CONTINUOUS
370
18
100
AcDb2dPolyline
 66
1
 70
128
  0
VERTEX
  5
136
100
AcDbEntity
  8
EGBE_L_2
100
AcDbVertex
100
AcDb2dVertex
 10
7577627.91295886133
 20
5720360.91812653933
  0
VERTEX
  5
137
100
AcDbEntity
  8
EGBE_L_2
100
AcDbVertex
100
AcDb2dVertex
 10
7577624.81504926924
 20
5720361.03195173945
  0
SEQEND
  5
138
100
AcDbEntity
  8
EGBE_L_2
  0
POLYLINE
  5
139
100
AcDbEntity
  8
EGBE_L_2
  6
CONTINUOUS
370
18
100
AcDb2dPolyline
 66
1
 70
128
  0
VERTEX
  5
13A
100
AcDbEntity
  8
EGBE_L_2
100
AcDbVertex
100
AcDb2dVertex
 10
7577624.92184733879
 20
5720363.93860823009
  0
VERTEX
  5
13B
100
AcDbEntity
  8
EGBE_L_2
100
AcDbVertex
100
AcDb2dVertex
 10
7577628.01848191861
 20
5720363.79008185957
  0
SEQEND
  5
13C
100
AcDbEntity
  8
EGBE_L_2
  0
POLYLINE
  5
13D
100
AcDbEntity
  8
EGBE_L_2
  6
CONTINUOUS
370
18
100
AcDb2dPolyline
 66
1
 70
128
  0
VERTEX
  5
13E
100
AcDbEntity
  8
EGBE_L_2
100
AcDbVertex
100
AcDb2dVertex
 10
7577624.81504926924
 20
5720361.03195173945
  0
VERTEX
  5
13F
100
AcDbEntity
  8
EGBE_L_2
100
AcDbVertex
100
AcDb2dVertex
 10
7577624.92184733879
 20
5720363.93860823009
  0
SEQEND
  5
140
100
AcDbEntity
  8
EGBE_L_2
  0
POLYLINE
  5
141
100
AcDbEntity
  8
EGBE_L_2
  6
CONTINUOUS
370
18
100
AcDb2dPolyline
 66
1
 70
128
  0
VERTEX
  5
142
100
AcDbEntity
  8
EGBE_L_2
100
AcDbVertex
100
AcDb2dVertex
 10
7577627.50066467281
 20
5720363.31434354279
  0
VERTEX
  5
143
100
AcDbEntity
  8
EGBE_L_2
100
AcDbVertex
100
AcDb2dVertex
 10
7577627.43165492639
 20
5720361.43614828028
  0
SEQEND
  5
144
100
AcDbEntity
  8
EGBE_L_2
  0
POLYLINE
  5
145
100
AcDbEntity
  8
EGBE_L_2
  6
CONTINUOUS
370
18
100
AcDb2dPolyline
 66
1
 70
128
  0
VERTEX
  5
146
100
AcDbEntity
  8
EGBE_L_2
100
AcDbVertex
100
AcDb2dVertex
 10
7577627.43165492639
 20
5720361.43614828028
  0
VERTEX
  5
147
100
AcDbEntity
  8
EGBE_L_2
100
AcDbVertex
100
AcDb2dVertex
 10
7577625.33307101205
 20
5720361.51325567346
  0
SEQEND
  5
148
100
AcDbEntity
  8
EGBE_L_2
  0
POLYLINE
  5
149
100
AcDbEntity
  8
EGBE_L_2
  6
CONTINUOUS
370
18
100
AcDb2dPolyline
 66
1
 70
128
  0
VERTEX
  5
14A
100
AcDbEntity
  8
EGBE_L_2
100
AcDbVertex
100
AcDb2dVertex
 10
7577625.33307101205
 20
5720361.51325567346
  0
VERTEX
  5
14B
100
AcDbEntity
  8
EGBE_L_2
100
AcDbVertex
100
AcDb2dVertex
 10
7577625.40294447262
 20
5720363.41495818086
  0
SEQEND
  5
14C
100
AcDbEntity
  8
EGBE_L_2
  0
POLYLINE
  5
14D
100
AcDbEntity
  8
EGBE_L_2
  6
CONTINUOUS
370
18
100
AcDb2dPolyline
 66
1
 70
128
  0
VERTEX
  5
14E
100
AcDbEntity
  8
EGBE_L_2
100
AcDbVertex
100
AcDb2dVertex
 10
7577625.40294447262
 20
5720363.41495818086
  0
VERTEX
  5
14F
100
AcDbEntity
  8
EGBE_L_2
100
AcDbVertex
100
AcDb2dVertex
 10
7577627.50066467281
 20
5720363.31434354279
  0
SEQEND
  5
150
100
AcDbEntity
  8
EGBE_L_2
  0
POLYLINE
  5
151
100
AcDbEntity
  8
KONTURY_L_0
  6
ByLayer
370
18
100
AcDb2dPolyline
 66
1
 70
128
  0
VERTEX
  5
152
100
AcDbEntity
  8
KONTURY_L_0
100
AcDbVertex
100
AcDb2dVertex
 10
7577600.70999999996
 20
5720389.6799999997
  0
VERTEX
  5
153
100
AcDbEntity
  8
KONTURY_L_0
100
AcDbVertex
100
AcDb2dVertex
 10
7577579.50999999884
 20
5720392.64999999944
  0
SEQEND
  5
154
100
AcDbEntity
  8
KONTURY_L_0
  0
POLYLINE
  5
155
100
AcDbEntity
  8
KONTURY_L_0
  6
ByLayer
370
18
100
AcDb2dPolyline
 66
1
 70
128
  0
VERTEX
  5
156
100
AcDbEntity
  8
KONTURY_L_0
100
AcDbVertex
100
AcDb2dVertex
 10
7577579.75
 20
5720397.66999999993
  0
VERTEX
  5
157
100
AcDbEntity
  8
KONTURY_L_0
100
AcDbVertex
100
AcDb2dVertex
 10
7577601.04999999888
 20
5720394.68999999948
  0
SEQEND
  5
158
100
AcDbEntity
  8
KONTURY_L_0
  0
POLYLINE
  5
159
100
AcDbEntity
  8
KONTURY_L_0
  6
ByLayer
370
18
100
AcDb2dPolyline
 66
1
 70
128
  0
VERTEX
  5
15A
100
AcDbEntity
  8
KONTURY_L_0
100
AcDbVertex
100
AcDb2dVertex
 10
7577601.04999999888
 20
5720394.68999999948
  0
VERTEX
  5
15B
100
AcDbEntity
  8
KONTURY_L_0
100
AcDbVertex
100
AcDb2dVertex
 10
7577622.41999999993
 20
5720391.68999999948
  0
SEQEND
  5
15C
100
AcDbEntity
  8
KONTURY_L_0
  0
POLYLINE
  5
15D
100
AcDbEntity
  8
KONTURY_L_0
  6
ByLayer
370
18
100
AcDb2dPolyline
 66
1
 70
128
  0
VERTEX
  5
15E
100
AcDbEntity
  8
KONTURY_L_0
100
AcDbVertex
100
AcDb2dVertex
 10
7577644.1099999994
 20
5720389.9299999997
  0
VERTEX
  5
15F
100
AcDbEntity
  8
KONTURY_L_0
100
AcDbVertex
100
AcDb2dVertex
 10
7577665.5999999987
 20
5720388.16999999993
  0
SEQEND
  5
160
100
AcDbEntity
  8
KONTURY_L_0
  0
POLYLINE
  5
161
100
AcDbEntity
  8
KONTURY_L_0
  6
ByLayer
370
18
100
AcDb2dPolyline
 66
1
 70
128
  0
VERTEX
  5
162
100
AcDbEntity
  8
KONTURY_L_0
100
AcDbVertex
100
AcDb2dVertex
 10
7577622.41999999993
 20
5720391.68999999948
  0
VERTEX
  5
163
100
AcDbEntity
  8
KONTURY_L_0
100
AcDbVertex
100
AcDb2dVertex
 10
7577644.1099999994
 20
5720389.9299999997
  0
SEQEND
  5
164
100
AcDbEntity
  8
KONTURY_L_0
  0
POLYLINE
  5
165
100
AcDbEntity
  8
KONTURY_L_0
  6
ByLayer
370
18
100
AcDb2dPolyline
 66
1
 70
128
  0
VERTEX
  5
166
100
AcDbEntity
  8
KONTURY_L_0
100
AcDbVertex
100
AcDb2dVertex
 10
7577665.25999999884
 20
5720383.16000000015
  0
VERTEX
  5
167
100
AcDbEntity
  8
KONTURY_L_0
100
AcDbVertex
100
AcDb2dVertex
 10
7577643.79000000004
 20
5720384.91999999993
  0
SEQEND
  5
168
100
AcDbEntity
  8
KONTURY_L_0
  0
POLYLINE
  5
169
100
AcDbEntity
  8
KONTURY_L_0
  6
ByLayer
370
18
100
AcDb2dPolyline
 66
1
 70
128
  0
VERTEX
  5
16A
100
AcDbEntity
  8
KONTURY_L_0
100
AcDbVertex
100
AcDb2dVertex
 10
7577643.79000000004
 20
5720384.91999999993
  0
VERTEX
  5
16B
100
AcDbEntity
  8
KONTURY_L_0
100
AcDbVertex
100
AcDb2dVertex
 10
7577622.16000000015
 20
5720386.6799999997
  0
SEQEND
  5
16C
100
AcDbEntity
  8
KONTURY_L_0
  0
POLYLINE
  5
16D
100
AcDbEntity
  8
KONTURY_L_0
  6
ByLayer
370
18
100
AcDb2dPolyline
 66
1
 70
128
  0
VERTEX
  5
16E
100
AcDbEntity
  8
KONTURY_L_0
100
AcDbVertex
100
AcDb2dVertex
 10
7577622.16000000015
 20
5720386.6799999997
  0
VERTEX
  5
16F
100
AcDbEntity
  8
KONTURY_L_0
100
AcDbVertex
100
AcDb2dVertex
 10
7577600.70999999996
 20
5720389.6799999997
  0
SEQEND
  5
170
100
AcDbEntity
  8
KONTURY_L_0
  0
POLYLINE
  5
171
100
AcDbEntity
  8
KTCR_L_1
  6
ByLayer
370
18
100
AcDb2dPolyline
 66
1
 70
128
  0
VERTEX
  5
172
100
AcDbEntity
  8
KTCR_L_1
100
AcDbVertex
100
AcDb2dVertex
 10
7577632.58999999892
 20
5720373.63999999966
  0
VERTEX
  5
173
100
AcDbEntity
  8
KTCR_L_1
100
AcDbVertex
100
AcDb2dVertex
 10
7577634.00084937923
 20
5720373.66846236028
  0
SEQEND
  5
174
100
AcDbEntity
  8
KTCR_L_1
  0
POLYLINE
  5
175
100
AcDbEntity
  8
KTCR_L_1
  6
ByLayer
370
18
100
AcDb2dPolyline
 66
1
 70
128
  0
VERTEX
  5
176
100
AcDbEntity
  8
KTCR_L_1
100
AcDbVertex
100
AcDb2dVertex
 10
7577588.83000000008
 20
5720391.3049999997
  0
VERTEX
  5
177
100
AcDbEntity
  8
KTCR_L_1
100
AcDbVertex
100
AcDb2dVertex
 10
7577595.79799999949
 20
5720390.39599999972
  0
SEQEND
  5
178
100
AcDbEntity
  8
KTCR_L_1
  0
POLYLINE
  5
179
100
AcDbEntity
  8
KTCR_L_1
  6
ByLayer
370
18
100
AcDb2dPolyline
 66
1
 70
128
  0
VERTEX
  5
17A
100
AcDbEntity
  8
KTCR_L_1
100
AcDbVertex
100
AcDb2dVertex
 10
7577627.91295886133
 20
5720360.91812653933
  0
VERTEX
  5
17B
100
AcDbEntity
  8
KTCR_L_1
100
AcDbVertex
100
AcDb2dVertex
 10
7577628.01848191861
 20
5720363.79008185957
  0
SEQEND
  5
17C
100
AcDbEntity
  8
KTCR_L_1
  0
POLYLINE
  5
17D
100
AcDbEntity
  8
KTCR_L_1
  6
ByLayer
370
18
100
AcDb2dPolyline
 66
1
 70
128
  0
VERTEX
  5
17E
100
AcDbEntity
  8
KTCR_L_1
100
AcDbVertex
100
AcDb2dVertex
 10
7577632.18999999948
 20
5720363.58999999985
  0
VERTEX
  5
17F
100
AcDbEntity
  8
KTCR_L_1
100
AcDbVertex
100
AcDb2dVertex
 10
7577632.58999999892
 20
5720373.63999999966
  0
SEQEND
  5
180
100
AcDbEntity
  8
KTCR_L_1
  0
POLYLINE
  5
181
100
AcDbEntity
  8
KTCR_L_1
  6
ByLayer
370
18
100
AcDb2dPolyline
 66
1
 70
128
  0
VERTEX
  5
182
100
AcDbEntity
  8
KTCR_L_1
100
AcDbVertex
100
AcDb2dVertex
 10
7577628.01848191861
 20
5720363.79008185957
  0
VERTEX
  5
183
100
AcDbEntity
  8
KTCR_L_1
100
AcDbVertex
100
AcDb2dVertex
 10
7577632.18999999948
 20
5720363.58999999985
  0
SEQEND
  5
184
100
AcDbEntity
  8
KTCR_L_1
  0
POLYLINE
  5
185
100
AcDbEntity
  8
KTCR_L_1
  6
ByLayer
370
18
100
AcDb2dPolyline
 66
1
 70
128
  0
VERTEX
  5
186
100
AcDbEntity
  8
KTCR_L_1
100
AcDbVertex
100
AcDb2dVertex
 10
7577617.64300000016
 20
5720387.66499999911
  0
VERTEX
  5
187
100
AcDbEntity
  8
KTCR_L_1
100
AcDbVertex
100
AcDb2dVertex
 10
7577625.64699999802
 20
5720386.81100000069
  0
SEQEND
  5
188
100
AcDbEntity
  8
KTCR_L_1
  0
POLYLINE
  5
189
100
AcDbEntity
  8
KTCR_L_1
  6
ByLayer
370
18
100
AcDb2dPolyline
 66
1
 70
128
  0
VERTEX
  5
18A
100
AcDbEntity
  8
KTCR_L_1
100
AcDbVertex
100
AcDb2dVertex
 10
7577617.51800000016
 20
5720386.13399999961
  0
VERTEX
  5
18B
100
AcDbEntity
  8
KTCR_L_1
100
AcDbVertex
100
AcDb2dVertex
 10
7577617.64300000016
 20
5720387.66499999911
  0
SEQEND
  5
18C
100
AcDbEntity
  8
KTCR_L_1
  0
POLYLINE
  5
18D
100
AcDbEntity
  8
KTCR_L_1
  6
ByLayer
370
18
100
AcDb2dPolyline
 66
1
 70
128
  0
VERTEX
  5
18E
100
AcDbEntity
  8
KTCR_L_1
100
AcDbVertex
100
AcDb2dVertex
 10
7577625.64699999802
 20
5720386.81100000069
  0
VERTEX
  5
18F
100
AcDbEntity
  8
KTCR_L_1
100
AcDbVertex
100
AcDb2dVertex
 10
7577633.6099999994
 20
5720386.10199999996
  0
SEQEND
  5
190
100
AcDbEntity
  8
KTCR_L_1
  0
POLYLINE
  5
191
100
AcDbEntity
  8
KTCR_L_1
  6
ByLayer
370
18
100
AcDb2dPolyline
 66
1
 70
128
  0
VERTEX
  5
192
100
AcDbEntity
  8
KTCR_L_1
100
AcDbVertex
100
AcDb2dVertex
 10
7577613.56599999871
 20
5720386.5990000004
  0
VERTEX
  5
193
100
AcDbEntity
  8
KTCR_L_1
100
AcDbVertex
100
AcDb2dVertex
 10
7577606.73199999891
 20
5720387.4160000002
  0
SEQEND
  5
194
100
AcDbEntity
  8
KTCR_L_1
  0
POLYLINE
  5
195
100
AcDbEntity
  8
KTCR_L_1
  6
ByLayer
370
18
100
AcDb2dPolyline
 66
1
 70
128
  0
VERTEX
  5
196
100
AcDbEntity
  8
KTCR_L_1
100
AcDbVertex
100
AcDb2dVertex
 10
7577613.75299999863
 20
5720388.13900000043
  0
VERTEX
  5
197
100
AcDbEntity
  8
KTCR_L_1
100
AcDbVertex
100
AcDb2dVertex
 10
7577613.56599999871
 20
5720386.5990000004
  0
SEQEND
  5
198
100
AcDbEntity
  8
KTCR_L_1
  0
POLYLINE
  5
199
100
AcDbEntity
  8
KTCR_L_1
  6
ByLayer
370
18
100
AcDb2dPolyline
 66
1
 70
128
  0
VERTEX
  5
19A
100
AcDbEntity
  8
KTCR_L_1
100
AcDbVertex
100
AcDb2dVertex
 10
7577633.24305651896
 20
5720360.69056769926
  0
VERTEX
  5
19B
100
AcDbEntity
  8
KTCR_L_1
100
AcDbVertex
100
AcDb2dVertex
 10
7577627.91295886133
 20
5720360.91812653933
  0
SEQEND
  5
19C
100
AcDbEntity
  8
KTCR_L_1
  0
POLYLINE
  5
19D
100
AcDbEntity
  8
KTCR_L_1
  6
ByLayer
370
18
100
AcDb2dPolyline
 66
1
 70
128
  0
VERTEX
  5
19E
100
AcDbEntity
  8
KTCR_L_1
100
AcDbVertex
100
AcDb2dVertex
 10
7577634.00084937923
 20
5720373.66846236028
  0
VERTEX
  5
19F
100
AcDbEntity
  8
KTCR_L_1
100
AcDbVertex
100
AcDb2dVertex
 10
7577633.24305651896
 20
5720360.69056769926
  0
SEQEND
  5
1A0
100
AcDbEntity
  8
KTCR_L_1
  0
POLYLINE
  5
1A1
100
AcDbEntity
  8
KTCR_L_1
  6
ByLayer
370
18
100
AcDb2dPolyline
 66
1
 70
128
  0
VERTEX
  5
1A2
100
AcDbEntity
  8
KTCR_L_1
100
AcDbVertex
100
AcDb2dVertex
 10
7577633.6099999994
 20
5720386.10199999996
  0
VERTEX
  5
1A3
100
AcDbEntity
  8
KTCR_L_1
100
AcDbVertex
100
AcDb2dVertex
 10
7577633.50299999863
 20
5720384.54199999943
  0
SEQEND
  5
1A4
100
AcDbEntity
  8
KTCR_L_1
  0
POLYLINE
  5
1A5
100
AcDbEntity
  8
KTCR_L_1
  6
ByLayer
370
18
100
AcDb2dPolyline
 66
1
 70
128
  0
VERTEX
  5
1A6
100
AcDbEntity
  8
KTCR_L_1
100
AcDbVertex
100
AcDb2dVertex
 10
7577625.60899999924
 20
5720385.2639999995
  0
VERTEX
  5
1A7
100
AcDbEntity
  8
KTCR_L_1
100
AcDbVertex
100
AcDb2dVertex
 10
7577617.51800000016
 20
5720386.13399999961
  0
SEQEND
  5
1A8
100
AcDbEntity
  8
KTCR_L_1
  0
POLYLINE
  5
1A9
100
AcDbEntity
  8
KTCR_L_1
  6
ByLayer
370
18
100
AcDb2dPolyline
 66
1
 70
128
  0
VERTEX
  5
1AA
100
AcDbEntity
  8
KTCR_L_1
100
AcDbVertex
100
AcDb2dVertex
 10
7577633.50299999863
 20
5720384.54199999943
  0
VERTEX
  5
1AB
100
AcDbEntity
  8
KTCR_L_1
100
AcDbVertex
100
AcDb2dVertex
 10
7577625.60899999924
 20
5720385.2639999995
  0
SEQEND
  5
1AC
100
AcDbEntity
  8
KTCR_L_1
  0
POLYLINE
  5
1AD
100
AcDbEntity
  8
KTCR_L_1
  6
ByLayer
370
18
100
AcDb2dPolyline
 66
1
 70
128
  0
VERTEX
  5
1AE
100
AcDbEntity
  8
KTCR_L_1
100
AcDbVertex
100
AcDb2dVertex
 10
7577588.72300000023
 20
5720389.76899999939
  0
VERTEX
  5
1AF
100
AcDbEntity
  8
KTCR_L_1
100
AcDbVertex
100
AcDb2dVertex
 10
7577576.24299999792
 20
5720391.56499999948
  0
SEQEND
  5
1B0
100
AcDbEntity
  8
KTCR_L_1
  0
POLYLINE
  5
1B1
100
AcDbEntity
  8
KTCR_L_1
  6
ByLayer
370
18
100
AcDb2dPolyline
 66
1
 70
128
  0
VERTEX
  5
1B2
100
AcDbEntity
  8
KTCR_L_1
100
AcDbVertex
100
AcDb2dVertex
 10
7577595.5689999992
 20
5720388.84300000034
  0
VERTEX
  5
1B3
100
AcDbEntity
  8
KTCR_L_1
100
AcDbVertex
100
AcDb2dVertex
 10
7577588.72300000023
 20
5720389.76899999939
  0
SEQEND
  5
1B4
100
AcDbEntity
  8
KTCR_L_1
  0
POLYLINE
  5
1B5
100
AcDbEntity
  8
KTCR_L_1
  6
ByLayer
370
18
100
AcDb2dPolyline
 66
1
 70
128
  0
VERTEX
  5
1B6
100
AcDbEntity
  8
KTCR_L_1
100
AcDbVertex
100
AcDb2dVertex
 10
7577576.24299999792
 20
5720391.56499999948
  0
VERTEX
  5
1B7
100
AcDbEntity
  8
KTCR_L_1
100
AcDbVertex
100
AcDb2dVertex
 10
7577576.44099999871
 20
5720393.09200000018
  0
SEQEND
  5
1B8
100
AcDbEntity
  8
KTCR_L_1
  0
POLYLINE
  5
1B9
100
AcDbEntity
  8
KTCR_L_1
  6
ByLayer
370
18
100
AcDb2dPolyline
 66
1
 70
128
  0
VERTEX
  5
1BA
100
AcDbEntity
  8
KTCR_L_1
100
AcDbVertex
100
AcDb2dVertex
 10
7577581.9319999991
 20
5720392.29600000009
  0
VERTEX
  5
1BB
100
AcDbEntity
  8
KTCR_L_1
100
AcDbVertex
100
AcDb2dVertex
 10
7577588.83000000008
 20
5720391.3049999997
  0
SEQEND
  5
1BC
100
AcDbEntity
  8
KTCR_L_1
  0
POLYLINE
  5
1BD
100
AcDbEntity
  8
KTCR_L_1
  6
ByLayer
370
18
100
AcDb2dPolyline
 66
1
 70
128
  0
VERTEX
  5
1BE
100
AcDbEntity
  8
KTCR_L_1
100
AcDbVertex
100
AcDb2dVertex
 10
7577576.44099999871
 20
5720393.09200000018
  0
VERTEX
  5
1BF
100
AcDbEntity
  8
KTCR_L_1
100
AcDbVertex
100
AcDb2dVertex
 10
7577581.9319999991
 20
5720392.29600000009
  0
SEQEND
  5
1C0
100
AcDbEntity
  8
KTCR_L_1
  0
POLYLINE
  5
1C1
100
AcDbEntity
  8
KTCR_L_1
  6
ByLayer
370
18
100
AcDb2dPolyline
 66
1
 70
128
  0
VERTEX
  5
1C2
100
AcDbEntity
  8
KTCR_L_1
100
AcDbVertex
100
AcDb2dVertex
 10
7577599.63200000022
 20
5720388.32799999975
  0
VERTEX
  5
1C3
100
AcDbEntity
  8
KTCR_L_1
100
AcDbVertex
100
AcDb2dVertex
 10
7577599.82699999865
 20
5720389.85299999919
  0
SEQEND
  5
1C4
100
AcDbEntity
  8
KTCR_L_1
  0
POLYLINE
  5
1C5
100
AcDbEntity
  8
KTCR_L_1
  6
ByLayer
370
18
100
AcDb2dPolyline
 66
1
 70
128
  0
VERTEX
  5
1C6
100
AcDbEntity
  8
KTCR_L_1
100
AcDbVertex
100
AcDb2dVertex
 10
7577606.73199999891
 20
5720387.4160000002
  0
VERTEX
  5
1C7
100
AcDbEntity
  8
KTCR_L_1
100
AcDbVertex
100
AcDb2dVertex
 10
7577599.63200000022
 20
5720388.32799999975
  0
SEQEND
  5
1C8
100
AcDbEntity
  8
KTCR_L_1
  0
POLYLINE
  5
1C9
100
AcDbEntity
  8
KTCR_L_1
  6
ByLayer
370
18
100
AcDb2dPolyline
 66
1
 70
128
  0
VERTEX
  5
1CA
100
AcDbEntity
  8
KTCR_L_1
100
AcDbVertex
100
AcDb2dVertex
 10
7577599.82699999865
 20
5720389.85299999919
  0
VERTEX
  5
1CB
100
AcDbEntity
  8
KTCR_L_1
100
AcDbVertex
100
AcDb2dVertex
 10
7577606.93299999926
 20
5720388.95299999975
  0
SEQEND
  5
1CC
100
AcDbEntity
  8
KTCR_L_1
  0
POLYLINE
  5
1CD
100
AcDbEntity
  8
KTCR_L_1
  6
ByLayer
370
18
100
AcDb2dPolyline
 66
1
 70
128
  0
VERTEX
  5
1CE
100
AcDbEntity
  8
KTCR_L_1
100
AcDbVertex
100
AcDb2dVertex
 10
7577595.79799999949
 20
5720390.39599999972
  0
VERTEX
  5
1CF
100
AcDbEntity
  8
KTCR_L_1
100
AcDbVertex
100
AcDb2dVertex
 10
7577595.5689999992
 20
5720388.84300000034
  0
SEQEND
  5
1D0
100
AcDbEntity
  8
KTCR_L_1
  0
POLYLINE
  5
1D1
100
AcDbEntity
  8
KTCR_L_1
  6
ByLayer
370
18
100
AcDb2dPolyline
 66
1
 70
128
  0
VERTEX
  5
1D2
100
AcDbEntity
  8
KTCR_L_1
100
AcDbVertex
100
AcDb2dVertex
 10
7577606.93299999926
 20
5720388.95299999975
  0
VERTEX
  5
1D3
100
AcDbEntity
  8
KTCR_L_1
100
AcDbVertex
100
AcDb2dVertex
 10
7577613.75299999863
 20
5720388.13900000043
  0
SEQEND
  5
1D4
100
AcDbEntity
  8
KTCR_L_1
  0
POLYLINE
  5
1D5
100
AcDbEntity
  8
KTJZ_L_0
  6
ByLayer
370
18
100
AcDb2dPolyline
 66
1
 70
128
  0
VERTEX
  5
1D6
100
AcDbEntity
  8
KTJZ_L_0
100
AcDbVertex
100
AcDb2dVertex
 10
7577613.56599999871
 20
5720386.5990000004
  0
VERTEX
  5
1D7
100
AcDbEntity
  8
KTJZ_L_0
100
AcDbVertex
100
AcDb2dVertex
 10
7577613.75299999863
 20
5720388.13900000043
  0
SEQEND
  5
1D8
100
AcDbEntity
  8
KTJZ_L_0
  0
POLYLINE
  5
1D9
100
AcDbEntity
  8
KTJZ_L_0
  6
ByLayer
370
18
100
AcDb2dPolyline
 66
1
 70
128
  0
VERTEX
  5
1DA
100
AcDbEntity
  8
KTJZ_L_0
100
AcDbVertex
100
AcDb2dVertex
 10
7577617.51800000016
 20
5720386.13399999961
  0
VERTEX
  5
1DB
100
AcDbEntity
  8
KTJZ_L_0
100
AcDbVertex
100
AcDb2dVertex
 10
7577613.56599999871
 20
5720386.5990000004
  0
SEQEND
  5
1DC
100
AcDbEntity
  8
KTJZ_L_0
  0
POLYLINE
  5
1DD
100
AcDbEntity
  8
KTJZ_L_0
  6
ByLayer
370
18
100
AcDb2dPolyline
 66
1
 70
128
  0
VERTEX
  5
1DE
100
AcDbEntity
  8
KTJZ_L_0
100
AcDbVertex
100
AcDb2dVertex
 10
7577599.82699999865
 20
5720389.85299999919
  0
VERTEX
  5
1DF
100
AcDbEntity
  8
KTJZ_L_0
100
AcDbVertex
100
AcDb2dVertex
 10
7577599.63200000022
 20
5720388.32799999975
  0
SEQEND
  5
1E0
100
AcDbEntity
  8
KTJZ_L_0
  0
POLYLINE
  5
1E1
100
AcDbEntity
  8
KTJZ_L_0
  6
ByLayer
370
18
100
AcDb2dPolyline
 66
1
 70
128
  0
VERTEX
  5
1E2
100
AcDbEntity
  8
KTJZ_L_0
100
AcDbVertex
100
AcDb2dVertex
 10
7577595.5689999992
 20
5720388.84300000034
  0
VERTEX
  5
1E3
100
AcDbEntity
  8
KTJZ_L_0
100
AcDbVertex
100
AcDb2dVertex
 10
7577595.79799999949
 20
5720390.39599999972
  0
SEQEND
  5
1E4
100
AcDbEntity
  8
KTJZ_L_0
  0
POLYLINE
  5
1E5
100
AcDbEntity
  8
KTJZ_L_0
  6
ByLayer
370
18
100
AcDb2dPolyline
 66
1
 70
128
  0
VERTEX
  5
1E6
100
AcDbEntity
  8
KTJZ_L_0
100
AcDbVertex
100
AcDb2dVertex
 10
7577599.63200000022
 20
5720388.32799999975
  0
VERTEX
  5
1E7
100
AcDbEntity
  8
KTJZ_L_0
100
AcDbVertex
100
AcDb2dVertex
 10
7577595.5689999992
 20
5720388.84300000034
  0
SEQEND
  5
1E8
100
AcDbEntity
  8
KTJZ_L_0
  0
POLYLINE
  5
1E9
100
AcDbEntity
  8
KTJZ_L_0
  6
ByLayer
370
18
100
AcDb2dPolyline
 66
1
 70
128
  0
VERTEX
  5
1EA
100
AcDbEntity
  8
KTJZ_L_0
100
AcDbVertex
100
AcDb2dVertex
 10
7577558.66199999861
 20
5720395.6110000005
  0
VERTEX
  5
1EB
100
AcDbEntity
  8
KTJZ_L_0
100
AcDbVertex
100
AcDb2dVertex
 10
7577534.05200000014
 20
5720399.10499999952
  0
SEQEND
  5
1EC
100
AcDbEntity
  8
KTJZ_L_0
  0
POLYLINE
  5
1ED
100
AcDbEntity
  8
KTJZ_L_0
  6
ByLayer
370
18
100
AcDb2dPolyline
 66
1
 70
128
  0
VERTEX
  5
1EE
100
AcDbEntity
  8
KTJZ_L_0
100
AcDbVertex
100
AcDb2dVertex
 10
7577563.60400000028
 20
5720394.90599999949
  0
VERTEX
  5
1EF
100
AcDbEntity
  8
KTJZ_L_0
100
AcDbVertex
100
AcDb2dVertex
 10
7577558.66199999861
 20
5720395.6110000005
  0
SEQEND
  5
1F0
100
AcDbEntity
  8
KTJZ_L_0
  0
POLYLINE
  5
1F1
100
AcDbEntity
  8
KTJZ_L_0
  6
ByLayer
370
18
100
AcDb2dPolyline
 66
1
 70
128
  0
VERTEX
  5
1F2
100
AcDbEntity
  8
KTJZ_L_0
100
AcDbVertex
100
AcDb2dVertex
 10
7577534.05200000014
 20
5720399.10499999952
  0
VERTEX
  5
1F3
100
AcDbEntity
  8
KTJZ_L_0
100
AcDbVertex
100
AcDb2dVertex
 10
7577530.13999999873
 20
5720399.67200000025
  0
SEQEND
  5
1F4
100
AcDbEntity
  8
KTJZ_L_0
  0
POLYLINE
  5
1F5
100
AcDbEntity
  8
KTJZ_L_0
  6
ByLayer
370
18
100
AcDb2dPolyline
 66
1
 70
128
  0
VERTEX
  5
1F6
100
AcDbEntity
  8
KTJZ_L_0
100
AcDbVertex
100
AcDb2dVertex
 10
7577617.64300000016
 20
5720387.66499999911
  0
VERTEX
  5
1F7
100
AcDbEntity
  8
KTJZ_L_0
100
AcDbVertex
100
AcDb2dVertex
 10
7577617.51800000016
 20
5720386.13399999961
  0
SEQEND
  5
1F8
100
AcDbEntity
  8
KTJZ_L_0
  0
POLYLINE
  5
1F9
100
AcDbEntity
  8
KTJZ_L_0
  6
ByLayer
370
18
100
AcDb2dPolyline
 66
1
 70
128
  0
VERTEX
  5
1FA
100
AcDbEntity
  8
KTJZ_L_0
100
AcDbVertex
100
AcDb2dVertex
 10
7577530.13999999873
 20
5720399.67200000025
  0
VERTEX
  5
1FB
100
AcDbEntity
  8
KTJZ_L_0
100
AcDbVertex
100
AcDb2dVertex
 10
7577506.96499999799
 20
5720402.95999999996
  0
SEQEND
  5
1FC
100
AcDbEntity
  8
KTJZ_L_0
  0
POLYLINE
  5
1FD
100
AcDbEntity
  8
KTJZ_L_0
  6
ByLayer
370
18
100
AcDb2dPolyline
 66
1
 70
128
  0
VERTEX
  5
1FE
100
AcDbEntity
  8
KTJZ_L_0
100
AcDbVertex
100
AcDb2dVertex
 10
7577602.03799999785
 20
5720394.89199999999
  0
VERTEX
  5
1FF
100
AcDbEntity
  8
KTJZ_L_0
100
AcDbVertex
100
AcDb2dVertex
 10
7577595.33000000008
 20
5720395.82799999975
  0
SEQEND
  5
200
100
AcDbEntity
  8
KTJZ_L_0
  0
POLYLINE
  5
201
100
AcDbEntity
  8
KTJZ_L_0
  6
ByLayer
370
18
100
AcDb2dPolyline
 66
1
 70
128
  0
VERTEX
  5
202
100
AcDbEntity
  8
KTJZ_L_0
100
AcDbVertex
100
AcDb2dVertex
 10
7577618.322999998
 20
5720392.93999999948
  0
VERTEX
  5
203
100
AcDbEntity
  8
KTJZ_L_0
100
AcDbVertex
100
AcDb2dVertex
 10
7577627.65500000026
 20
5720391.78399999998
  0
SEQEND
  5
204
100
AcDbEntity
  8
KTJZ_L_0
  0
POLYLINE
  5
205
100
AcDbEntity
  8
KTJZ_L_0
  6
ByLayer
370
18
100
AcDb2dPolyline
 66
1
 70
128
  0
VERTEX
  5
206
100
AcDbEntity
  8
KTJZ_L_0
100
AcDbVertex
100
AcDb2dVertex
 10
7577582.65899999998
 20
5720397.5270000007
  0
VERTEX
  5
207
100
AcDbEntity
  8
KTJZ_L_0
100
AcDbVertex
100
AcDb2dVertex
 10
7577595.33000000008
 20
5720395.82799999975
  0
SEQEND
  5
208
100
AcDbEntity
  8
KTJZ_L_0
  0
POLYLINE
  5
209
100
AcDbEntity
  8
KTJZ_L_0
  6
ByLayer
370
18
100
AcDb2dPolyline
 66
1
 70
128
  0
VERTEX
  5
20A
100
AcDbEntity
  8
KTJZ_L_0
100
AcDbVertex
100
AcDb2dVertex
 10
7577507.61500000022
 20
5720408.25500000082
  0
VERTEX
  5
20B
100
AcDbEntity
  8
KTJZ_L_0
100
AcDbVertex
100
AcDb2dVertex
 10
7577526.50099999923
 20
5720405.49100000039
  0
SEQEND
  5
20C
100
AcDbEntity
  8
KTJZ_L_0
  0
POLYLINE
  5
20D
100
AcDbEntity
  8
KTJZ_L_0
  6
ByLayer
370
18
100
AcDb2dPolyline
 66
1
 70
128
  0
VERTEX
  5
20E
100
AcDbEntity
  8
KTJZ_L_0
100
AcDbVertex
100
AcDb2dVertex
 10
7577595.33000000008
 20
5720395.82799999975
  0
VERTEX
  5
20F
100
AcDbEntity
  8
KTJZ_L_0
100
AcDbVertex
100
AcDb2dVertex
 10
7577595.92040000018
 20
5720397.41830000002
  0
SEQEND
  5
210
100
AcDbEntity
  8
KTJZ_L_0
  0
POLYLINE
  5
211
100
AcDbEntity
  8
KTJZ_L_0
  6
ByLayer
370
18
100
AcDb2dPolyline
 66
1
 70
128
  0
VERTEX
  5
212
100
AcDbEntity
  8
KTJZ_L_0
100
AcDbVertex
100
AcDb2dVertex
 10
7577601.87409999874
 20
5720395.45870000031
  0
VERTEX
  5
213
100
AcDbEntity
  8
KTJZ_L_0
100
AcDbVertex
100
AcDb2dVertex
 10
7577602.03799999785
 20
5720394.89199999999
  0
SEQEND
  5
214
100
AcDbEntity
  8
KTJZ_L_0
  0
POLYLINE
  5
215
100
AcDbEntity
  8
KTJZ_L_0
  6
ByLayer
370
18
100
AcDb2dPolyline
 66
1
 70
128
  0
VERTEX
  5
216
100
AcDbEntity
  8
KTJZ_L_0
100
AcDbVertex
100
AcDb2dVertex
 10
7577618.322999998
 20
5720392.93999999948
  0
VERTEX
  5
217
100
AcDbEntity
  8
KTJZ_L_0
100
AcDbVertex
100
AcDb2dVertex
 10
7577611.38999999873
 20
5720393.72599999979
  0
SEQEND
  5
218
100
AcDbEntity
  8
KTJZ_L_0
  0
POLYLINE
  5
219
100
AcDbEntity
  8
KTJZ_L_0
  6
ByLayer
370
18
100
AcDb2dPolyline
 66
1
 70
128
  0
VERTEX
  5
21A
100
AcDbEntity
  8
KTJZ_L_0
100
AcDbVertex
100
AcDb2dVertex
 10
7577611.38999999873
 20
5720393.72599999979
  0
VERTEX
  5
21B
100
AcDbEntity
  8
KTJZ_L_0
100
AcDbVertex
100
AcDb2dVertex
 10
7577611.62170000002
 20
5720394.41489999928
  0
SEQEND
  5
21C
100
AcDbEntity
  8
KTJZ_L_0
  0
POLYLINE
  5
21D
100
AcDbEntity
  8
KTJZ_L_0
  6
ByLayer
370
18
100
AcDb2dPolyline
 66
1
 70
128
  0
VERTEX
  5
21E
100
AcDbEntity
  8
KTJZ_L_0
100
AcDbVertex
100
AcDb2dVertex
 10
7577602.03799999785
 20
5720394.89199999999
  0
VERTEX
  5
21F
100
AcDbEntity
  8
KTJZ_L_0
100
AcDbVertex
100
AcDb2dVertex
 10
7577611.38999999873
 20
5720393.72599999979
  0
SEQEND
  5
220
100
AcDbEntity
  8
KTJZ_L_0
  0
POLYLINE
  5
221
100
AcDbEntity
  8
KTJZ_L_0
  6
ByLayer
370
18
100
AcDb2dPolyline
 66
1
 70
128
  0
VERTEX
  5
222
100
AcDbEntity
  8
KTJZ_L_0
100
AcDbVertex
100
AcDb2dVertex
 10
7577618.01329999883
 20
5720394.23830000032
  0
VERTEX
  5
223
100
AcDbEntity
  8
KTJZ_L_0
100
AcDbVertex
100
AcDb2dVertex
 10
7577618.322999998
 20
5720392.93999999948
  0
SEQEND
  5
224
100
AcDbEntity
  8
KTJZ_L_0
  0
POLYLINE
  5
225
100
AcDbEntity
  8
KTJZ_L_0
  6
ByLayer
370
18
100
AcDb2dPolyline
 66
1
 70
128
  0
VERTEX
  5
226
100
AcDbEntity
  8
KTJZ_L_0
100
AcDbVertex
100
AcDb2dVertex
 10
7577566.65099999867
 20
5720394.46800000034
  0
VERTEX
  5
227
100
AcDbEntity
  8
KTJZ_L_0
100
AcDbVertex
100
AcDb2dVertex
 10
7577563.60400000028
 20
5720394.90599999949
  0
SEQEND
  5
228
100
AcDbEntity
  8
KTJZ_L_0
  0
POLYLINE
  5
229
100
AcDbEntity
  8
KTJZ_L_0
  6
ByLayer
370
18
100
AcDb2dPolyline
 66
1
 70
128
  0
VERTEX
  5
22A
100
AcDbEntity
  8
KTJZ_L_0
100
AcDbVertex
100
AcDb2dVertex
 10
7577630.60699999798
 20
5720391.61000000034
  0
VERTEX
  5
22B
100
AcDbEntity
  8
KTJZ_L_0
100
AcDbVertex
100
AcDb2dVertex
 10
7577632.4609999992
 20
5720391.46899999958
  0
SEQEND
  5
22C
100
AcDbEntity
  8
KTJZ_L_0
  0
POLYLINE
  5
22D
100
AcDbEntity
  8
KTJZ_L_0
  6
ByLayer
370
18
100
AcDb2dPolyline
 66
1
 70
128
  0
VERTEX
  5
22E
100
AcDbEntity
  8
KTJZ_L_0
100
AcDbVertex
100
AcDb2dVertex
 10
7577627.65500000026
 20
5720391.78399999998
  0
VERTEX
  5
22F
100
AcDbEntity
  8
KTJZ_L_0
100
AcDbVertex
100
AcDb2dVertex
 10
7577630.60699999798
 20
5720391.61000000034
  0
SEQEND
  5
230
100
AcDbEntity
  8
KTJZ_L_0
  0
POLYLINE
  5
231
100
AcDbEntity
  8
KTJZ_L_0
  6
ByLayer
370
18
100
AcDb2dPolyline
 66
1
 70
128
  0
VERTEX
  5
232
100
AcDbEntity
  8
KTJZ_L_0
100
AcDbVertex
100
AcDb2dVertex
 10
7577566.69400000013
 20
5720399.81799999997
  0
VERTEX
  5
233
100
AcDbEntity
  8
KTJZ_L_0
100
AcDbVertex
100
AcDb2dVertex
 10
7577582.65899999998
 20
5720397.5270000007
  0
SEQEND
  5
234
100
AcDbEntity
  8
KTJZ_L_0
  0
POLYLINE
  5
235
100
AcDbEntity
  8
KTJZ_L_0
  6
ByLayer
370
18
100
AcDb2dPolyline
 66
1
 70
128
  0
VERTEX
  5
236
100
AcDbEntity
  8
KTJZ_L_0
100
AcDbVertex
100
AcDb2dVertex
 10
7577632.4609999992
 20
5720391.46899999958
  0
VERTEX
  5
237
100
AcDbEntity
  8
KTJZ_L_0
100
AcDbVertex
100
AcDb2dVertex
 10
7577637.06099999789
 20
5720391.09699999914
  0
SEQEND
  5
238
100
AcDbEntity
  8
KTJZ_L_0
  0
POLYLINE
  5
239
100
AcDbEntity
  8
KTJZ_L_0
  6
ByLayer
370
18
100
AcDb2dPolyline
 66
1
 70
128
  0
VERTEX
  5
23A
100
AcDbEntity
  8
KTJZ_L_0
100
AcDbVertex
100
AcDb2dVertex
 10
7577650.39999999944
 20
5720389.99699999951
  0
VERTEX
  5
23B
100
AcDbEntity
  8
KTJZ_L_0
100
AcDbVertex
100
AcDb2dVertex
 10
7577655.74600000028
 20
5720389.56400000025
  0
SEQEND
  5
23C
100
AcDbEntity
  8
KTJZ_L_0
  0
POLYLINE
  5
23D
100
AcDbEntity
  8
KTJZ_L_0
  6
ByLayer
370
18
100
AcDb2dPolyline
 66
1
 70
128
  0
VERTEX
  5
23E
100
AcDbEntity
  8
KTJZ_L_0
100
AcDbVertex
100
AcDb2dVertex
 10
7577644.56799999997
 20
5720390.49100000039
  0
VERTEX
  5
23F
100
AcDbEntity
  8
KTJZ_L_0
100
AcDbVertex
100
AcDb2dVertex
 10
7577650.39999999944
 20
5720389.99699999951
  0
SEQEND
  5
240
100
AcDbEntity
  8
KTJZ_L_0
  0
POLYLINE
  5
241
100
AcDbEntity
  8
KTJZ_L_0
  6
ByLayer
370
18
100
AcDb2dPolyline
 66
1
 70
128
  0
VERTEX
  5
242
100
AcDbEntity
  8
KTJZ_L_0
100
AcDbVertex
100
AcDb2dVertex
 10
7577637.06099999789
 20
5720391.09699999914
  0
VERTEX
  5
243
100
AcDbEntity
  8
KTJZ_L_0
100
AcDbVertex
100
AcDb2dVertex
 10
7577644.56799999997
 20
5720390.49100000039
  0
SEQEND
  5
244
100
AcDbEntity
  8
KTJZ_L_0
  0
POLYLINE
  5
245
100
AcDbEntity
  8
KTJZ_L_0
  6
ByLayer
370
18
100
AcDb2dPolyline
 66
1
 70
128
  0
VERTEX
  5
246
100
AcDbEntity
  8
KTJZ_L_0
100
AcDbVertex
100
AcDb2dVertex
 10
7577595.92040000018
 20
5720397.41830000002
  0
VERTEX
  5
247
100
AcDbEntity
  8
KTJZ_L_0
100
AcDbVertex
100
AcDb2dVertex
 10
7577600.96549999993
 20
5720396.71249999944
  0
SEQEND
  5
248
100
AcDbEntity
  8
KTJZ_L_0
  0
POLYLINE
  5
249
100
AcDbEntity
  8
KTJZ_L_0
  6
ByLayer
370
18
100
AcDb2dPolyline
 66
1
 70
128
  0
VERTEX
  5
24A
100
AcDbEntity
  8
KTJZ_L_0
100
AcDbVertex
100
AcDb2dVertex
 10
7577533.07699999865
 20
5720404.59100000001
  0
VERTEX
  5
24B
100
AcDbEntity
  8
KTJZ_L_0
100
AcDbVertex
100
AcDb2dVertex
 10
7577547.16399999894
 20
5720402.57799999975
  0
SEQEND
  5
24C
100
AcDbEntity
  8
KTJZ_L_0
  0
POLYLINE
  5
24D
100
AcDbEntity
  8
KTJZ_L_0
  6
ByLayer
370
18
100
AcDb2dPolyline
 66
1
 70
128
  0
VERTEX
  5
24E
100
AcDbEntity
  8
KTJZ_L_0
100
AcDbVertex
100
AcDb2dVertex
 10
7577560.62000000011
 20
5720400.62600000016
  0
VERTEX
  5
24F
100
AcDbEntity
  8
KTJZ_L_0
100
AcDbVertex
100
AcDb2dVertex
 10
7577566.69400000013
 20
5720399.81799999997
  0
SEQEND
  5
250
100
AcDbEntity
  8
KTJZ_L_0
  0
POLYLINE
  5
251
100
AcDbEntity
  8
KTJZ_L_0
  6
ByLayer
370
18
100
AcDb2dPolyline
 66
1
 70
128
  0
VERTEX
  5
252
100
AcDbEntity
  8
KTJZ_L_0
100
AcDbVertex
100
AcDb2dVertex
 10
7577547.16399999894
 20
5720402.57799999975
  0
VERTEX
  5
253
100
AcDbEntity
  8
KTJZ_L_0
100
AcDbVertex
100
AcDb2dVertex
 10
7577560.62000000011
 20
5720400.62600000016
  0
SEQEND
  5
254
100
AcDbEntity
  8
KTJZ_L_0
  0
POLYLINE
  5
255
100
AcDbEntity
  8
KTJZ_L_0
  6
ByLayer
370
18
100
AcDb2dPolyline
 66
1
 70
128
  0
VERTEX
  5
256
100
AcDbEntity
  8
KTJZ_L_0
100
AcDbVertex
100
AcDb2dVertex
 10
7577526.50099999923
 20
5720405.49100000039
  0
VERTEX
  5
257
100
AcDbEntity
  8
KTJZ_L_0
100
AcDbVertex
100
AcDb2dVertex
 10
7577533.07699999865
 20
5720404.59100000001
  0
SEQEND
  5
258
100
AcDbEntity
  8
KTJZ_L_0
  0
POLYLINE
  5
259
100
AcDbEntity
  8
KTJZ_L_0
  6
ByLayer
370
18
100
AcDb2dPolyline
 66
1
 70
128
  0
VERTEX
  5
25A
100
AcDbEntity
  8
KTJZ_L_0
100
AcDbVertex
100
AcDb2dVertex
 10
7577600.96549999993
 20
5720396.71249999944
  0
VERTEX
  5
25B
100
AcDbEntity
  8
KTJZ_L_0
100
AcDbVertex
100
AcDb2dVertex
 10
7577601.87409999874
 20
5720395.45870000031
  0
SEQEND
  5
25C
100
AcDbEntity
  8
KTJZ_L_0
  0
POLYLINE
  5
25D
100
AcDbEntity
  8
KTJZ_L_0
  6
ByLayer
370
18
100
AcDb2dPolyline
 66
1
 70
128
  0
VERTEX
  5
25E
100
AcDbEntity
  8
KTJZ_L_0
100
AcDbVertex
100
AcDb2dVertex
 10
7577611.62170000002
 20
5720394.41489999928
  0
VERTEX
  5
25F
100
AcDbEntity
  8
KTJZ_L_0
100
AcDbVertex
100
AcDb2dVertex
 10
7577611.58649999928
 20
5720395.1847000001
  0
SEQEND
  5
260
100
AcDbEntity
  8
KTJZ_L_0
  0
POLYLINE
  5
261
100
AcDbEntity
  8
KTJZ_L_0
  6
ByLayer
370
18
100
AcDb2dPolyline
 66
1
 70
128
  0
VERTEX
  5
262
100
AcDbEntity
  8
KTJZ_L_0
100
AcDbVertex
100
AcDb2dVertex
 10
7577611.58649999928
 20
5720395.1847000001
  0
VERTEX
  5
263
100
AcDbEntity
  8
KTJZ_L_0
100
AcDbVertex
100
AcDb2dVertex
 10
7577618.01329999883
 20
5720394.23830000032
  0
SEQEND
  5
264
100
AcDbEntity
  8
KTJZ_L_0
  0
POLYLINE
  5
265
100
AcDbEntity
  8
KTJZ_L_0
  6
ByLayer
370
18
100
AcDb2dPolyline
 66
1
 70
128
  0
VERTEX
  5
266
100
AcDbEntity
  8
KTJZ_L_0
100
AcDbVertex
100
AcDb2dVertex
 10
7577655.74600000028
 20
5720389.56400000025
  0
VERTEX
  5
267
100
AcDbEntity
  8
KTJZ_L_0
100
AcDbVertex
100
AcDb2dVertex
 10
7577677.35500000045
 20
5720387.80200000014
  0
SEQEND
  5
268
100
AcDbEntity
  8
KTJZ_L_0
  0
POLYLINE
  5
269
100
AcDbEntity
  8
KTJZ_L_0
  6
ByLayer
370
18
100
AcDb2dPolyline
 66
1
 70
128
  0
VERTEX
  5
26A
100
AcDbEntity
  8
KTJZ_L_0
100
AcDbVertex
100
AcDb2dVertex
 10
7577588.83000000008
 20
5720391.3049999997
  0
VERTEX
  5
26B
100
AcDbEntity
  8
KTJZ_L_0
100
AcDbVertex
100
AcDb2dVertex
 10
7577581.9319999991
 20
5720392.29600000009
  0
SEQEND
  5
26C
100
AcDbEntity
  8
KTJZ_L_0
  0
POLYLINE
  5
26D
100
AcDbEntity
  8
KTJZ_L_0
  6
ByLayer
370
18
100
AcDb2dPolyline
 66
1
 70
128
  0
VERTEX
  5
26E
100
AcDbEntity
  8
KTJZ_L_0
100
AcDbVertex
100
AcDb2dVertex
 10
7577581.9319999991
 20
5720392.29600000009
  0
VERTEX
  5
26F
100
AcDbEntity
  8
KTJZ_L_0
100
AcDbVertex
100
AcDb2dVertex
 10
7577576.44099999871
 20
5720393.09200000018
  0
SEQEND
  5
270
100
AcDbEntity
  8
KTJZ_L_0
  0
POLYLINE
  5
271
100
AcDbEntity
  8
KTJZ_L_0
  6
ByLayer
370
18
100
AcDb2dPolyline
 66
1
 70
128
  0
VERTEX
  5
272
100
AcDbEntity
  8
KTJZ_L_0
100
AcDbVertex
100
AcDb2dVertex
 10
7577576.44099999871
 20
5720393.09200000018
  0
VERTEX
  5
273
100
AcDbEntity
  8
KTJZ_L_0
100
AcDbVertex
100
AcDb2dVertex
 10
7577572.52899999917
 20
5720393.64899999928
  0
SEQEND
  5
274
100
AcDbEntity
  8
KTJZ_L_0
  0
POLYLINE
  5
275
100
AcDbEntity
  8
KTJZ_L_0
  6
ByLayer
370
18
100
AcDb2dPolyline
 66
1
 70
128
  0
VERTEX
  5
276
100
AcDbEntity
  8
KTJZ_L_0
100
AcDbVertex
100
AcDb2dVertex
 10
7577595.79799999949
 20
5720390.39599999972
  0
VERTEX
  5
277
100
AcDbEntity
  8
KTJZ_L_0
100
AcDbVertex
100
AcDb2dVertex
 10
7577588.83000000008
 20
5720391.3049999997
  0
SEQEND
  5
278
100
AcDbEntity
  8
KTJZ_L_0
  0
POLYLINE
  5
279
100
AcDbEntity
  8
KTJZ_L_0
  6
ByLayer
370
18
100
AcDb2dPolyline
 66
1
 70
128
  0
VERTEX
  5
27A
100
AcDbEntity
  8
KTJZ_L_0
100
AcDbVertex
100
AcDb2dVertex
 10
7577613.75299999863
 20
5720388.13900000043
  0
VERTEX
  5
27B
100
AcDbEntity
  8
KTJZ_L_0
100
AcDbVertex
100
AcDb2dVertex
 10
7577606.93299999926
 20
5720388.95299999975
  0
SEQEND
  5
27C
100
AcDbEntity
  8
KTJZ_L_0
  0
POLYLINE
  5
27D
100
AcDbEntity
  8
KTJZ_L_0
  6
ByLayer
370
18
100
AcDb2dPolyline
 66
1
 70
128
  0
VERTEX
  5
27E
100
AcDbEntity
  8
KTJZ_L_0
100
AcDbVertex
100
AcDb2dVertex
 10
7577606.93299999926
 20
5720388.95299999975
  0
VERTEX
  5
27F
100
AcDbEntity
  8
KTJZ_L_0
100
AcDbVertex
100
AcDb2dVertex
 10
7577599.82699999865
 20
5720389.85299999919
  0
SEQEND
  5
280
100
AcDbEntity
  8
KTJZ_L_0
  0
POLYLINE
  5
281
100
AcDbEntity
  8
KTJZ_L_0
  6
ByLayer
370
18
100
AcDb2dPolyline
 66
1
 70
128
  0
VERTEX
  5
282
100
AcDbEntity
  8
KTJZ_L_0
100
AcDbVertex
100
AcDb2dVertex
 10
7577599.82699999865
 20
5720389.85299999919
  0
VERTEX
  5
283
100
AcDbEntity
  8
KTJZ_L_0
100
AcDbVertex
100
AcDb2dVertex
 10
7577595.79799999949
 20
5720390.39599999972
  0
SEQEND
  5
284
100
AcDbEntity
  8
KTJZ_L_0
  0
POLYLINE
  5
285
100
AcDbEntity
  8
KTJZ_L_0
  6
ByLayer
370
18
100
AcDb2dPolyline
 66
1
 70
128
  0
VERTEX
  5
286
100
AcDbEntity
  8
KTJZ_L_0
100
AcDbVertex
100
AcDb2dVertex
 10
7577572.52899999917
 20
5720393.64899999928
  0
VERTEX
  5
287
100
AcDbEntity
  8
KTJZ_L_0
100
AcDbVertex
100
AcDb2dVertex
 10
7577566.65099999867
 20
5720394.46800000034
  0
SEQEND
  5
288
100
AcDbEntity
  8
KTJZ_L_0
  0
POLYLINE
  5
289
100
AcDbEntity
  8
KTJZ_L_0
  6
ByLayer
370
18
100
AcDb2dPolyline
 66
1
 70
128
  0
VERTEX
  5
28A
100
AcDbEntity
  8
KTJZ_L_0
100
AcDbVertex
100
AcDb2dVertex
 10
7577651.52599999867
 20
5720384.625
  0
VERTEX
  5
28B
100
AcDbEntity
  8
KTJZ_L_0
100
AcDbVertex
100
AcDb2dVertex
 10
7577638.60899999924
 20
5720385.70600000024
  0
SEQEND
  5
28C
100
AcDbEntity
  8
KTJZ_L_0
  0
POLYLINE
  5
28D
100
AcDbEntity
  8
KTJZ_L_0
  6
ByLayer
370
18
100
AcDb2dPolyline
 66
1
 70
128
  0
VERTEX
  5
28E
100
AcDbEntity
  8
KTJZ_L_0
100
AcDbVertex
100
AcDb2dVertex
 10
7577655.48099999782
 20
5720384.30899999943
  0
VERTEX
  5
28F
100
AcDbEntity
  8
KTJZ_L_0
100
AcDbVertex
100
AcDb2dVertex
 10
7577651.52599999867
 20
5720384.625
  0
SEQEND
  5
290
100
AcDbEntity
  8
KTJZ_L_0
  0
POLYLINE
  5
291
100
AcDbEntity
  8
KTJZ_L_0
  6
ByLayer
370
18
100
AcDb2dPolyline
 66
1
 70
128
  0
VERTEX
  5
292
100
AcDbEntity
  8
KTJZ_L_0
100
AcDbVertex
100
AcDb2dVertex
 10
7577673.98899999913
 20
5720382.80099999905
  0
VERTEX
  5
293
100
AcDbEntity
  8
KTJZ_L_0
100
AcDbVertex
100
AcDb2dVertex
 10
7577655.48099999782
 20
5720384.30899999943
  0
SEQEND
  5
294
100
AcDbEntity
  8
KTJZ_L_0
  0
POLYLINE
  5
295
100
AcDbEntity
  8
KTJZ_L_0
  6
ByLayer
370
18
100
AcDb2dPolyline
 66
1
 70
128
  0
VERTEX
  5
296
100
AcDbEntity
  8
KTJZ_L_0
100
AcDbVertex
100
AcDb2dVertex
 10
7577638.60899999924
 20
5720385.70600000024
  0
VERTEX
  5
297
100
AcDbEntity
  8
KTJZ_L_0
100
AcDbVertex
100
AcDb2dVertex
 10
7577633.6099999994
 20
5720386.10199999996
  0
SEQEND
  5
298
100
AcDbEntity
  8
KTJZ_L_0
  0
POLYLINE
  5
299
100
AcDbEntity
  8
KTJZ_L_0
  6
ByLayer
370
18
100
AcDb2dPolyline
 66
1
 70
128
  0
VERTEX
  5
29A
100
AcDbEntity
  8
KTJZ_L_0
100
AcDbVertex
100
AcDb2dVertex
 10
7577617.64300000016
 20
5720387.66499999911
  0
VERTEX
  5
29B
100
AcDbEntity
  8
KTJZ_L_0
100
AcDbVertex
100
AcDb2dVertex
 10
7577613.75299999863
 20
5720388.13900000043
  0
SEQEND
  5
29C
100
AcDbEntity
  8
KTJZ_L_0
  0
POLYLINE
  5
29D
100
AcDbEntity
  8
KTJZ_L_0
  6
ByLayer
370
18
100
AcDb2dPolyline
 66
1
 70
128
  0
VERTEX
  5
29E
100
AcDbEntity
  8
KTJZ_L_0
100
AcDbVertex
100
AcDb2dVertex
 10
7577625.64699999802
 20
5720386.81100000069
  0
VERTEX
  5
29F
100
AcDbEntity
  8
KTJZ_L_0
100
AcDbVertex
100
AcDb2dVertex
 10
7577617.64300000016
 20
5720387.66499999911
  0
SEQEND
  5
2A0
100
AcDbEntity
  8
KTJZ_L_0
  0
POLYLINE
  5
2A1
100
AcDbEntity
  8
KTJZ_L_0
  6
ByLayer
370
18
100
AcDb2dPolyline
 66
1
 70
128
  0
VERTEX
  5
2A2
100
AcDbEntity
  8
KTJZ_L_0
100
AcDbVertex
100
AcDb2dVertex
 10
7577633.6099999994
 20
5720386.10199999996
  0
VERTEX
  5
2A3
100
AcDbEntity
  8
KTJZ_L_0
100
AcDbVertex
100
AcDb2dVertex
 10
7577625.64699999802
 20
5720386.81100000069
  0
SEQEND
  5
2A4
100
AcDbEntity
  8
KTJZ_L_0
  0
POLYLINE
  5
2A5
100
AcDbEntity
  8
KTKR_L_0
  6
CONTINUOUS
370
25
100
AcDb2dPolyline
 66
1
 70
128
  0
VERTEX
  5
2A6
100
AcDbEntity
  8
KTKR_L_0
100
AcDbVertex
100
AcDb2dVertex
 10
7577613.75299999863
 20
5720388.13900000043
  0
VERTEX
  5
2A7
100
AcDbEntity
  8
KTKR_L_0
100
AcDbVertex
100
AcDb2dVertex
 10
7577606.93299999926
 20
5720388.95299999975
  0
SEQEND
  5
2A8
100
AcDbEntity
  8
KTKR_L_0
  0
POLYLINE
  5
2A9
100
AcDbEntity
  8
KTKR_L_0
  6
CONTINUOUS
370
25
100
AcDb2dPolyline
 66
1
 70
128
  0
VERTEX
  5
2AA
100
AcDbEntity
  8
KTKR_L_0
100
AcDbVertex
100
AcDb2dVertex
 10
7577606.93299999926
 20
5720388.95299999975
  0
VERTEX
  5
2AB
100
AcDbEntity
  8
KTKR_L_0
100
AcDbVertex
100
AcDb2dVertex
 10
7577599.82699999865
 20
5720389.85299999919
  0
SEQEND
  5
2AC
100
AcDbEntity
  8
KTKR_L_0
  0
POLYLINE
  5
2AD
100
AcDbEntity
  8
KTKR_L_0
  6
CONTINUOUS
370
25
100
AcDb2dPolyline
 66
1
 70
128
  0
VERTEX
  5
2AE
100
AcDbEntity
  8
KTKR_L_0
100
AcDbVertex
100
AcDb2dVertex
 10
7577633.6099999994
 20
5720386.10199999996
  0
VERTEX
  5
2AF
100
AcDbEntity
  8
KTKR_L_0
100
AcDbVertex
100
AcDb2dVertex
 10
7577625.64699999802
 20
5720386.81100000069
  0
SEQEND
  5
2B0
100
AcDbEntity
  8
KTKR_L_0
  0
POLYLINE
  5
2B1
100
AcDbEntity
  8
KTKR_L_0
  6
CONTINUOUS
370
25
100
AcDb2dPolyline
 66
1
 70
128
  0
VERTEX
  5
2B2
100
AcDbEntity
  8
KTKR_L_0
100
AcDbVertex
100
AcDb2dVertex
 10
7577625.64699999802
 20
5720386.81100000069
  0
VERTEX
  5
2B3
100
AcDbEntity
  8
KTKR_L_0
100
AcDbVertex
100
AcDb2dVertex
 10
7577617.64300000016
 20
5720387.66499999911
  0
SEQEND
  5
2B4
100
AcDbEntity
  8
KTKR_L_0
  0
POLYLINE
  5
2B5
100
AcDbEntity
  8
KTKR_L_0
  6
CONTINUOUS
370
25
100
AcDb2dPolyline
 66
1
 70
128
  0
VERTEX
  5
2B6
100
AcDbEntity
  8
KTKR_L_0
100
AcDbVertex
100
AcDb2dVertex
 10
7577595.79799999949
 20
5720390.39599999972
  0
VERTEX
  5
2B7
100
AcDbEntity
  8
KTKR_L_0
100
AcDbVertex
100
AcDb2dVertex
 10
7577588.83000000008
 20
5720391.3049999997
  0
SEQEND
  5
2B8
100
AcDbEntity
  8
KTKR_L_0
  0
POLYLINE
  5
2B9
100
AcDbEntity
  8
KTKR_L_0
  6
CONTINUOUS
370
25
100
AcDb2dPolyline
 66
1
 70
128
  0
VERTEX
  5
2BA
100
AcDbEntity
  8
KTKR_L_0
100
AcDbVertex
100
AcDb2dVertex
 10
7577581.9319999991
 20
5720392.29600000009
  0
VERTEX
  5
2BB
100
AcDbEntity
  8
KTKR_L_0
100
AcDbVertex
100
AcDb2dVertex
 10
7577576.44099999871
 20
5720393.09200000018
  0
SEQEND
  5
2BC
100
AcDbEntity
  8
KTKR_L_0
  0
POLYLINE
  5
2BD
100
AcDbEntity
  8
KTKR_L_0
  6
CONTINUOUS
370
25
100
AcDb2dPolyline
 66
1
 70
128
  0
VERTEX
  5
2BE
100
AcDbEntity
  8
KTKR_L_0
100
AcDbVertex
100
AcDb2dVertex
 10
7577588.83000000008
 20
5720391.3049999997
  0
VERTEX
  5
2BF
100
AcDbEntity
  8
KTKR_L_0
100
AcDbVertex
100
AcDb2dVertex
 10
7577581.9319999991
 20
5720392.29600000009
  0
SEQEND
  5
2C0
100
AcDbEntity
  8
KTKR_L_0
  0
POLYLINE
  5
2C1
100
AcDbEntity
  8
KTOK_L_1
  6
ByLayer
370
18
100
AcDb2dPolyline
 66
1
 70
128
  0
VERTEX
  5
2C2
100
AcDbEntity
  8
KTOK_L_1
100
AcDbVertex
100
AcDb2dVertex
 10
7577611.58649999928
 20
5720395.1847000001
  0
VERTEX
  5
2C3
100
AcDbEntity
  8
KTOK_L_1
100
AcDbVertex
100
AcDb2dVertex
 10
7577618.01329999883
 20
5720394.23830000032
  0
SEQEND
  5
2C4
100
AcDbEntity
  8
KTOK_L_1
  0
POLYLINE
  5
2C5
100
AcDbEntity
  8
KTOK_L_1
  6
ByLayer
370
18
100
AcDb2dPolyline
 66
1
 70
128
  0
VERTEX
  5
2C6
100
AcDbEntity
  8
KTOK_L_1
100
AcDbVertex
100
AcDb2dVertex
 10
7577595.92040000018
 20
5720397.41830000002
  0
VERTEX
  5
2C7
100
AcDbEntity
  8
KTOK_L_1
100
AcDbVertex
100
AcDb2dVertex
 10
7577600.96549999993
 20
5720396.71249999944
  0
SEQEND
  5
2C8
100
AcDbEntity
  8
KTOK_L_1
  0
MLINE
  5
2C9
100
AcDbEntity
  8
KTOK_L_4
  6
L_0_A4
370
35
100
AcDbMline
  2
L_0_A4
340
F
 40
1.0
 70
1
 71
1
 72
2
 73
2
 10
7577601.87409999874
 20
5720395.45870000031
210
0.0
220
0.0
230
1.0
 11
7577601.87409999874
 21
5720395.45870000031
 12
0.994315480913
 22
-0.106474055138
 13
0.106474055138
 23
0.994315480913
 74
2
 41
0.0
 41
0.0
 75
0
 74
2
 41
0.0
 41
0.0
 75
0
 11
7577611.62170000002
 21
5720394.41489999928
 12
0.994315480913
 22
-0.106474055138
 13
0.106474055138
 23
0.994315480913
 74
2
 41
0.0
 41
0.0
 75
0
 74
2
 41
0.0
 41
0.0
 75
0
  0
MLINE
  5
2CA
100
AcDbEntity
  8
KTOK_L_4
  6
L_0_A4
370
35
100
AcDbMline
  2
L_0_A4
340
F
 40
1.0
 70
1
 71
1
 72
2
 73
2
 10
7577600.96549999993
 20
5720396.71249999944
210
0.0
220
0.0
230
1.0
 11
7577600.96549999993
 21
5720396.71249999944
 12
0.586796114283
 22
-0.809734722154
 13
0.809734722154
 23
0.586796114283
 74
2
 41
0.0
 41
0.0
 75
0
 74
2
 41
0.0
 41
0.0
 75
0
 11
7577601.87409999874
 21
5720395.45870000031
 12
0.586796114283
 22
-0.809734722154
 13
0.809734722154
 23
0.586796114283
 74
2
 41
0.0
 41
0.0
 75
0
 74
2
 41
0.0
 41
0.0
 75
0
  0
MLINE
  5
2CB
100
AcDbEntity
  8
KTOK_L_4
  6
L_0_A4
370
35
100
AcDbMline
  2
L_0_A4
340
F
 40
1.0
 70
1
 71
1
 72
2
 73
2
 10
7577622.18960000016
 20
5720385.98629999999
210
0.0
220
0.0
230
1.0
 11
7577622.18960000016
 21
5720385.98629999999
 12
0.996806628468
 22
-0.079853274461
 13
0.079853274461
 23
0.996806628468
 74
2
 41
0.0
 41
0.0
 75
0
 74
2
 41
0.0
 41
0.0
 75
0
 11
7577633.00609999895
 21
5720385.11980000045
 12
0.996806628468
 22
-0.079853274461
 13
0.079853274461
 23
0.996806628468
 74
2
 41
0.0
 41
0.0
 75
0
 74
2
 41
0.0
 41
0.0
 75
0
  0
MLINE
  5
2CC
100
AcDbEntity
  8
KTOK_L_4
  6
L_0_A4
370
35
100
AcDbMline
  2
L_0_A4
340
F
 40
1.0
 70
1
 71
1
 72
2
 73
2
 10
7577600.96549999993
 20
5720396.71249999944
210
0.0
220
0.0
230
1.0
 11
7577600.96549999993
 21
5720396.71249999944
 12
0.083292627107
 22
0.99652513178
 13
-0.99652513178
 23
0.083292627107
 74
2
 41
0.0
 41
0.0
 75
0
 74
2
 41
0.0
 41
0.0
 75
0
 11
7577602.07241669018
 21
5720409.95581263024
 12
0.083292627107
 22
0.99652513178
 13
-0.99652513178
 23
0.083292627107
 74
2
 41
0.0
 41
0.0
 75
0
 74
2
 41
0.0
 41
0.0
 75
0
  0
MLINE
  5
2CD
100
AcDbEntity
  8
KTOK_L_4
  6
L_0_A4
370
35
100
AcDbMline
  2
L_0_A4
340
F
 40
1.0
 70
1
 71
1
 72
2
 73
2
 10
7577621.5700000003
 20
5720374.25
210
0.0
220
0.0
230
1.0
 11
7577621.5700000003
 21
5720374.25
 12
0.052720051584
 22
0.9986093311
 13
-0.9986093311
 23
0.052720051584
 74
2
 41
0.0
 41
0.0
 75
0
 74
2
 41
0.0
 41
0.0
 75
0
 11
7577622.18960000016
 21
5720385.98629999999
 12
0.052720051584
 22
0.9986093311
 13
-0.9986093311
 23
0.052720051584
 74
2
 41
0.0
 41
0.0
 75
0
 74
2
 41
0.0
 41
0.0
 75
0
  0
MLINE
  5
2CE
100
AcDbEntity
  8
KTOK_L_4
  6
L_0_A4
370
35
100
AcDbMline
  2
L_0_A4
340
F
 40
1.0
 70
1
 71
1
 72
2
 73
2
 10
7577611.62170000002
 20
5720394.41489999928
210
0.0
220
0.0
230
1.0
 11
7577611.62170000002
 21
5720394.41489999928
 12
-0.04567843438
 22
0.998956195552
 13
-0.998956195552
 23
-0.04567843438
 74
2
 41
0.0
 41
0.0
 75
0
 74
2
 41
0.0
 41
0.0
 75
0
 11
7577611.58649999928
 21
5720395.1847000001
 12
-0.04567843438
 22
0.998956195552
 13
-0.998956195552
 23
-0.04567843438
 74
2
 41
0.0
 41
0.0
 75
0
 74
2
 41
0.0
 41
0.0
 75
0
  0
POLYLINE
  5
2CF
100
AcDbEntity
  8
NOWA_DZIALKA_L_0
  6
ByLayer
370
18
100
AcDb2dPolyline
 66
1
 70
128
  0
VERTEX
  5
2D0
100
AcDbEntity
  8
NOWA_DZIALKA_L_0
100
AcDbVertex
100
AcDb2dVertex
 10
7577605.12000000011
 20
5720332.66999999993
  0
VERTEX
  5
2D1
100
AcDbEntity
  8
NOWA_DZIALKA_L_0
100
AcDbVertex
100
AcDb2dVertex
 10
7577610.59999999963
 20
5720332.30999999959
  0
SEQEND
  5
2D2
100
AcDbEntity
  8
NOWA_DZIALKA_L_0
  0
POLYLINE
  5
2D3
100
AcDbEntity
  8
NOWA_DZIALKA_L_0
  6
ByLayer
370
18
100
AcDb2dPolyline
 66
1
 70
128
  0
VERTEX
  5
2D4
100
AcDbEntity
  8
NOWA_DZIALKA_L_0
100
AcDbVertex
100
AcDb2dVertex
 10
7577610.59999999963
 20
5720332.30999999959
  0
VERTEX
  5
2D5
100
AcDbEntity
  8
NOWA_DZIALKA_L_0
100
AcDbVertex
100
AcDb2dVertex
 10
7577611.00999999978
 20
5720338.59999999963
  0
SEQEND
  5
2D6
100
AcDbEntity
  8
NOWA_DZIALKA_L_0
  0
POLYLINE
  5
2D7
100
AcDbEntity
  8
NOWA_DZIALKA_L_0
  6
ByLayer
370
18
100
AcDb2dPolyline
 66
1
 70
128
  0
VERTEX
  5
2D8
100
AcDbEntity
  8
NOWA_DZIALKA_L_0
100
AcDbVertex
100
AcDb2dVertex
 10
7577605.51999999955
 20
5720338.95000000019
  0
VERTEX
  5
2D9
100
AcDbEntity
  8
NOWA_DZIALKA_L_0
100
AcDbVertex
100
AcDb2dVertex
 10
7577605.12000000011
 20
5720332.66999999993
  0
SEQEND
  5
2DA
100
AcDbEntity
  8
NOWA_DZIALKA_L_0
  0
POLYLINE
  5
2DB
100
AcDbEntity
  8
NOWA_DZIALKA_L_0
  6
ByLayer
370
18
100
AcDb2dPolyline
 66
1
 70
128
  0
VERTEX
  5
2DC
100
AcDbEntity
  8
NOWA_DZIALKA_L_0
100
AcDbVertex
100
AcDb2dVertex
 10
7577612.08999999985
 20
5720378.0
  0
VERTEX
  5
2DD
100
AcDbEntity
  8
NOWA_DZIALKA_L_0
100
AcDbVertex
100
AcDb2dVertex
 10
7577613.45999999996
 20
5720387.88999999966
  0
SEQEND
  5
2DE
100
AcDbEntity
  8
NOWA_DZIALKA_L_0
  0
POLYLINE
  5
2DF
100
AcDbEntity
  8
NOWA_DZIALKA_L_0
  6
ByLayer
370
18
100
AcDb2dPolyline
 66
1
 70
128
  0
VERTEX
  5
2E0
100
AcDbEntity
  8
NOWA_DZIALKA_L_0
100
AcDbVertex
100
AcDb2dVertex
 10
7577613.46433888376
 20
5720387.89381081983
  0
VERTEX
  5
2E1
100
AcDbEntity
  8
NOWA_DZIALKA_L_0
100
AcDbVertex
100
AcDb2dVertex
 10
7577617.42610796168
 20
5720387.34209914878
  0
SEQEND
  5
2E2
100
AcDbEntity
  8
NOWA_DZIALKA_L_0
  0
POLYLINE
  5
2E3
100
AcDbEntity
  8
NOWA_DZIALKA_L_0
  6
ByLayer
370
18
100
AcDb2dPolyline
 66
1
 70
128
  0
VERTEX
  5
2E4
100
AcDbEntity
  8
NOWA_DZIALKA_L_0
100
AcDbVertex
100
AcDb2dVertex
 10
7577617.4299999997
 20
5720387.33999999985
  0
VERTEX
  5
2E5
100
AcDbEntity
  8
NOWA_DZIALKA_L_0
100
AcDbVertex
100
AcDb2dVertex
 10
7577616.11000000034
 20
5720377.91000000015
  0
SEQEND
  5
2E6
100
AcDbEntity
  8
NOWA_DZIALKA_L_0
  0
POLYLINE
  5
2E7
100
AcDbEntity
  8
NOWA_DZIALKA_L_0
  6
ByLayer
370
18
100
AcDb2dPolyline
 66
1
 70
128
  0
VERTEX
  5
2E8
100
AcDbEntity
  8
NOWA_DZIALKA_L_0
100
AcDbVertex
100
AcDb2dVertex
 10
7577616.11000000034
 20
5720377.91000000015
  0
VERTEX
  5
2E9
100
AcDbEntity
  8
NOWA_DZIALKA_L_0
100
AcDbVertex
100
AcDb2dVertex
 10
7577611.00999999978
 20
5720338.59999999963
  0
SEQEND
  5
2EA
100
AcDbEntity
  8
NOWA_DZIALKA_L_0
  0
POLYLINE
  5
2EB
100
AcDbEntity
  8
NOWA_DZIALKA_L_0
  6
ByLayer
370
18
100
AcDb2dPolyline
 66
1
 70
128
  0
VERTEX
  5
2EC
100
AcDbEntity
  8
NOWA_DZIALKA_L_0
100
AcDbVertex
100
AcDb2dVertex
 10
7577609.61000000034
 20
5720338.69000000041
  0
VERTEX
  5
2ED
100
AcDbEntity
  8
NOWA_DZIALKA_L_0
100
AcDbVertex
100
AcDb2dVertex
 10
7577605.51999999955
 20
5720338.95000000019
  0
SEQEND
  5
2EE
100
AcDbEntity
  8
NOWA_DZIALKA_L_0
  0
POLYLINE
  5
2EF
100
AcDbEntity
  8
NOWA_DZIALKA_L_0
  6
ByLayer
370
18
100
AcDb2dPolyline
 66
1
 70
128
  0
VERTEX
  5
2F0
100
AcDbEntity
  8
NOWA_DZIALKA_L_0
100
AcDbVertex
100
AcDb2dVertex
 10
7577614.62999999989
 20
5720377.55999999959
  0
VERTEX
  5
2F1
100
AcDbEntity
  8
NOWA_DZIALKA_L_0
100
AcDbVertex
100
AcDb2dVertex
 10
7577612.08999999985
 20
5720378.0
  0
SEQEND
  5
2F2
100
AcDbEntity
  8
NOWA_DZIALKA_L_0
  0
POLYLINE
  5
2F3
100
AcDbEntity
  8
NOWA_DZIALKA_L_0
  6
ByLayer
370
18
100
AcDb2dPolyline
 66
1
 70
128
  0
VERTEX
  5
2F4
100
AcDbEntity
  8
NOWA_DZIALKA_L_0
100
AcDbVertex
100
AcDb2dVertex
 10
7577614.62999999989
 20
5720377.55999999959
  0
VERTEX
  5
2F5
100
AcDbEntity
  8
NOWA_DZIALKA_L_0
100
AcDbVertex
100
AcDb2dVertex
 10
7577609.61000000034
 20
5720338.69000000041
  0
SEQEND
  5
2F6
100
AcDbEntity
  8
NOWA_DZIALKA_L_0
  0
POLYLINE
  5
2F7
100
AcDbEntity
  8
projekt_woda
  6
CONTINUOUS
370
35
100
AcDb2dPolyline
 66
1
 70
128
  0
VERTEX
  5
2F8
100
AcDbEntity
  8
projekt_woda
100
AcDbVertex
100
AcDb2dVertex
 10
7577610.99055471923
 20
5720338.30168093368
  0
VERTEX
  5
2F9
100
AcDbEntity
  8
projekt_woda
100
AcDbVertex
100
AcDb2dVertex
 10
7577616.08580310643
 20
5720337.97146017198
  0
VERTEX
  5
2FA
100
AcDbEntity
  8
projekt_woda
100
AcDbVertex
100
AcDb2dVertex
 10
7577619.15236437041
 20
5720386.59039511345
  0
SEQEND
  5
2FB
100
AcDbEntity
  8
projekt_woda
  0
POLYLINE
  5
2FC
100
AcDbEntity
  8
SUOT_L_1
  6
CONTINUOUS
370
35
100
AcDb2dPolyline
 66
1
 70
128
  0
VERTEX
  5
2FD
100
AcDbEntity
  8
SUOT_L_1
100
AcDbVertex
100
AcDb2dVertex
 10
7577630.76439999882
 20
5720385.35459999926
  0
VERTEX
  5
2FE
100
AcDbEntity
  8
SUOT_L_1
100
AcDbVertex
100
AcDb2dVertex
 10
7577631.60879999865
 20
5720392.06060000043
  0
SEQEND
  5
2FF
100
AcDbEntity
  8
SUOT_L_1
  0
POLYLINE
  5
300
100
AcDbEntity
  8
SUPE_L_3
  6
CONTINUOUS
370
18
100
AcDb2dPolyline
 66
1
 70
128
  0
VERTEX
  5
301
100
AcDbEntity
  8
SUPE_L_3
100
AcDbVertex
100
AcDb2dVertex
 10
7577655.4272999987
 20
5720379.23190000001
  0
VERTEX
  5
302
100
AcDbEntity
  8
SUPE_L_3
100
AcDbVertex
100
AcDb2dVertex
 10
7577610.85360000003
 20
5720383.84920000006
  0
SEQEND
  5
303
100
AcDbEntity
  8
SUPE_L_3
  0
POLYLINE
  5
304
100
AcDbEntity
  8
SUPE_L_3
  6
CONTINUOUS
370
18
100
AcDb2dPolyline
 66
1
 70
128
  0
VERTEX
  5
305
100
AcDbEntity
  8
SUPE_L_3
100
AcDbVertex
100
AcDb2dVertex
 10
7577610.85360000003
 20
5720383.84920000006
  0
VERTEX
  5
306
100
AcDbEntity
  8
SUPE_L_3
100
AcDbVertex
100
AcDb2dVertex
 10
7577590.93289999943
 20
5720386.73390000034
  0
SEQEND
  5
307
100
AcDbEntity
  8
SUPE_L_3
  0
POLYLINE
  5
308
100
AcDbEntity
  8
SUPE_L_3
  6
CONTINUOUS
370
18
100
AcDb2dPolyline
 66
1
 70
128
  0
VERTEX
  5
309
100
AcDbEntity
  8
SUPE_L_3
100
AcDbVertex
100
AcDb2dVertex
 10
7577590.93289999943
 20
5720386.73390000034
  0
VERTEX
  5
30A
100
AcDbEntity
  8
SUPE_L_3
100
AcDbVertex
100
AcDb2dVertex
 10
7577578.00549999997
 20
5720387.70610000007
  0
SEQEND
  5
30B
100
AcDbEntity
  8
SUPE_L_3
  0
POLYLINE
  5
30C
100
AcDbEntity
  8
SUPE_L_3
  6
CONTINUOUS
370
18
100
AcDb2dPolyline
 66
1
 70
128
  0
VERTEX
  5
30D
100
AcDbEntity
  8
SUPE_L_3
100
AcDbVertex
100
AcDb2dVertex
 10
7577578.00549999997
 20
5720387.70610000007
  0
VERTEX
  5
30E
100
AcDbEntity
  8
SUPE_L_3
100
AcDbVertex
100
AcDb2dVertex
 10
7577573.46359999944
 20
5720387.95519999973
  0
SEQEND
  5
30F
100
AcDbEntity
  8
SUPE_L_3
  0
POLYLINE
  5
310
100
AcDbEntity
  8
SUPE_L_3
  6
CONTINUOUS
370
18
100
AcDb2dPolyline
 66
1
 70
128
  0
VERTEX
  5
311
100
AcDbEntity
  8
SUPE_L_3
100
AcDbVertex
100
AcDb2dVertex
 10
7577627.78809999861
 20
5720392.12470000051
  0
VERTEX
  5
312
100
AcDbEntity
  8
SUPE_L_3
100
AcDbVertex
100
AcDb2dVertex
 10
7577674.56401558034
 20
5720388.27030113991
  0
SEQEND
  5
313
100
AcDbEntity
  8
SUPE_L_3
  0
POLYLINE
  5
314
100
AcDbEntity
  8
SUPE_L_3
  6
CONTINUOUS
370
18
100
AcDb2dPolyline
 66
1
 70
128
  0
VERTEX
  5
315
100
AcDbEntity
  8
SUPE_L_3
100
AcDbVertex
100
AcDb2dVertex
 10
7577572.35470000003
 20
5720367.20679999981
  0
VERTEX
  5
316
100
AcDbEntity
  8
SUPE_L_3
100
AcDbVertex
100
AcDb2dVertex
 10
7577542.78380000032
 20
5720368.57580000069
  0
SEQEND
  5
317
100
AcDbEntity
  8
SUPE_L_3
  0
POLYLINE
  5
318
100
AcDbEntity
  8
SUPE_L_3
  6
CONTINUOUS
370
18
100
AcDb2dPolyline
 66
1
 70
128
  0
VERTEX
  5
319
100
AcDbEntity
  8
SUPE_L_3
100
AcDbVertex
100
AcDb2dVertex
 10
7577573.46359999944
 20
5720387.95519999973
  0
VERTEX
  5
31A
100
AcDbEntity
  8
SUPE_L_3
100
AcDbVertex
100
AcDb2dVertex
 10
7577572.35470000003
 20
5720367.20679999981
  0
SEQEND
  5
31B
100
AcDbEntity
  8
SUPE_L_3
  0
POLYLINE
  5
31C
100
AcDbEntity
  8
SUPE_L_3
  6
CONTINUOUS
370
18
100
AcDb2dPolyline
 66
1
 70
128
  0
VERTEX
  5
31D
100
AcDbEntity
  8
SUPE_L_3
100
AcDbVertex
100
AcDb2dVertex
 10
7577663.07169999927
 20
5720377.16380000021
  0
VERTEX
  5
31E
100
AcDbEntity
  8
SUPE_L_3
100
AcDbVertex
100
AcDb2dVertex
 10
7577655.4272999987
 20
5720379.23190000001
  0
SEQEND
  5
31F
100
AcDbEntity
  8
SUPE_L_3
  0
POLYLINE
  5
320
100
AcDbEntity
  8
SUPE_L_3
  6
CONTINUOUS
370
18
100
AcDb2dPolyline
 66
1
 70
128
  0
VERTEX
  5
321
100
AcDbEntity
  8
SUPE_L_3
100
AcDbVertex
100
AcDb2dVertex
 10
7577533.81699999794
 20
5720404.77649999969
  0
VERTEX
  5
322
100
AcDbEntity
  8
SUPE_L_3
100
AcDbVertex
100
AcDb2dVertex
 10
7577491.16499999911
 20
5720410.5867999997
  0
SEQEND
  5
323
100
AcDbEntity
  8
SUPE_L_3
  0
POLYLINE
  5
324
100
AcDbEntity
  8
SUPE_L_3
  6
CONTINUOUS
370
18
100
AcDb2dPolyline
 66
1
 70
128
  0
VERTEX
  5
325
100
AcDbEntity
  8
SUPE_L_3
100
AcDbVertex
100
AcDb2dVertex
 10
7577533.81699999794
 20
5720404.77649999969
  0
VERTEX
  5
326
100
AcDbEntity
  8
SUPE_L_3
100
AcDbVertex
100
AcDb2dVertex
 10
7577581.76510000043
 20
5720398.09210000001
  0
SEQEND
  5
327
100
AcDbEntity
  8
SUPE_L_3
  0
POLYLINE
  5
328
100
AcDbEntity
  8
SUPE_L_3
  6
CONTINUOUS
370
18
100
AcDb2dPolyline
 66
1
 70
128
  0
VERTEX
  5
329
100
AcDbEntity
  8
SUPE_L_3
100
AcDbVertex
100
AcDb2dVertex
 10
7577581.76510000043
 20
5720398.09210000001
  0
VERTEX
  5
32A
100
AcDbEntity
  8
SUPE_L_3
100
AcDbVertex
100
AcDb2dVertex
 10
7577627.78809999861
 20
5720392.12470000051
  0
SEQEND
  5
32B
100
AcDbEntity
  8
SUPE_L_3
  0
POLYLINE
  5
32C
100
AcDbEntity
  8
SUPT_L_0
  6
CONTINUOUS
370
18
100
AcDb2dPolyline
 66
1
 70
128
  0
VERTEX
  5
32D
100
AcDbEntity
  8
SUPT_L_0
100
AcDbVertex
100
AcDb2dVertex
 10
7577609.48769999947
 20
5720396.46050000004
  0
VERTEX
  5
32E
100
AcDbEntity
  8
SUPT_L_0
100
AcDbVertex
100
AcDb2dVertex
 10
7577628.65429999772
 20
5720394.17059999984
  0
SEQEND
  5
32F
100
AcDbEntity
  8
SUPT_L_0
  0
POLYLINE
  5
330
100
AcDbEntity
  8
SUPT_L_0
  6
CONTINUOUS
370
18
100
AcDb2dPolyline
 66
1
 70
128
  0
VERTEX
  5
331
100
AcDbEntity
  8
SUPT_L_0
100
AcDbVertex
100
AcDb2dVertex
 10
7577628.65429999772
 20
5720394.17059999984
  0
VERTEX
  5
332
100
AcDbEntity
  8
SUPT_L_0
100
AcDbVertex
100
AcDb2dVertex
 10
7577631.99639999866
 20
5720393.88329999987
  0
SEQEND
  5
333
100
AcDbEntity
  8
SUPT_L_0
  0
POLYLINE
  5
334
100
AcDbEntity
  8
SUPT_L_0
  6
CONTINUOUS
370
18
100
AcDb2dPolyline
 66
1
 70
128
  0
VERTEX
  5
335
100
AcDbEntity
  8
SUPT_L_0
100
AcDbVertex
100
AcDb2dVertex
 10
7577631.99639999866
 20
5720393.88329999987
  0
VERTEX
  5
336
100
AcDbEntity
  8
SUPT_L_0
100
AcDbVertex
100
AcDb2dVertex
 10
7577631.60879999865
 20
5720392.06060000043
  0
SEQEND
  5
337
100
AcDbEntity
  8
SUPT_L_0
  0
POLYLINE
  5
338
100
AcDbEntity
  8
SUPT_L_0
  6
CONTINUOUS
370
18
100
AcDb2dPolyline
 66
1
 70
128
  0
VERTEX
  5
339
100
AcDbEntity
  8
SUPT_L_0
100
AcDbVertex
100
AcDb2dVertex
 10
7577609.48769999947
 20
5720396.46050000004
  0
VERTEX
  5
33A
100
AcDbEntity
  8
SUPT_L_0
100
AcDbVertex
100
AcDb2dVertex
 10
7577609.5566506898
 20
5720398.07817550004
  0
SEQEND
  5
33B
100
AcDbEntity
  8
SUPT_L_0
  0
POLYLINE
  5
33C
100
AcDbEntity
  8
SUPT_L_0
  6
CONTINUOUS
370
18
100
AcDb2dPolyline
 66
1
 70
128
  0
VERTEX
  5
33D
100
AcDbEntity
  8
SUPT_L_0
100
AcDbVertex
100
AcDb2dVertex
 10
7577585.23699999787
 20
5720400.77579999994
  0
VERTEX
  5
33E
100
AcDbEntity
  8
SUPT_L_0
100
AcDbVertex
100
AcDb2dVertex
 10
7577585.61169999931
 20
5720400.08829999994
  0
SEQEND
  5
33F
100
AcDbEntity
  8
SUPT_L_0
  0
POLYLINE
  5
340
100
AcDbEntity
  8
SUPT_L_0
  6
CONTINUOUS
370
18
100
AcDb2dPolyline
 66
1
 70
128
  0
VERTEX
  5
341
100
AcDbEntity
  8
SUPT_L_0
100
AcDbVertex
100
AcDb2dVertex
 10
7577585.61169999931
 20
5720400.08829999994
  0
VERTEX
  5
342
100
AcDbEntity
  8
SUPT_L_0
100
AcDbVertex
100
AcDb2dVertex
 10
7577587.79679999873
 20
5720399.36319999956
  0
SEQEND
  5
343
100
AcDbEntity
  8
SUPT_L_0
  0
POLYLINE
  5
344
100
AcDbEntity
  8
SUPT_L_0
  6
CONTINUOUS
370
18
100
AcDb2dPolyline
 66
1
 70
128
  0
VERTEX
  5
345
100
AcDbEntity
  8
SUPT_L_0
100
AcDbVertex
100
AcDb2dVertex
 10
7577587.79679999873
 20
5720399.36319999956
  0
VERTEX
  5
346
100
AcDbEntity
  8
SUPT_L_0
100
AcDbVertex
100
AcDb2dVertex
 10
7577609.48769999947
 20
5720396.46050000004
  0
SEQEND
  5
347
100
AcDbEntity
  8
SUPT_L_0
  0
POLYLINE
  5
348
100
AcDbEntity
  8
SUPT_L_0
  6
CONTINUOUS
370
18
100
AcDb2dPolyline
 66
1
 70
128
  0
VERTEX
  5
349
100
AcDbEntity
  8
SUPT_L_0
100
AcDbVertex
100
AcDb2dVertex
 10
7577630.76439999882
 20
5720385.35459999926
  0
VERTEX
  5
34A
100
AcDbEntity
  8
SUPT_L_0
100
AcDbVertex
100
AcDb2dVertex
 10
7577630.12147070933
 20
5720373.77664272953
  0
SEQEND
  5
34B
100
AcDbEntity
  8
SUPT_L_0
  0
POLYLINE
  5
34C
100
AcDbEntity
  8
SUPT_L_0
  6
CONTINUOUS
370
18
100
AcDb2dPolyline
 66
1
 70
128
  0
VERTEX
  5
34D
100
AcDbEntity
  8
SUPT_L_0
100
AcDbVertex
100
AcDb2dVertex
 10
7577628.65429999772
 20
5720394.17059999984
  0
VERTEX
  5
34E
100
AcDbEntity
  8
SUPT_L_0
100
AcDbVertex
100
AcDb2dVertex
 10
7577628.80950826872
 20
5720394.97257571109
  0
SEQEND
  5
34F
100
AcDbEntity
  8
SUPT_L_0
  0
POLYLINE
  5
350
100
AcDbEntity
  8
SUPT_L_0
  6
CONTINUOUS
370
18
100
AcDb2dPolyline
 66
1
 70
128
  0
VERTEX
  5
351
100
AcDbEntity
  8
SUPT_L_0
100
AcDbVertex
100
AcDb2dVertex
 10
7577631.60879999865
 20
5720392.06060000043
  0
VERTEX
  5
352
100
AcDbEntity
  8
SUPT_L_0
100
AcDbVertex
100
AcDb2dVertex
 10
7577630.76439999882
 20
5720385.35459999926
  0
SEQEND
  5
353
100
AcDbEntity
  8
SUPT_L_0
  0
POLYLINE
  5
354
100
AcDbEntity
  8
SUPW_L_0
  6
CONTINUOUS
370
18
100
AcDb2dPolyline
 66
1
 70
128
  0
VERTEX
  5
355
100
AcDbEntity
  8
SUPW_L_0
100
AcDbVertex
100
AcDb2dVertex
 10
7577616.12669999991
 20
5720401.06579999905
  0
VERTEX
  5
356
100
AcDbEntity
  8
SUPW_L_0
100
AcDbVertex
100
AcDb2dVertex
 10
7577613.39919999894
 20
5720408.02759999968
  0
SEQEND
  5
357
100
AcDbEntity
  8
SUPW_L_0
  0
POLYLINE
  5
358
100
AcDbEntity
  8
SUPW_L_0
  6
CONTINUOUS
370
18
100
AcDb2dPolyline
 66
1
 70
128
  0
VERTEX
  5
359
100
AcDbEntity
  8
SUPW_L_0
100
AcDbVertex
100
AcDb2dVertex
 10
7577613.39919999894
 20
5720408.02759999968
  0
VERTEX
  5
35A
100
AcDbEntity
  8
SUPW_L_0
100
AcDbVertex
100
AcDb2dVertex
 10
7577612.0612744689
 20
5720411.24572984967
  0
SEQEND
  5
35B
100
AcDbEntity
  8
SUPW_L_0
  0
POLYLINE
  5
35C
100
AcDbEntity
  8
SUPW_L_0
  6
CONTINUOUS
370
18
100
AcDb2dPolyline
 66
1
 70
128
  0
VERTEX
  5
35D
100
AcDbEntity
  8
SUPW_L_0
100
AcDbVertex
100
AcDb2dVertex
 10
7577617.04279999994
 20
5720386.95139999967
  0
VERTEX
  5
35E
100
AcDbEntity
  8
SUPW_L_0
100
AcDbVertex
100
AcDb2dVertex
 10
7577633.84310000017
 20
5720384.08550000004
  0
SEQEND
  5
35F
100
AcDbEntity
  8
SUPW_L_0
  0
POLYLINE
  5
360
100
AcDbEntity
  8
SUPW_L_0
  6
CONTINUOUS
370
18
100
AcDb2dPolyline
 66
1
 70
128
  0
VERTEX
  5
361
100
AcDbEntity
  8
SUPW_L_0
100
AcDbVertex
100
AcDb2dVertex
 10
7577617.807099998
 20
5720393.6668999996
  0
VERTEX
  5
362
100
AcDbEntity
  8
SUPW_L_0
100
AcDbVertex
100
AcDb2dVertex
 10
7577616.12669999991
 20
5720401.06579999905
  0
SEQEND
  5
363
100
AcDbEntity
  8
SUPW_L_0
  0
POLYLINE
  5
364
100
AcDbEntity
  8
SUPW_L_0
  6
CONTINUOUS
370
18
100
AcDb2dPolyline
 66
1
 70
128
  0
VERTEX
  5
365
100
AcDbEntity
  8
SUPW_L_0
100
AcDbVertex
100
AcDb2dVertex
 10
7577563.33929999918
 20
5720394.38669999968
  0
VERTEX
  5
366
100
AcDbEntity
  8
SUPW_L_0
100
AcDbVertex
100
AcDb2dVertex
 10
7577595.63689999934
 20
5720390.58609999996
  0
SEQEND
  5
367
100
AcDbEntity
  8
SUPW_L_0
  0
POLYLINE
  5
368
100
AcDbEntity
  8
SUPW_L_0
  6
CONTINUOUS
370
18
100
AcDb2dPolyline
 66
1
 70
128
  0
VERTEX
  5
369
100
AcDbEntity
  8
SUPW_L_0
100
AcDbVertex
100
AcDb2dVertex
 10
7577595.63689999934
 20
5720390.58609999996
  0
VERTEX
  5
36A
100
AcDbEntity
  8
SUPW_L_0
100
AcDbVertex
100
AcDb2dVertex
 10
7577617.04279999994
 20
5720386.95139999967
  0
SEQEND
  5
36B
100
AcDbEntity
  8
SUPW_L_0
  0
POLYLINE
  5
36C
100
AcDbEntity
  8
SUPW_L_0
  6
CONTINUOUS
370
18
100
AcDb2dPolyline
 66
1
 70
128
  0
VERTEX
  5
36D
100
AcDbEntity
  8
SUPW_L_0
100
AcDbVertex
100
AcDb2dVertex
 10
7577617.04279999994
 20
5720386.95139999967
  0
VERTEX
  5
36E
100
AcDbEntity
  8
SUPW_L_0
100
AcDbVertex
100
AcDb2dVertex
 10
7577617.807099998
 20
5720393.6668999996
  0
SEQEND
  5
36F
100
AcDbEntity
  8
SUPW_L_0
  0
POLYLINE
  5
370
100
AcDbEntity
  8
SUPW_L_0
  6
CONTINUOUS
370
18
100
AcDb2dPolyline
 66
1
 70
128
  0
VERTEX
  5
371
100
AcDbEntity
  8
SUPW_L_0
100
AcDbVertex
100
AcDb2dVertex
 10
7577544.58431111928
 20
5720397.37771100923
  0
VERTEX
  5
372
100
AcDbEntity
  8
SUPW_L_0
100
AcDbVertex
100
AcDb2dVertex
 10
7577545.45809999946
 20
5720397.35529999994
  0
SEQEND
  5
373
100
AcDbEntity
  8
SUPW_L_0
  0
POLYLINE
  5
374
100
AcDbEntity
  8
SUPW_L_0
  6
CONTINUOUS
370
18
100
AcDb2dPolyline
 66
1
 70
128
  0
VERTEX
  5
375
100
AcDbEntity
  8
SUPW_L_0
100
AcDbVertex
100
AcDb2dVertex
 10
7577612.0612744689
 20
5720411.24572984967
  0
VERTEX
  5
376
100
AcDbEntity
  8
SUPW_L_0
100
AcDbVertex
100
AcDb2dVertex
 10
7577607.86047608033
 20
5720412.6845572805
  0
SEQEND
  5
377
100
AcDbEntity
  8
SUPW_L_0
  0
POLYLINE
  5
378
100
AcDbEntity
  8
SUPW_L_0
  6
CONTINUOUS
370
18
100
AcDb2dPolyline
 66
1
 70
128
  0
VERTEX
  5
379
100
AcDbEntity
  8
SUPW_L_0
100
AcDbVertex
100
AcDb2dVertex
 10
7577617.807099998
 20
5720393.6668999996
  0
VERTEX
  5
37A
100
AcDbEntity
  8
SUPW_L_0
100
AcDbVertex
100
AcDb2dVertex
 10
7577624.1481245691
 20
5720398.44392949995
  0
SEQEND
  5
37B
100
AcDbEntity
  8
SUPW_L_0
  0
POLYLINE
  5
37C
100
AcDbEntity
  8
SUPW_L_0
  6
CONTINUOUS
370
18
100
AcDb2dPolyline
 66
1
 70
128
  0
VERTEX
  5
37D
100
AcDbEntity
  8
SUPW_L_0
100
AcDbVertex
100
AcDb2dVertex
 10
7577543.71719999891
 20
5720397.47340000048
  0
VERTEX
  5
37E
100
AcDbEntity
  8
SUPW_L_0
100
AcDbVertex
100
AcDb2dVertex
 10
7577544.58431111928
 20
5720397.37771100923
  0
SEQEND
  5
37F
100
AcDbEntity
  8
SUPW_L_0
  0
POLYLINE
  5
380
100
AcDbEntity
  8
SUPW_L_0
  6
CONTINUOUS
370
18
100
AcDb2dPolyline
 66
1
 70
128
  0
VERTEX
  5
381
100
AcDbEntity
  8
SUPW_L_0
100
AcDbVertex
100
AcDb2dVertex
 10
7577633.84310000017
 20
5720384.08550000004
  0
VERTEX
  5
382
100
AcDbEntity
  8
SUPW_L_0
100
AcDbVertex
100
AcDb2dVertex
 10
7577667.81869999878
 20
5720383.52630000003
  0
SEQEND
  5
383
100
AcDbEntity
  8
SUPW_L_0
  0
POLYLINE
  5
384
100
AcDbEntity
  8
SUPW_L_0
  6
CONTINUOUS
370
18
100
AcDb2dPolyline
 66
1
 70
128
  0
VERTEX
  5
385
100
AcDbEntity
  8
SUPW_L_0
100
AcDbVertex
100
AcDb2dVertex
 10
7577498.74550000019
 20
5720404.68800000008
  0
VERTEX
  5
386
100
AcDbEntity
  8
SUPW_L_0
100
AcDbVertex
100
AcDb2dVertex
 10
7577543.71719999891
 20
5720397.47340000048
  0
SEQEND
  5
387
100
AcDbEntity
  8
SUPW_L_0
  0
POLYLINE
  5
388
100
AcDbEntity
  8
SUPW_L_0
  6
CONTINUOUS
370
18
100
AcDb2dPolyline
 66
1
 70
128
  0
VERTEX
  5
389
100
AcDbEntity
  8
SUPW_L_0
100
AcDbVertex
100
AcDb2dVertex
 10
7577545.45809999946
 20
5720397.35529999994
  0
VERTEX
  5
38A
100
AcDbEntity
  8
SUPW_L_0
100
AcDbVertex
100
AcDb2dVertex
 10
7577563.33929999918
 20
5720394.38669999968
  0
SEQEND
  5
38B
100
AcDbEntity
  8
SUPW_L_0
  0
POLYLINE
  5
38C
100
AcDbEntity
  8
SUPW_L_0
  6
CONTINUOUS
370
18
100
AcDb2dPolyline
 66
1
 70
128
  0
VERTEX
  5
38D
100
AcDbEntity
  8
SUPW_L_0
100
AcDbVertex
100
AcDb2dVertex
 10
7577999.42119999789
 20
5720201.84099999908
  0
VERTEX
  5
38E
100
AcDbEntity
  8
SUPW_L_0
100
AcDbVertex
100
AcDb2dVertex
 10
7577997.92800000031
 20
5720205.31110000052
  0
SEQEND
  5
38F
100
AcDbEntity
  8
SUPW_L_0
  0
POLYLINE
  5
390
100
AcDbEntity
  8
SUPW_L_0
  6
CONTINUOUS
370
18
100
AcDb2dPolyline
 66
1
 70
128
  0
VERTEX
  5
391
100
AcDbEntity
  8
SUPW_L_0
100
AcDbVertex
100
AcDb2dVertex
 10
7577997.92800000031
 20
5720205.31110000052
  0
VERTEX
  5
392
100
AcDbEntity
  8
SUPW_L_0
100
AcDbVertex
100
AcDb2dVertex
 10
7578000.92480000015
 20
5720231.26300000027
  0
SEQEND
  5
393
100
AcDbEntity
  8
SUPW_L_0
  0
POLYLINE
  5
394
100
AcDbEntity
  8
SUPW_L_0
  6
CONTINUOUS
370
18
100
AcDb2dPolyline
 66
1
 70
128
  0
VERTEX
  5
395
100
AcDbEntity
  8
SUPW_L_0
100
AcDbVertex
100
AcDb2dVertex
 10
7578000.92480000015
 20
5720231.26300000027
  0
VERTEX
  5
396
100
AcDbEntity
  8
SUPW_L_0
100
AcDbVertex
100
AcDb2dVertex
 10
7578004.31599999871
 20
5720266.80800000019
  0
SEQEND
  5
397
100
AcDbEntity
  8
SUPW_L_0
  0
POLYLINE
  5
398
100
AcDbEntity
  8
SUPW_L_0
  6
CONTINUOUS
370
18
100
AcDb2dPolyline
 66
1
 70
128
  0
VERTEX
  5
399
100
AcDbEntity
  8
SUPW_L_0
100
AcDbVertex
100
AcDb2dVertex
 10
7578004.31599999871
 20
5720266.80800000019
  0
VERTEX
  5
39A
100
AcDbEntity
  8
SUPW_L_0
100
AcDbVertex
100
AcDb2dVertex
 10
7578006.57089999877
 20
5720283.87409999967
  0
SEQEND
  5
39B
100
AcDbEntity
  8
SUPW_L_0
  0
POLYLINE
  5
39C
100
AcDbEntity
  8
SUPW_L_0
  6
CONTINUOUS
370
18
100
AcDb2dPolyline
 66
1
 70
128
  0
VERTEX
  5
39D
100
AcDbEntity
  8
SUPW_L_0
100
AcDbVertex
100
AcDb2dVertex
 10
7578006.57089999877
 20
5720283.87409999967
  0
VERTEX
  5
39E
100
AcDbEntity
  8
SUPW_L_0
100
AcDbVertex
100
AcDb2dVertex
 10
7578009.83229999896
 20
5720299.94700000063
  0
SEQEND
  5
39F
100
AcDbEntity
  8
SUPW_L_0
  0
POLYLINE
  5
3A0
100
AcDbEntity
  8
SUPW_L_0
  6
CONTINUOUS
370
18
100
AcDb2dPolyline
 66
1
 70
128
  0
VERTEX
  5
3A1
100
AcDbEntity
  8
SUPW_L_0
100
AcDbVertex
100
AcDb2dVertex
 10
7578009.83229999896
 20
5720299.94700000063
  0
VERTEX
  5
3A2
100
AcDbEntity
  8
SUPW_L_0
100
AcDbVertex
100
AcDb2dVertex
 10
7578009.87859999947
 20
5720327.05849999934
  0
SEQEND
  5
3A3
100
AcDbEntity
  8
SUPW_L_0
  0
POLYLINE
  5
3A4
100
AcDbEntity
  8
SUPW_L_0
  6
CONTINUOUS
370
18
100
AcDb2dPolyline
 66
1
 70
128
  0
VERTEX
  5
3A5
100
AcDbEntity
  8
SUPW_L_0
100
AcDbVertex
100
AcDb2dVertex
 10
7578009.87859999947
 20
5720327.05849999934
  0
VERTEX
  5
3A6
100
AcDbEntity
  8
SUPW_L_0
100
AcDbVertex
100
AcDb2dVertex
 10
7578009.87390000001
 20
5720346.88920000009
  0
SEQEND
  5
3A7
100
AcDbEntity
  8
SUPW_L_0
  0
POLYLINE
  5
3A8
100
AcDbEntity
  8
SUPW_L_0
  6
CONTINUOUS
370
18
100
AcDb2dPolyline
 66
1
 70
128
  0
VERTEX
  5
3A9
100
AcDbEntity
  8
SUPW_L_0
100
AcDbVertex
100
AcDb2dVertex
 10
7578009.87390000001
 20
5720346.88920000009
  0
VERTEX
  5
3AA
100
AcDbEntity
  8
SUPW_L_0
100
AcDbVertex
100
AcDb2dVertex
 10
7578011.13650000002
 20
5720355.32809999958
  0
SEQEND
  5
3AB
100
AcDbEntity
  8
SUPW_L_0
  0
POLYLINE
  5
3AC
100
AcDbEntity
  8
SUPW_L_0
  6
CONTINUOUS
370
18
100
AcDb2dPolyline
 66
1
 70
128
  0
VERTEX
  5
3AD
100
AcDbEntity
  8
SUPW_L_0
100
AcDbVertex
100
AcDb2dVertex
 10
7578011.13650000002
 20
5720355.32809999958
  0
VERTEX
  5
3AE
100
AcDbEntity
  8
SUPW_L_0
100
AcDbVertex
100
AcDb2dVertex
 10
7578012.00439999998
 20
5720370.34460000042
  0
SEQEND
  5
3AF
100
AcDbEntity
  8
SUPW_L_0
  0
POLYLINE
  5
3B0
100
AcDbEntity
  8
SUPW_L_0
  6
CONTINUOUS
370
18
100
AcDb2dPolyline
 66
1
 70
128
  0
VERTEX
  5
3B1
100
AcDbEntity
  8
SUPW_L_0
100
AcDbVertex
100
AcDb2dVertex
 10
7578012.00439999998
 20
5720370.34460000042
  0
VERTEX
  5
3B2
100
AcDbEntity
  8
SUPW_L_0
100
AcDbVertex
100
AcDb2dVertex
 10
7578012.89559999946
 20
5720376.05080000032
  0
SEQEND
  5
3B3
100
AcDbEntity
  8
SUPW_L_0
  0
POLYLINE
  5
3B4
100
AcDbEntity
  8
SUPW_L_0
  6
CONTINUOUS
370
18
100
AcDb2dPolyline
 66
1
 70
128
  0
VERTEX
  5
3B5
100
AcDbEntity
  8
SUPW_L_0
100
AcDbVertex
100
AcDb2dVertex
 10
7578012.89559999946
 20
5720376.05080000032
  0
VERTEX
  5
3B6
100
AcDbEntity
  8
SUPW_L_0
100
AcDbVertex
100
AcDb2dVertex
 10
7577998.25559999887
 20
5720377.39140000008
  0
SEQEND
  5
3B7
100
AcDbEntity
  8
SUPW_L_0
  0
POLYLINE
  5
3B8
100
AcDbEntity
  8
SUPW_L_0
  6
CONTINUOUS
370
18
100
AcDb2dPolyline
 66
1
 70
128
  0
VERTEX
  5
3B9
100
AcDbEntity
  8
SUPW_L_0
100
AcDbVertex
100
AcDb2dVertex
 10
7577998.25559999887
 20
5720377.39140000008
  0
VERTEX
  5
3BA
100
AcDbEntity
  8
SUPW_L_0
100
AcDbVertex
100
AcDb2dVertex
 10
7577945.97589999996
 20
5720381.36620000005
  0
SEQEND
  5
3BB
100
AcDbEntity
  8
SUPW_L_0
  0
POLYLINE
  5
3BC
100
AcDbEntity
  8
SUPW_L_0
  6
CONTINUOUS
370
18
100
AcDb2dPolyline
 66
1
 70
128
  0
VERTEX
  5
3BD
100
AcDbEntity
  8
SUPW_L_0
100
AcDbVertex
100
AcDb2dVertex
 10
7577945.97589999996
 20
5720381.36620000005
  0
VERTEX
  5
3BE
100
AcDbEntity
  8
SUPW_L_0
100
AcDbVertex
100
AcDb2dVertex
 10
7577888.36060000025
 20
5720384.70489999931
  0
SEQEND
  5
3BF
100
AcDbEntity
  8
SUPW_L_0
  0
POLYLINE
  5
3C0
100
AcDbEntity
  8
SUPW_L_0
  6
CONTINUOUS
370
18
100
AcDb2dPolyline
 66
1
 70
128
  0
VERTEX
  5
3C1
100
AcDbEntity
  8
SUPW_L_0
100
AcDbVertex
100
AcDb2dVertex
 10
7577888.36060000025
 20
5720384.70489999931
  0
VERTEX
  5
3C2
100
AcDbEntity
  8
SUPW_L_0
100
AcDbVertex
100
AcDb2dVertex
 10
7577880.78259999864
 20
5720382.88340000063
  0
SEQEND
  5
3C3
100
AcDbEntity
  8
SUPW_L_0
  0
POLYLINE
  5
3C4
100
AcDbEntity
  8
SUPW_L_0
  6
CONTINUOUS
370
18
100
AcDb2dPolyline
 66
1
 70
128
  0
VERTEX
  5
3C5
100
AcDbEntity
  8
SUPW_L_0
100
AcDbVertex
100
AcDb2dVertex
 10
7577880.78259999864
 20
5720382.88340000063
  0
VERTEX
  5
3C6
100
AcDbEntity
  8
SUPW_L_0
100
AcDbVertex
100
AcDb2dVertex
 10
7577870.89999999944
 20
5720378.1799999997
  0
SEQEND
  5
3C7
100
AcDbEntity
  8
SUPW_L_0
  0
POLYLINE
  5
3C8
100
AcDbEntity
  8
SUPW_L_0
  6
CONTINUOUS
370
18
100
AcDb2dPolyline
 66
1
 70
128
  0
VERTEX
  5
3C9
100
AcDbEntity
  8
SUPW_L_0
100
AcDbVertex
100
AcDb2dVertex
 10
7577870.89999999944
 20
5720378.1799999997
  0
VERTEX
  5
3CA
100
AcDbEntity
  8
SUPW_L_0
100
AcDbVertex
100
AcDb2dVertex
 10
7577842.80389999784
 20
5720363.35449999943
  0
SEQEND
  5
3CB
100
AcDbEntity
  8
SUPW_L_0
  0
POLYLINE
  5
3CC
100
AcDbEntity
  8
SUPW_L_0
  6
CONTINUOUS
370
18
100
AcDb2dPolyline
 66
1
 70
128
  0
VERTEX
  5
3CD
100
AcDbEntity
  8
SUPW_L_0
100
AcDbVertex
100
AcDb2dVertex
 10
7577842.80389999784
 20
5720363.35449999943
  0
VERTEX
  5
3CE
100
AcDbEntity
  8
SUPW_L_0
100
AcDbVertex
100
AcDb2dVertex
 10
7577830.20440000016
 20
5720361.72889999952
  0
SEQEND
  5
3CF
100
AcDbEntity
  8
SUPW_L_0
  0
POLYLINE
  5
3D0
100
AcDbEntity
  8
SUPW_L_0
  6
CONTINUOUS
370
18
100
AcDb2dPolyline
 66
1
 70
128
  0
VERTEX
  5
3D1
100
AcDbEntity
  8
SUPW_L_0
100
AcDbVertex
100
AcDb2dVertex
 10
7577830.20440000016
 20
5720361.72889999952
  0
VERTEX
  5
3D2
100
AcDbEntity
  8
SUPW_L_0
100
AcDbVertex
100
AcDb2dVertex
 10
7577823.60109999869
 20
5720362.16399999987
  0
SEQEND
  5
3D3
100
AcDbEntity
  8
SUPW_L_0
  0
POLYLINE
  5
3D4
100
AcDbEntity
  8
SUPW_L_0
  6
CONTINUOUS
370
18
100
AcDb2dPolyline
 66
1
 70
128
  0
VERTEX
  5
3D5
100
AcDbEntity
  8
SUPW_L_0
100
AcDbVertex
100
AcDb2dVertex
 10
7577823.60109999869
 20
5720362.16399999987
  0
VERTEX
  5
3D6
100
AcDbEntity
  8
SUPW_L_0
100
AcDbVertex
100
AcDb2dVertex
 10
7577806.03969999868
 20
5720365.20479999948
  0
SEQEND
  5
3D7
100
AcDbEntity
  8
SUPW_L_0
  0
POLYLINE
  5
3D8
100
AcDbEntity
  8
SUPW_L_0
  6
CONTINUOUS
370
18
100
AcDb2dPolyline
 66
1
 70
128
  0
VERTEX
  5
3D9
100
AcDbEntity
  8
SUPW_L_0
100
AcDbVertex
100
AcDb2dVertex
 10
7577806.03969999868
 20
5720365.20479999948
  0
VERTEX
  5
3DA
100
AcDbEntity
  8
SUPW_L_0
100
AcDbVertex
100
AcDb2dVertex
 10
7577776.58929999918
 20
5720369.48489999957
  0
SEQEND
  5
3DB
100
AcDbEntity
  8
SUPW_L_0
  0
POLYLINE
  5
3DC
100
AcDbEntity
  8
SUPW_L_0
  6
CONTINUOUS
370
18
100
AcDb2dPolyline
 66
1
 70
128
  0
VERTEX
  5
3DD
100
AcDbEntity
  8
SUPW_L_0
100
AcDbVertex
100
AcDb2dVertex
 10
7577776.58929999918
 20
5720369.48489999957
  0
VERTEX
  5
3DE
100
AcDbEntity
  8
SUPW_L_0
100
AcDbVertex
100
AcDb2dVertex
 10
7577739.62060000002
 20
5720376.4040000001
  0
SEQEND
  5
3DF
100
AcDbEntity
  8
SUPW_L_0
  0
POLYLINE
  5
3E0
100
AcDbEntity
  8
SUPW_L_0
  6
CONTINUOUS
370
18
100
AcDb2dPolyline
 66
1
 70
128
  0
VERTEX
  5
3E1
100
AcDbEntity
  8
SUPW_L_0
100
AcDbVertex
100
AcDb2dVertex
 10
7577739.62060000002
 20
5720376.4040000001
  0
VERTEX
  5
3E2
100
AcDbEntity
  8
SUPW_L_0
100
AcDbVertex
100
AcDb2dVertex
 10
7577734.9348999979
 20
5720377.20220000017
  0
SEQEND
  5
3E3
100
AcDbEntity
  8
SUPW_L_0
  0
POLYLINE
  5
3E4
100
AcDbEntity
  8
SUPW_L_0
  6
CONTINUOUS
370
18
100
AcDb2dPolyline
 66
1
 70
128
  0
VERTEX
  5
3E5
100
AcDbEntity
  8
SUPW_L_0
100
AcDbVertex
100
AcDb2dVertex
 10
7577734.9348999979
 20
5720377.20220000017
  0
VERTEX
  5
3E6
100
AcDbEntity
  8
SUPW_L_0
100
AcDbVertex
100
AcDb2dVertex
 10
7577727.2472000001
 20
5720378.29000000004
  0
SEQEND
  5
3E7
100
AcDbEntity
  8
SUPW_L_0
  0
POLYLINE
  5
3E8
100
AcDbEntity
  8
SUPW_L_0
  6
CONTINUOUS
370
18
100
AcDb2dPolyline
 66
1
 70
128
  0
VERTEX
  5
3E9
100
AcDbEntity
  8
SUPW_L_0
100
AcDbVertex
100
AcDb2dVertex
 10
7577727.2472000001
 20
5720378.29000000004
  0
VERTEX
  5
3EA
100
AcDbEntity
  8
SUPW_L_0
100
AcDbVertex
100
AcDb2dVertex
 10
7577701.16720000003
 20
5720379.5728000002
  0
SEQEND
  5
3EB
100
AcDbEntity
  8
SUPW_L_0
  0
POLYLINE
  5
3EC
100
AcDbEntity
  8
SUPW_L_0
  6
CONTINUOUS
370
18
100
AcDb2dPolyline
 66
1
 70
128
  0
VERTEX
  5
3ED
100
AcDbEntity
  8
SUPW_L_0
100
AcDbVertex
100
AcDb2dVertex
 10
7577701.16720000003
 20
5720379.5728000002
  0
VERTEX
  5
3EE
100
AcDbEntity
  8
SUPW_L_0
100
AcDbVertex
100
AcDb2dVertex
 10
7577669.85080000013
 20
5720383.23009999935
  0
SEQEND
  5
3EF
100
AcDbEntity
  8
SUPW_L_0
  0
POLYLINE
  5
3F0
100
AcDbEntity
  8
SUPW_L_0
  6
CONTINUOUS
370
18
100
AcDb2dPolyline
 66
1
 70
128
  0
VERTEX
  5
3F1
100
AcDbEntity
  8
SUPW_L_0
100
AcDbVertex
100
AcDb2dVertex
 10
7577669.85080000013
 20
5720383.23009999935
  0
VERTEX
  5
3F2
100
AcDbEntity
  8
SUPW_L_0
100
AcDbVertex
100
AcDb2dVertex
 10
7577667.81869999878
 20
5720383.52630000003
  0
SEQEND
  5
3F3
100
AcDbEntity
  8
SUPW_L_0
  0
POLYLINE
  5
3F4
100
AcDbEntity
  8
SUPW_L_0
  6
CONTINUOUS
370
18
100
AcDb2dPolyline
 66
1
 70
128
  0
VERTEX
  5
3F5
100
AcDbEntity
  8
SUPW_L_0
100
AcDbVertex
100
AcDb2dVertex
 10
7577498.74550000019
 20
5720404.68800000008
  0
VERTEX
  5
3F6
100
AcDbEntity
  8
SUPW_L_0
100
AcDbVertex
100
AcDb2dVertex
 10
7577451.81350000016
 20
5720410.45929999929
  0
SEQEND
  5
3F7
100
AcDbEntity
  8
SUPW_L_0
  0
POLYLINE
  5
3F8
100
AcDbEntity
  8
SUPW_L_0
  6
CONTINUOUS
370
18
100
AcDb2dPolyline
 66
1
 70
128
  0
VERTEX
  5
3F9
100
AcDbEntity
  8
SUPW_L_0
100
AcDbVertex
100
AcDb2dVertex
 10
7577451.81350000016
 20
5720410.45929999929
  0
VERTEX
  5
3FA
100
AcDbEntity
  8
SUPW_L_0
100
AcDbVertex
100
AcDb2dVertex
 10
7577408.58729999885
 20
5720413.9254999999
  0
SEQEND
  5
3FB
100
AcDbEntity
  8
SUPW_L_0
  0
POLYLINE
  5
3FC
100
AcDbEntity
  8
SUSM_T_0
  6
CONTINUOUS
370
18
100
AcDb2dPolyline
 66
1
 70
128
  0
VERTEX
  5
3FD
100
AcDbEntity
  8
SUSM_T_0
100
AcDbVertex
100
AcDb2dVertex
 10
7577627.04561001156
 20
5720392.86718998756
  0
VERTEX
  5
3FE
100
AcDbEntity
  8
SUSM_T_0
100
AcDbVertex
100
AcDb2dVertex
 10
7577626.55064001959
 20
5720393.36215997953
  0
SEQEND
  5
3FF
100
AcDbEntity
  8
SUSM_T_0
  0
POLYLINE
  5
400
100
AcDbEntity
  8
SUSM_T_0
  6
CONTINUOUS
370
18
100
AcDb2dPolyline
 66
1
 70
128
  0
VERTEX
  5
401
100
AcDbEntity
  8
SUSM_T_0
100
AcDbVertex
100
AcDb2dVertex
 10
7577628.53058998566
 20
5720392.86718998756
  0
VERTEX
  5
402
100
AcDbEntity
  8
SUSM_T_0
100
AcDbVertex
100
AcDb2dVertex
 10
7577629.02555997763
 20
5720393.36215997953
  0
SEQEND
  5
403
100
AcDbEntity
  8
SUSM_T_0
  0
POLYLINE
  5
404
100
AcDbEntity
  8
SUSM_T_0
  6
CONTINUOUS
370
18
100
AcDb2dPolyline
 66
1
 70
128
  0
VERTEX
  5
405
100
AcDbEntity
  8
SUSM_T_0
100
AcDbVertex
100
AcDb2dVertex
 10
7577627.04561001156
 20
5720391.38221001346
  0
VERTEX
  5
406
100
AcDbEntity
  8
SUSM_T_0
100
AcDbVertex
100
AcDb2dVertex
 10
7577626.55064001959
 20
5720390.88724002149
  0
SEQEND
  5
407
100
AcDbEntity
  8
SUSM_T_0
  0
POLYLINE
  5
408
100
AcDbEntity
  8
SUSM_T_0
  6
CONTINUOUS
370
18
100
AcDb2dPolyline
 66
1
 70
128
  0
VERTEX
  5
409
100
AcDbEntity
  8
SUSM_T_0
100
AcDbVertex
100
AcDb2dVertex
 10
7577628.53058998566
 20
5720391.38221001346
  0
VERTEX
  5
40A
100
AcDbEntity
  8
SUSM_T_0
100
AcDbVertex
100
AcDb2dVertex
 10
7577629.02555997763
 20
5720390.88724002149
  0
SEQEND
  5
40B
100
AcDbEntity
  8
SUSM_T_0
  0
CIRCLE
  5
40C
100
AcDbEntity
  8
SUSM_T_3
  6
ByLayer
370
18
100
AcDbCircle
 10
7577627.78809999861
 20
5720392.12470000051
 40
0.25
  0
POLYLINE
  5
40D
100
AcDbEntity
  8
SUTW_T_0
  6
CONTINUOUS
370
18
100
AcDb2dPolyline
 66
1
 70
128
  0
VERTEX
  5
40E
100
AcDbEntity
  8
SUTW_T_0
100
AcDbVertex
100
AcDb2dVertex
 10
7577617.04279994778
 20
5720386.95139987953
  0
VERTEX
  5
40F
100
AcDbEntity
  8
SUTW_T_0
100
AcDbVertex
100
AcDb2dVertex
 10
7577618.69081950095
 20
5720388.81162078958
  0
SEQEND
  5
410
100
AcDbEntity
  8
SUTW_T_0
  0
POLYLINE
  5
411
100
AcDbEntity
  8
SUTW_T_0
  6
CONTINUOUS
370
18
100
AcDb2dPolyline
 66
1
 70
128
  0
VERTEX
  5
412
100
AcDbEntity
  8
SUTW_T_0
100
AcDbVertex
100
AcDb2dVertex
 10
7577618.69081950095
 20
5720388.81162078958
  0
VERTEX
  5
413
100
AcDbEntity
  8
SUTW_T_0
100
AcDbVertex
100
AcDb2dVertex
 10
7577621.0522310026
 20
5720388.81162078958
  0
SEQEND
  5
414
100
AcDbEntity
  8
SUTW_T_0
  0
CIRCLE
  5
415
100
AcDbEntity
  8
SUUW_T_7
  6
ByLayer
370
18
100
AcDbCircle
 10
7577617.04279999994
 20
5720386.95139999967
 40
0.200000000186
  0
CIRCLE
  5
416
100
AcDbEntity
  8
SUUW_T_7
  6
ByLayer
370
18
100
AcDbCircle
 10
7577617.04279999994
 20
5720386.95139999967
 40
0.174999999814
  0
CIRCLE
  5
417
100
AcDbEntity
  8
SUUW_T_7
  6
ByLayer
370
18
100
AcDbCircle
 10
7577617.04279999994
 20
5720386.95139999967
 40
0.150000000373
  0
CIRCLE
  5
418
100
AcDbEntity
  8
SUUW_T_7
  6
ByLayer
370
18
100
AcDbCircle
 10
7577617.04279999994
 20
5720386.95139999967
 40
0.125
  0
CIRCLE
  5
419
100
AcDbEntity
  8
SUUW_T_7
  6
ByLayer
370
18
100
AcDbCircle
 10
7577617.04279999994
 20
5720386.95139999967
 40
0.099999999627
  0
CIRCLE
  5
41A
100
AcDbEntity
  8
SUUW_T_7
  6
ByLayer
370
18
100
AcDbCircle
 10
7577617.04279999994
 20
5720386.95139999967
 40
0.075000000186
  0
CIRCLE
  5
41B
100
AcDbEntity
  8
SUUW_T_7
  6
ByLayer
370
18
100
AcDbCircle
 10
7577617.04279999994
 20
5720386.95139999967
 40
0.049999999814
  0
CIRCLE
  5
41C
100
AcDbEntity
  8
SUUW_T_7
  6
ByLayer
370
18
100
AcDbCircle
 10
7577617.04279999994
 20
5720386.95139999967
 40
0.025000000373
  0
CIRCLE
  5
41D
100
AcDbEntity
  8
SUUW_T_7
  6
ByLayer
370
18
100
AcDbCircle
 10
7577617.04279999994
 20
5720386.95139999967
 40
0.007149999961
  0
POINT
  5
41E
100
AcDbEntity
  8
DZIALKI_L_0
100
AcDbPoint
 62
256
 10
7577619.15236437041
 20
5720386.59039511345
  0
POINT
  5
41F
100
AcDbEntity
  8
DZIALKI_L_0
100
AcDbPoint
 62
256
 10
7577616.08580310643
 20
5720337.97146017198
  0
POINT
  5
420
100
AcDbEntity
  8
DZIALKI_L_0
100
AcDbPoint
 62
256
 10
7577610.99055471923
 20
5720338.30168093368
  0
POINT
  5
421
100
AcDbEntity
  8
NOWA_DZIALKA_L_0
100
AcDbPoint
 62
256
 10
7577612.08999999985
 20
5720378.0
  0
POINT
  5
422
100
AcDbEntity
  8
NOWA_DZIALKA_L_0
100
AcDbPoint
 62
256
 10
7577613.45999999996
 20
5720387.88999999966
  0
POINT
  5
423
100
AcDbEntity
  8
NOWA_DZIALKA_L_0
100
AcDbPoint
 62
256
 10
7577614.62999999989
 20
5720377.55999999959
  0
POINT
  5
424
100
AcDbEntity
  8
NOWA_DZIALKA_L_0
100
AcDbPoint
 62
256
 10
7577609.61000000034
 20
5720338.69000000041
  0
POINT
  5
425
100
AcDbEntity
  8
NOWA_DZIALKA_L_0
100
AcDbPoint
 62
256
 10
7577605.51999999955
 20
5720338.95000000019
  0
POINT
  5
426
100
AcDbEntity
  8
NOWA_DZIALKA_L_0
100
AcDbPoint
 62
256
 10
7577605.12000000011
 20
5720332.66999999993
  0
POINT
  5
427
100
AcDbEntity
  8
NOWA_DZIALKA_L_0
100
AcDbPoint
 62
256
 10
7577610.59999999963
 20
5720332.30999999959
  0
POINT
  5
428
100
AcDbEntity
  8
NOWA_DZIALKA_L_0
100
AcDbPoint
 62
256
 10
7577611.00999999978
 20
5720338.59999999963
  0
POINT
  5
429
100
AcDbEntity
  8
NOWA_DZIALKA_L_0
100
AcDbPoint
 62
256
 10
7577616.11000000034
 20
5720377.91000000015
  0
POINT
  5
42A
100
AcDbEntity
  8
NOWA_DZIALKA_L_0
100
AcDbPoint
 62
256
 10
7577617.4299999997
 20
5720387.33999999985
  0
INSERT
  5
42B
100
AcDbEntity
  8
OBOP_T_1
  6
CONTINUOUS
100
AcDbBlockReference
 66
0
  2
OBOP02_01
 10
7577601.35190000012
 20
5720386.95470000058
 41
0.50
 42
0.50
 43
0.50
 50
0.00
  0
INSERT
  5
42C
100
AcDbEntity
  8
OBOP_T_1
  6
CONTINUOUS
100
AcDbBlockReference
 66
0
  2
OBOP02_01
 10
7577609.83385695796
 20
5720386.85850004945
 41
0.50
 42
0.50
 43
0.50
 50
0.00
  0
INSERT
  5
42D
100
AcDbEntity
  8
RTPW_T_0
  6
CONTINUOUS
100
AcDbBlockReference
 66
0
  2
RTPW01
 10
7577597.7481925888
 20
5720383.59414966032
 41
0.50
 42
0.50
 43
0.50
 50
0.00
  0
INSERT
  5
42E
100
AcDbEntity
  8
RTPW_T_0
  6
CONTINUOUS
100
AcDbBlockReference
 66
0
  2
RTPW01
 10
7577610.50898406189
 20
5720372.39884216897
 41
0.50
 42
0.50
 43
0.50
 50
0.00
  0
INSERT
  5
42F
100
AcDbEntity
  8
SUTW_T_0
  6
CONTINUOUS
100
AcDbBlockReference
 66
0
  2
SUPS01_08
 10
7577617.04279999994
 20
5720386.95139999967
 41
0.50
 42
0.50
 43
0.50
 50
0.00
  0
TEXT
  5
430
100
AcDbEntity
  8
BUIB_E_T_6
370
18
100
AcDbText
 39
0.18
 10
7577629.54939076956
 20
5720330.45236878749
 40
0.90
  1
i.b.
 50
0.00
 41
0.66
  7
STANDARD
 72
0
 11
7577629.54939076956
 21
5720331.35236878786
100
AcDbText
 73
3
  0
TEXT
  5
431
100
AcDbEntity
  8
EADTD_T_0
370
18
100
AcDbText
 39
0.18
 10
7577627.70687522739
 20
5720372.5167107638
 40
0.90
  1
99
 50
175.10
 41
0.66
  7
STANDARD
 72
0
 11
7577627.62999999616
 21
5720371.61999999732
100
AcDbText
 73
3
  0
TEXT
  5
432
100
AcDbEntity
  8
EADTD_T_0
370
18
100
AcDbText
 39
0.18
 10
7577606.70692731254
 20
5720399.25814557076
 40
0.90
  1
101
 50
355.30
 41
0.66
  7
STANDARD
 72
0
 11
7577606.78067196999
 21
5720400.15511921886
100
AcDbText
 73
3
  0
TEXT
  5
433
100
AcDbEntity
  8
EGBB_E_T_0
370
18
100
AcDbText
 39
0.18
 10
7577606.79982434586
 20
5720402.03424462955
 40
0.90
  1
mj1
 50
0.00
 41
0.66
  7
STANDARD
 72
0
 11
7577606.79982434586
 21
5720402.93424462993
100
AcDbText
 73
3
  0
TEXT
  5
434
100
AcDbEntity
  8
EGBB_E_T_0
370
18
100
AcDbText
 39
0.18
 10
7577627.26801629458
 20
5720399.83679287974
 40
0.90
  1
mj1
 50
0.00
 41
0.66
  7
STANDARD
 72
0
 11
7577627.26801629458
 21
5720400.73679288011
100
AcDbText
 73
3
  0
TEXT
  5
435
100
AcDbEntity
  8
EGBB_E_T_0
370
18
100
AcDbText
 39
0.18
 10
7577625.13698278461
 20
5720368.8036174709
 40
0.90
  1
mj2
 50
0.00
 41
0.66
  7
STANDARD
 72
0
 11
7577625.13698278461
 21
5720369.70361747127
100
AcDbText
 73
3
  0
TEXT
  5
436
100
AcDbEntity
  8
KTCR_E_T_1
370
15
100
AcDbText
 39
0.15
 10
7577604.65235261153
 20
5720388.10771187395
 40
0.75
  1
ch.bt.
 50
349.00
 41
0.66
  7
STANDARD
 72
0
 11
7577604.79545935802
 21
5720388.84393226169
100
AcDbText
 73
3
  0
TEXT
  5
437
100
AcDbEntity
  8
KTCR_E_T_1
370
15
100
AcDbText
 39
0.15
 10
7577586.52433098014
 20
5720390.44852549117
 40
0.75
  1
ch.bt.
 50
349.70
 41
0.66
  7
STANDARD
 72
0
 11
7577586.65843264107
 21
5720391.18643926922
100
AcDbText
 73
3
  0
TEXT
  5
438
100
AcDbEntity
  8
KTCR_E_T_1
370
15
100
AcDbText
 39
0.15
 10
7577629.71057912707
 20
5720362.25155033357
 40
0.75
  1
ch.kp.
 50
352.60
 41
0.66
  7
STANDARD
 72
0
 11
7577629.80717582442
 21
5720362.99530370533
100
AcDbText
 73
3
  0
TEXT
  5
439
100
AcDbEntity
  8
KTCR_E_T_1
370
15
100
AcDbText
 39
0.15
 10
7577623.38141808566
 20
5720386.11638767645
 40
0.75
  1
ch.bt.
 50
353.70
 41
0.66
  7
STANDARD
 72
0
 11
7577623.46371881943
 21
5720386.86185839307
100
AcDbText
 73
3
  0
TEXT
  5
43A
100
AcDbEntity
  8
KTJZ_E_T_0
370
15
100
AcDbText
 39
0.15
 10
7577597.01973223686
 20
5720389.12599355262
 40
0.75
  1
j.bt.
 50
349.30
 41
0.66
  7
STANDARD
 72
0
 11
7577597.15898219869
 21
5720389.86295314971
100
AcDbText
 73
3
  0
TEXT
  5
43B
100
AcDbEntity
  8
KTJZ_E_T_0
370
15
100
AcDbText
 39
0.15
 10
7577558.66935457196
 20
5720397.68736813497
 40
0.75
  1
j.mb.
 50
354.80
 41
0.66
  7
STANDARD
 72
0
 11
7577558.73732900713
 21
5720398.43428143393
100
AcDbText
 73
3
  0
TEXT
  5
43C
100
AcDbEntity
  8
KTJZ_E_T_0
370
15
100
AcDbText
 39
0.15
 10
7577654.12391720805
 20
5720386.52718998957
 40
0.75
  1
j.mb.
 50
353.20
 41
0.66
  7
STANDARD
 72
0
 11
7577654.21272018459
 21
5720387.27191412076
100
AcDbText
 73
3
  0
MTEXT
  5
43D
100
AcDbEntity
  8
NOWA_DZIALKA_L_0
370
18
100
AcDbMText
 10
7577607.50999999605
 20
5720336.32999999728
 40
0.9000
 41
0.0
 71
1
 72
1
  1
\W0.9115x;Bp
  7
STANDARD
 11
1.00000000
 21
0.00000000
 44
0.90
 90
3
 63
0
 45
1.0
  0
TEXT
  5
43E
100
AcDbEntity
  8
NR_DZIALKI_T_0
370
18
100
AcDbText
 39
0.18
 10
7577619.89999999851
 20
5720343.99999999814
 40
0.90
  1
11-145/1
 50
0.00
 41
0.66
  7
STANDARD
 72
0
 11
7577619.89999999851
 21
5720344.89999999851
100
AcDbText
 73
3
  0
TEXT
  5
43F
100
AcDbEntity
  8
NR_DZIALKI_T_0
370
18
100
AcDbText
 39
0.18
 10
7577622.30999999586
 20
5720375.89999999665
 40
0.90
  1
11-145/2
 50
0.00
 41
0.66
  7
STANDARD
 72
0
 11
7577622.30999999586
 21
5720376.79999999702
100
AcDbText
 73
3
  0
TEXT
  5
440
100
AcDbEntity
  8
NR_DZIALKI_T_0
370
18
100
AcDbText
 39
0.18
 10
7577625.68999999575
 20
5720392.7399999965
 40
0.90
  1
11-17/2
 50
0.00
 41
0.66
  7
STANDARD
 72
0
 11
7577625.68999999575
 21
5720393.63999999687
100
AcDbText
 73
3
  0
TEXT
  5
441
100
AcDbEntity
  8
NR_DZIALKI_T_0
370
18
100
AcDbText
 39
0.18
 10
7577592.66267823987
 20
5720350.97333813831
 40
0.90
  1
11-143
 50
0.00
 41
0.66
  7
STANDARD
 72
0
 11
7577592.66267823987
 21
5720351.87333813868
100
AcDbText
 73
3
  0
TEXT
  5
442
100
AcDbEntity
  8
NR_DZIALKI_T_0
370
18
100
AcDbText
 39
0.18
 10
7577609.14057706948
 20
5720390.39764290024
 40
0.90
  1
11-477
 50
0.00
 41
0.66
  7
STANDARD
 72
0
 11
7577609.14057706948
 21
5720391.29764290061
100
AcDbText
 73
3
  0
TEXT
  5
443
100
AcDbEntity
  8
NR_DZIALKI_T_0
370
18
100
AcDbText
 39
0.18
 10
7577607.40999999642
 20
5720342.44999999646
 40
0.90
  1
11-144/1
 50
0.00
 41
0.66
  7
STANDARD
 72
0
 11
7577607.40999999642
 21
5720343.34999999683
100
AcDbText
 73
3
  0
TEXT
  5
444
100
AcDbEntity
  8
NR_DZIALKI_T_0
370
18
100
AcDbText
 39
0.18
 10
7577604.2399999965
 20
5720321.9899999965
 40
0.90
  1
11-144/2
 50
0.00
 41
0.66
  7
STANDARD
 72
0
 11
7577604.2399999965
 21
5720322.88999999687
100
AcDbText
 73
3
  0
TEXT
  5
445
100
AcDbEntity
  8
NR_UZYTKU_T_0
370
18
100
AcDbText
 39
0.18
 10
7577624.75999999605
 20
5720378.77999999654
 40
0.90
  1
Br
 50
0.00
 41
0.66
  7
STANDARD
 72
0
 11
7577624.75999999605
 21
5720379.67999999691
100
AcDbText
 73
3
  0
TEXT
  5
446
100
AcDbEntity
  8
NR_UZYTKU_T_0
370
18
100
AcDbText
 39
0.18
 10
7577606.63351413701
 20
5720390.93798905332
 40
0.90
  1
dr
 50
0.00
 41
0.66
  7
STANDARD
 72
0
 11
7577606.63351413701
 21
5720391.83798905369
100
AcDbText
 73
3
  0
TEXT
  5
447
100
AcDbEntity
  8
projekt_woda
370
18
100
AcDbText
 39
0.18
 10
7577612.2040236108
 20
5720338.41030332167
 40
0.90
  1
-5.11-
 50
-4.00
 41
0.66
  7
STANDARD
 72
1
 11
7577613.52980813663
 21
5720338.01686286647
100
AcDbText
 73
1
  0
TEXT
  5
448
100
AcDbEntity
  8
projekt_woda
370
18
100
AcDbText
 39
0.18
 10
7577617.32965576276
 20
5720360.72232042905
 40
0.90
  1
-48.72-
 50
-274.00
 41
0.66
  7
STANDARD
 72
1
 11
7577617.73879142385
 21
5720362.27255686652
100
AcDbText
 73
1
  0
TEXT
  5
449
100
AcDbEntity
  8
RTPW_T_0
370
15
100
AcDbText
 39
0.15
 10
7577610.50898406189
 20
5720372.39884216897
 40
0.75
  1
170.6
 50
0.00
 41
0.66
  7
STANDARD
 72
0
 11
7577610.50898406189
 21
5720373.14884216897
100
AcDbText
 73
3
  0
TEXT
  5
44A
100
AcDbEntity
  8
RTPW_T_0
370
15
100
AcDbText
 39
0.15
 10
7577597.1997812679
 20
5720382.42615780979
 40
0.75
  1
170.9
 50
0.00
 41
0.66
  7
STANDARD
 72
0
 11
7577597.1997812679
 21
5720383.17615780979
100
AcDbText
 73
3
  0
TEXT
  5
44B
100
AcDbEntity
  8
SUPE_E_T_3
370
15
100
AcDbText
 39
0.15
 10
7577566.11838345416
 20
5720367.12011202052
 40
0.75
  1
eN
 50
357.30
 41
0.66
  7
STANDARD
 72
0
 11
7577566.15371329244
 21
5720367.86927942652
100
AcDbText
 73
3
  0
TEXT
  5
44C
100
AcDbEntity
  8
SUPE_E_T_3
370
15
100
AcDbText
 39
0.15
 10
7577614.66741709039
 20
5720383.07712779567
 40
0.75
  1
eN
 50
354.10
 41
0.66
  7
STANDARD
 72
0
 11
7577614.74451149255
 21
5720383.8231549086
100
AcDbText
 73
3
  0
TEXT
  5
44D
100
AcDbEntity
  8
SUPT_E_T_0
370
15
100
AcDbText
 39
0.15
 10
7577618.3346114913
 20
5720395.0258619627
 40
0.75
  1
3t
 50
353.20
 41
0.66
  7
STANDARD
 72
0
 11
7577618.42341446783
 21
5720395.77058609389
100
AcDbText
 73
3
  0
TEXT
  5
44E
100
AcDbEntity
  8
SUPT_E_T_0
370
15
100
AcDbText
 39
0.15
 10
7577593.76789154112
 20
5720398.18579918426
 40
0.75
  1
4t
 50
352.40
 41
0.66
  7
STANDARD
 72
0
 11
7577593.86708383355
 21
5720398.92921083979
100
AcDbText
 73
3
  0
TEXT
  5
44F
100
AcDbEntity
  8
SUPT_E_T_0
370
15
100
AcDbText
 39
0.15
 10
7577609.89349671267
 20
5720397.17504764907
 40
0.75
  1
t
 50
87.60
 41
0.66
  7
STANDARD
 72
0
 11
7577609.14415459055
 21
5720397.20645438973
100
AcDbText
 73
3
  0
TEXT
  5
450
100
AcDbEntity
  8
SUPT_E_T_0
370
15
100
AcDbText
 39
0.15
 10
7577630.75837931689
 20
5720378.4263490336
 40
0.75
  1
t
 50
86.80
 41
0.66
  7
STANDARD
 72
0
 11
7577630.00954874419
 21
5720378.46821516193
100
AcDbText
 73
3
  0
TEXT
  5
451
100
AcDbEntity
  8
SUPW_E_T_0
370
15
100
AcDbText
 39
0.15
 10
7577647.49920658767
 20
5720383.48568520788
 40
0.75
  1
wo100
 50
359.10
 41
0.66
  7
STANDARD
 72
0
 11
7577647.51098707598
 21
5720384.23559268191
100
AcDbText
 73
3
  0
TEXT
  5
452
100
AcDbEntity
  8
SUPW_E_T_0
370
15
100
AcDbText
 39
0.15
 10
7577613.9139640918
 20
5720405.68568675499
 40
0.75
  1
wo50
 50
291.40
 41
0.66
  7
STANDARD
 72
0
 11
7577614.61225595325
 21
5720405.95934434328
100
AcDbText
 73
3
  0
TEXT
  5
453
100
AcDbEntity
  8
SUPW_E_T_0
370
15
100
AcDbText
 39
0.15
 10
7577620.95603358559
 20
5720395.56965290196
 40
0.75
  1
wo50
 50
37.00
 41
0.66
  7
STANDARD
 72
0
 11
7577620.50467231777
 21
5720396.16862953454
100
AcDbText
 73
3
  0
TEXT
  5
454
100
AcDbEntity
  8
SUPW_E_T_0
370
15
100
AcDbText
 39
0.15
 10
7577513.4840679802
 20
5720401.94275479484
 40
0.75
  1
wo100
 50
350.90
 41
0.66
  7
STANDARD
 72
0
 11
7577513.60268653091
 21
5720402.68331514951
100
AcDbText
 73
3
  0
TEXT
  5
455
100
AcDbEntity
  8
SUTW_T_0
370
15
100
AcDbText
 39
0.15
 10
7577618.69081950095
 20
5720389.06162078958
 40
0.75
  1
171.12
 50
0.00
 41
0.66
  7
STANDARD
 72
0
 11
7577618.69081950095
 21
5720389.81162078958
100
AcDbText
 73
3
  0
TEXT
  5
456
100
AcDbEntity
  8
SUUW_E_T_5
370
15
100
AcDbText
 39
0.15
 10
7577616.28723344952
 20
5720385.68234998081
 40
0.75
  1
w
 50
0.00
 41
0.66
  7
STANDARD
 72
0
 11
7577616.28723344952
 21
5720386.43234998081
100
AcDbText
 73
3
  0
ENDSEC
  0
SECTION
  2
OBJECTS
  0
DICTIONARY
  5
457
330
0
100
AcDbDictionary
280
0
281
1
  3
ACAD_GROUP
350
458
  3
ACAD_LAYOUT
350
459
  3
ACAD_MLINESTYLE
350
45A
  3
ACAD_PLOTSETTINGS
350
45B
  3
ACAD_PLOTSTYLENAME
350
45C
  0
DICTIONARY
  5
458
102
{ACAD_REACTORS
330
457
102
}
330
457
100
AcDbDictionary
280
0
281
1
  0
DICTIONARY
  5
459
102
{ACAD_REACTORS
330
457
102
}
330
457
100
AcDbDictionary
280
0
281
1
  3
Layout
350
B0
  3
Model
350
AE
  0
DICTIONARY
  5
45A
102
{ACAD_REACTORS
330
457
102
}
330
457
100
AcDbDictionary
280
0
281
1
  3
Standard
350
45D
  3
L_0_02
350
7
  3
L_0_A4
350
F
  3
L_0_E3
350
11
  0
DICTIONARY
  5
45B
102
{ACAD_REACTORS
330
457
102
}
330
457
100
AcDbDictionary
280
0
281
1
  0
ACDBDICTIONARYWDFLT
  5
45C
102
{ACAD_REACTORS
330
457
102
}
330
457
100
AcDbDictionary
281
1
  3
Normal
350
16
100
AcDbDictionaryWithDefault
340
16
  0
LAYOUT
  5
B0
100
AcDbPlotSettings
  1

  2

  4

  6

 40
0.0
 41
0.0
 42
0.0
 43
0.0
 44
0.0
 45
0.0
 46
0.0
 47
0.0
 48
0.0
 49
0.0
140
0.0
141
0.0
142
1.0
143
1.0
 70
688
 72
1
 73
0
 74
5
  7

 75
0
147
1.0
148
0.0
149
0.0
100
AcDbLayout
  1
Layout
 70
1
 71
1
 10
0.0
 20
0.0
 11
420.0
 21
297.0
 12
0.0
 22
0.0
 32
0.0
 14
100000000000000000000.0
 24
100000000000000000000.0
 34
100000000000000000000.0
 15
-100000000000000000000.0
 25
-100000000000000000000.0
 35
-100000000000000000000.0
146
0.0
 13
0.0
 23
0.0
 33
0.0
 16
1.0
 26
0.0
 36
0.0
 17
0.0
 27
1.0
 37
0.0
 76
0
330
AF
  0
LAYOUT
  5
AE
100
AcDbPlotSettings
  1

  2

  4

  6

 40
0.0
 41
0.0
 42
0.0
 43
0.0
 44
0.0
 45
0.0
 46
0.0
 47
0.0
 48
0.0
 49
0.0
140
0.0
141
0.0
142
1.0
143
1.0
 70
1712
 72
1
 73
0
 74
0
  7

 75
0
147
1.0
148
0.0
149
0.0
100
AcDbLayout
  1
Model
 70
1
 71
0
 10
0.0
 20
0.0
 11
12.0
 21
9.0
 12
0.0
 22
0.0
 32
0.0
 14
0.0
 24
0.0
 34
0.0
 15
0.0
 25
0.0
 35
0.0
146
0.0
 13
0.0
 23
0.0
 33
0.0
 16
1.0
 26
0.0
 36
0.0
 17
0.0
 27
1.0
 37
0.0
 76
0
330
AD
  0
MLINESTYLE
  5
45D
102
{ACAD_REACTORS
330
45A
102
}
330
45A
100
AcDbMlineStyle
  2
Standard
 70
0
  3

 62
256
 51
90.0
 52
90.0
  2
Standard
 71
2
 49
0.5
 62
256
  6
ByLayer
 49
-0.5
 62
256
  6
ByLayer
  0
MLINESTYLE
  5
7
100
AcDbMlineStyle
  2
L_0_02
 70
0
  3

 51
90.0
 52
90.0
 71
1
 49
0.0
 62
256
  6
CONTINUOUS
  0
MLINESTYLE
  5
F
100
AcDbMlineStyle
  2
L_0_A4
 70
0
  3

 51
90.0
 52
90.0
 71
2
 49
0.0
 62
256
  6
L_0_A4_SHX
 49
0.0
 62
256
  6
CONTINUOUS
  0
MLINESTYLE
  5
11
100
AcDbMlineStyle
  2
L_0_E3
 70
0
  3

 51
90.0
 52
90.0
 71
2
 49
0.0
 62
256
  6
CONTINUOUS
 49
-0.5
 62
256
  6
L_0_E3_00
  0
ACDBPLACEHOLDER
  5
16
  0
ENDSEC
  0
EOF
