  0
SECTION
  2
HEADER
  9
$ACADVER
  1
AC1018
  9
$HANDSEED
  5
FFFFFF
  9
$EXTMAX
 10
7581627.9299999997
 20
5719924.33000000007
 30
1000000.00
  9
$EXTMIN
 10
7578616.19000000041
 20
5719346.69000000041
 30
0.00
  9
$LIMMIN
 10
7578616.19000000041
 20
5719346.69000000041
  9
$LIMMAX
 10
7581627.9299999997
 20
5719924.33000000007
  9
$DIMASZ
 40
2.5
  9
$DIMGAP
 40
0.625
  9
$INSUNITS
 70
6
  9
$MEASUREMENT
 70
1
  9
$DIMEXO
 40
0.625
  9
$DIMTXT
 40
2.5
  9
$DIMSTYLE
  2
Standard
  9
$PLIMMIN
 10
0.0
 20
0.0
  9
$PLIMMAX
 10
210.0
 20
297.0
  9
$DIMEXE
 40
1.25
  9
$TEXTSIZE
 40
2.5
  9
$TEXTSTYLE
  7
Standard
  9
$LWDISPLAY
290
1
  9
$TDCREATE
 40
45380.411895833
  9
$TDUCREATE
 40
45380.370229167
  9
$TDUPDATE
 40
45380.411895833
  9
$TDUUPDATE
 40
45380.370229167
  9
$TDINDWG
 40
0.0
  9
$TDUSRTIMER
 40
0.0
  9
$USRTIMER
 70
1
  0
ENDSEC
  0
SECTION
  2
TABLES
  0
TABLE
  2
VPORT
  5
1
100
AcDbSymbolTable
 70
1
  0
VPORT
  5
2
100
AcDbSymbolTableRecord
100
AcDbViewportTableRecord
  2
*ACTIVE
 70
0
 10
0.0
 20
0.0
 11
1.0
 21
1.0
 12
7580122.060
 22
5719635.510
 13
0.0
 23
0.0
 14
1.0
 24
1.0
 15
0.0
 25
0.0
 16
0.0
 26
0.0
 36
1.0
 17
0.0
 27
0.0
 37
0.0
 40
577.640
 41
5.214
 42
50.0
 43
0.0
 44
0.0
 50
0.0
 51
0.0
 71
0
 72
100
 73
1
 74
1
 75
0
 76
0
 77
0
 78
0
  0
ENDTAB
  0
TABLE
  2
LTYPE
  5
3
100
AcDbSymbolTable
 70
3
  0
LTYPE
  5
4
100
AcDbSymbolTableRecord
100
AcDbLinetypeTableRecord
  2
ByBlock
 70
0
  3

 72
65
 73
0
 40
0.0
  0
LTYPE
  5
5
100
AcDbSymbolTableRecord
100
AcDbLinetypeTableRecord
  2
ByLayer
 70
0
  3

 72
65
 73
0
 40
0.0
  0
LTYPE
  5
6
100
AcDbSymbolTableRecord
100
AcDbLinetypeTableRecord
  2
CONTINUOUS
 70
0
  3
Solid line
 72
65
 73
0
 40
0.0
  0
ENDTAB
  0
TABLE
  2
LAYER
  5
7
100
AcDbSymbolTable
 70
2
  0
LAYER
  5
8
100
AcDbSymbolTableRecord
100
AcDbLayerTableRecord
  2
0
 70
0
420
0
  6
CONTINUOUS
370
18
390
9
  0
LAYER
  5
A
100
AcDbSymbolTableRecord
100
AcDbLayerTableRecord
  2
dzialka
 70
0
420
0
  6
CONTINUOUS
370
18
390
9
  0
ENDTAB
  0
TABLE
  2
STYLE
  5
B
100
AcDbSymbolTable
 70
2
  0
STYLE
  5
C
100
AcDbSymbolTableRecord
100
AcDbTextStyleTableRecord
  2
STANDARD
 70
0
 40
0.0
 41
1.0
 50
0.0
 71
0
  3
simplex.shx
  4

  0
STYLE
  5
D
100
AcDbSymbolTableRecord
100
AcDbTextStyleTableRecord
  2
STANDARD_ITALIC
 70
0
 40
0.0
 41
1.0
 50
15.0
 71
0
  3
simplex.shx
  4

  0
ENDTAB
  0
TABLE
  2
VIEW
  5
E
100
AcDbSymbolTable
 70
0
  0
ENDTAB
  0
TABLE
  2
UCS
  5
F
100
AcDbSymbolTable
 70
0
  0
ENDTAB
  0
TABLE
  2
APPID
  5
10
100
AcDbSymbolTable
 70
1
  0
APPID
  5
11
100
AcDbSymbolTableRecord
100
AcDbRegAppTableRecord
  2
ACAD
 70
0
  0
ENDTAB
  0
TABLE
  2
DIMSTYLE
  5
12
100
AcDbSymbolTable
 70
1
100
AcDbDimStyleTable
  0
DIMSTYLE
105
13
100
AcDbSymbolTableRecord
100
AcDbDimStyleTableRecord
  2
Standard
 70
0
340
C
  0
ENDTAB
  0
TABLE
  2
BLOCK_RECORD
  5
14
100
AcDbSymbolTable
 70
2
  0
BLOCK_RECORD
  5
15
100
AcDbSymbolTableRecord
100
AcDbBlockTableRecord
  2
*Model_Space
340
16
  0
BLOCK_RECORD
  5
17
100
AcDbSymbolTableRecord
100
AcDbBlockTableRecord
  2
*Paper_Space
340
18
  0
ENDTAB
  0
ENDSEC
  0
SECTION
  2
BLOCKS
  0
BLOCK
  5
19
100
AcDbEntity
  8
0
100
AcDbBlockBegin
  2
*Model_Space
 70
0
 10
0.0
 20
0.0
 30
0.0
  3
*Model_Space
  1

  0
ENDBLK
  5
1A
100
AcDbEntity
  8
0
100
AcDbBlockEnd
  0
BLOCK
  5
1B
100
AcDbEntity
 67
1
  8
0
100
AcDbBlockBegin
  2
*Paper_Space
 70
0
 10
0.0
 20
0.0
 30
0.0
  3
*Paper_Space
  1

  0
ENDBLK
  5
1C
100
AcDbEntity
 67
1
  8
0
100
AcDbBlockEnd
  0
ENDSEC
  0
SECTION
  2
ENTITIES
  0
POLYLINE
  5
1D
100
AcDbEntity
  8
dzialka
  6
CONTINUOUS
370
18
100
AcDb2dPolyline
 66
1
 70
129
  0
VERTEX
  5
1E
100
AcDbEntity
  8
dzialka
100
AcDbVertex
100
AcDb2dVertex
 10
7579201.20999999996
 20
5719849.99000000022
  0
VERTEX
  5
1F
100
AcDbEntity
  8
dzialka
100
AcDbVertex
100
AcDb2dVertex
 10
7579220.41999999993
 20
5719850.66999999993
  0
VERTEX
  5
20
100
AcDbEntity
  8
dzialka
100
AcDbVertex
100
AcDb2dVertex
 10
7579224.24000000022
 20
5719752.48000000045
  0
VERTEX
  5
21
100
AcDbEntity
  8
dzialka
100
AcDbVertex
100
AcDb2dVertex
 10
7579206.12999999989
 20
5719751.83999999985
  0
VERTEX
  5
22
100
AcDbEntity
  8
dzialka
100
AcDbVertex
100
AcDb2dVertex
 10
7579205.91999999993
 20
5719757.38999999966
  0
VERTEX
  5
23
100
AcDbEntity
  8
dzialka
100
AcDbVertex
100
AcDb2dVertex
 10
7579205.5700000003
 20
5719767.23000000045
  0
VERTEX
  5
24
100
AcDbEntity
  8
dzialka
100
AcDbVertex
100
AcDb2dVertex
 10
7579205.20999999996
 20
5719777.12999999989
  0
VERTEX
  5
25
100
AcDbEntity
  8
dzialka
100
AcDbVertex
100
AcDb2dVertex
 10
7579204.84999999963
 20
5719787.0700000003
  0
VERTEX
  5
26
100
AcDbEntity
  8
dzialka
100
AcDbVertex
100
AcDb2dVertex
 10
7579204.48000000045
 20
5719797.05999999959
  0
VERTEX
  5
27
100
AcDbEntity
  8
dzialka
100
AcDbVertex
100
AcDb2dVertex
 10
7579203.79000000004
 20
5719808.34999999963
  0
VERTEX
  5
28
100
AcDbEntity
  8
dzialka
100
AcDbVertex
100
AcDb2dVertex
 10
7579203.16000000015
 20
5719818.63999999966
  0
VERTEX
  5
29
100
AcDbEntity
  8
dzialka
100
AcDbVertex
100
AcDb2dVertex
 10
7579202.84999999963
 20
5719823.51999999955
  0
VERTEX
  5
2A
100
AcDbEntity
  8
dzialka
100
AcDbVertex
100
AcDb2dVertex
 10
7579202.50999999978
 20
5719829.01999999955
  0
VERTEX
  5
2B
100
AcDbEntity
  8
dzialka
100
AcDbVertex
100
AcDb2dVertex
 10
7579202.1799999997
 20
5719834.41999999993
  0
VERTEX
  5
2C
100
AcDbEntity
  8
dzialka
100
AcDbVertex
100
AcDb2dVertex
 10
7579201.83000000007
 20
5719839.95999999996
  0
SEQEND
  5
2D
100
AcDbEntity
  8
dzialka
  0
POLYLINE
  5
2E
100
AcDbEntity
  8
dzialka
  6
CONTINUOUS
370
18
100
AcDb2dPolyline
 66
1
 70
129
  0
VERTEX
  5
2F
100
AcDbEntity
  8
dzialka
100
AcDbVertex
100
AcDb2dVertex
 10
7579205.5700000003
 20
5719767.23000000045
  0
VERTEX
  5
30
100
AcDbEntity
  8
dzialka
100
AcDbVertex
100
AcDb2dVertex
 10
7579205.91999999993
 20
5719757.38999999966
  0
VERTEX
  5
31
100
AcDbEntity
  8
dzialka
100
AcDbVertex
100
AcDb2dVertex
 10
7578938.19000000041
 20
5719749.65000000037
  0
VERTEX
  5
32
100
AcDbEntity
  8
dzialka
100
AcDbVertex
100
AcDb2dVertex
 10
7578938.6799999997
 20
5719754.62999999989
  0
VERTEX
  5
33
100
AcDbEntity
  8
dzialka
100
AcDbVertex
100
AcDb2dVertex
 10
7578939.16999999993
 20
5719759.66000000015
  0
VERTEX
  5
34
100
AcDbEntity
  8
dzialka
100
AcDbVertex
100
AcDb2dVertex
 10
7579094.54999999981
 20
5719764.0700000003
  0
SEQEND
  5
35
100
AcDbEntity
  8
dzialka
  0
POLYLINE
  5
36
100
AcDbEntity
  8
dzialka
  6
CONTINUOUS
370
18
100
AcDb2dPolyline
 66
1
 70
129
  0
VERTEX
  5
37
100
AcDbEntity
  8
dzialka
100
AcDbVertex
100
AcDb2dVertex
 10
7579206.12999999989
 20
5719751.83999999985
  0
VERTEX
  5
38
100
AcDbEntity
  8
dzialka
100
AcDbVertex
100
AcDb2dVertex
 10
7579206.28000000026
 20
5719747.58999999985
  0
VERTEX
  5
39
100
AcDbEntity
  8
dzialka
100
AcDbVertex
100
AcDb2dVertex
 10
7578937.23000000045
 20
5719739.79000000004
  0
VERTEX
  5
3A
100
AcDbEntity
  8
dzialka
100
AcDbVertex
100
AcDb2dVertex
 10
7578938.19000000041
 20
5719749.65000000037
  0
VERTEX
  5
3B
100
AcDbEntity
  8
dzialka
100
AcDbVertex
100
AcDb2dVertex
 10
7579205.91999999993
 20
5719757.38999999966
  0
SEQEND
  5
3C
100
AcDbEntity
  8
dzialka
  0
POLYLINE
  5
3D
100
AcDbEntity
  8
dzialka
  6
CONTINUOUS
370
18
100
AcDb2dPolyline
 66
1
 70
129
  0
VERTEX
  5
3E
100
AcDbEntity
  8
dzialka
100
AcDbVertex
100
AcDb2dVertex
 10
7578939.16999999993
 20
5719759.66000000015
  0
VERTEX
  5
3F
100
AcDbEntity
  8
dzialka
100
AcDbVertex
100
AcDb2dVertex
 10
7578938.6799999997
 20
5719754.62999999989
  0
VERTEX
  5
40
100
AcDbEntity
  8
dzialka
100
AcDbVertex
100
AcDb2dVertex
 10
7578671.25999999978
 20
5719747.58000000007
  0
VERTEX
  5
41
100
AcDbEntity
  8
dzialka
100
AcDbVertex
100
AcDb2dVertex
 10
7578672.46999999974
 20
5719752.58000000007
  0
SEQEND
  5
42
100
AcDbEntity
  8
dzialka
  0
POLYLINE
  5
43
100
AcDbEntity
  8
dzialka
  6
CONTINUOUS
370
18
100
AcDb2dPolyline
 66
1
 70
129
  0
VERTEX
  5
44
100
AcDbEntity
  8
dzialka
100
AcDbVertex
100
AcDb2dVertex
 10
7578938.6799999997
 20
5719754.62999999989
  0
VERTEX
  5
45
100
AcDbEntity
  8
dzialka
100
AcDbVertex
100
AcDb2dVertex
 10
7578938.19000000041
 20
5719749.65000000037
  0
VERTEX
  5
46
100
AcDbEntity
  8
dzialka
100
AcDbVertex
100
AcDb2dVertex
 10
7578670.0700000003
 20
5719742.66999999993
  0
VERTEX
  5
47
100
AcDbEntity
  8
dzialka
100
AcDbVertex
100
AcDb2dVertex
 10
7578671.25999999978
 20
5719747.58000000007
  0
SEQEND
  5
48
100
AcDbEntity
  8
dzialka
  0
POLYLINE
  5
49
100
AcDbEntity
  8
dzialka
  6
CONTINUOUS
370
18
100
AcDb2dPolyline
 66
1
 70
129
  0
VERTEX
  5
4A
100
AcDbEntity
  8
dzialka
100
AcDbVertex
100
AcDb2dVertex
 10
7578938.19000000041
 20
5719749.65000000037
  0
VERTEX
  5
4B
100
AcDbEntity
  8
dzialka
100
AcDbVertex
100
AcDb2dVertex
 10
7578937.23000000045
 20
5719739.79000000004
  0
VERTEX
  5
4C
100
AcDbEntity
  8
dzialka
100
AcDbVertex
100
AcDb2dVertex
 10
7578667.69000000041
 20
5719732.84999999963
  0
VERTEX
  5
4D
100
AcDbEntity
  8
dzialka
100
AcDbVertex
100
AcDb2dVertex
 10
7578670.0700000003
 20
5719742.66999999993
  0
SEQEND
  5
4E
100
AcDbEntity
  8
dzialka
  0
POLYLINE
  5
4F
100
AcDbEntity
  8
dzialka
  6
CONTINUOUS
370
18
100
AcDb2dPolyline
 66
1
 70
129
  0
VERTEX
  5
50
100
AcDbEntity
  8
dzialka
100
AcDbVertex
100
AcDb2dVertex
 10
7578937.23000000045
 20
5719739.79000000004
  0
VERTEX
  5
51
100
AcDbEntity
  8
dzialka
100
AcDbVertex
100
AcDb2dVertex
 10
7579206.28000000026
 20
5719747.58999999985
  0
VERTEX
  5
52
100
AcDbEntity
  8
dzialka
100
AcDbVertex
100
AcDb2dVertex
 10
7579206.63999999966
 20
5719737.83999999985
  0
VERTEX
  5
53
100
AcDbEntity
  8
dzialka
100
AcDbVertex
100
AcDb2dVertex
 10
7578936.25999999978
 20
5719729.94000000041
  0
VERTEX
  5
54
100
AcDbEntity
  8
dzialka
100
AcDbVertex
100
AcDb2dVertex
 10
7578665.29999999981
 20
5719723.04999999981
  0
VERTEX
  5
55
100
AcDbEntity
  8
dzialka
100
AcDbVertex
100
AcDb2dVertex
 10
7578667.69000000041
 20
5719732.84999999963
  0
SEQEND
  5
56
100
AcDbEntity
  8
dzialka
  0
POLYLINE
  5
57
100
AcDbEntity
  8
dzialka
  6
CONTINUOUS
370
18
100
AcDb2dPolyline
 66
1
 70
129
  0
VERTEX
  5
58
100
AcDbEntity
  8
dzialka
100
AcDbVertex
100
AcDb2dVertex
 10
7578665.29999999981
 20
5719723.04999999981
  0
VERTEX
  5
59
100
AcDbEntity
  8
dzialka
100
AcDbVertex
100
AcDb2dVertex
 10
7578936.25999999978
 20
5719729.94000000041
  0
VERTEX
  5
5A
100
AcDbEntity
  8
dzialka
100
AcDbVertex
100
AcDb2dVertex
 10
7578935.30999999959
 20
5719720.12000000011
  0
VERTEX
  5
5B
100
AcDbEntity
  8
dzialka
100
AcDbVertex
100
AcDb2dVertex
 10
7578662.9299999997
 20
5719713.28000000026
  0
SEQEND
  5
5C
100
AcDbEntity
  8
dzialka
  0
POLYLINE
  5
5D
100
AcDbEntity
  8
dzialka
  6
CONTINUOUS
370
18
100
AcDb2dPolyline
 66
1
 70
129
  0
VERTEX
  5
5E
100
AcDbEntity
  8
dzialka
100
AcDbVertex
100
AcDb2dVertex
 10
7578936.25999999978
 20
5719729.94000000041
  0
VERTEX
  5
5F
100
AcDbEntity
  8
dzialka
100
AcDbVertex
100
AcDb2dVertex
 10
7579206.63999999966
 20
5719737.83999999985
  0
VERTEX
  5
60
100
AcDbEntity
  8
dzialka
100
AcDbVertex
100
AcDb2dVertex
 10
7579206.99000000022
 20
5719728.11000000034
  0
VERTEX
  5
61
100
AcDbEntity
  8
dzialka
100
AcDbVertex
100
AcDb2dVertex
 10
7578935.30999999959
 20
5719720.12000000011
  0
SEQEND
  5
62
100
AcDbEntity
  8
dzialka
  0
POLYLINE
  5
63
100
AcDbEntity
  8
dzialka
  6
CONTINUOUS
370
18
100
AcDb2dPolyline
 66
1
 70
129
  0
VERTEX
  5
64
100
AcDbEntity
  8
dzialka
100
AcDbVertex
100
AcDb2dVertex
 10
7578662.9299999997
 20
5719713.28000000026
  0
VERTEX
  5
65
100
AcDbEntity
  8
dzialka
100
AcDbVertex
100
AcDb2dVertex
 10
7578935.30999999959
 20
5719720.12000000011
  0
VERTEX
  5
66
100
AcDbEntity
  8
dzialka
100
AcDbVertex
100
AcDb2dVertex
 10
7578934.8200000003
 20
5719715.20000000019
  0
VERTEX
  5
67
100
AcDbEntity
  8
dzialka
100
AcDbVertex
100
AcDb2dVertex
 10
7578934.34999999963
 20
5719710.25999999978
  0
VERTEX
  5
68
100
AcDbEntity
  8
dzialka
100
AcDbVertex
100
AcDb2dVertex
 10
7578660.55999999959
 20
5719703.50999999978
  0
SEQEND
  5
69
100
AcDbEntity
  8
dzialka
  0
POLYLINE
  5
6A
100
AcDbEntity
  8
dzialka
  6
CONTINUOUS
370
18
100
AcDb2dPolyline
 66
1
 70
129
  0
VERTEX
  5
6B
100
AcDbEntity
  8
dzialka
100
AcDbVertex
100
AcDb2dVertex
 10
7578935.30999999959
 20
5719720.12000000011
  0
VERTEX
  5
6C
100
AcDbEntity
  8
dzialka
100
AcDbVertex
100
AcDb2dVertex
 10
7579206.99000000022
 20
5719728.11000000034
  0
VERTEX
  5
6D
100
AcDbEntity
  8
dzialka
100
AcDbVertex
100
AcDb2dVertex
 10
7579207.16999999993
 20
5719723.25999999978
  0
VERTEX
  5
6E
100
AcDbEntity
  8
dzialka
100
AcDbVertex
100
AcDb2dVertex
 10
7578934.8200000003
 20
5719715.20000000019
  0
SEQEND
  5
6F
100
AcDbEntity
  8
dzialka
  0
POLYLINE
  5
70
100
AcDbEntity
  8
dzialka
  6
CONTINUOUS
370
18
100
AcDb2dPolyline
 66
1
 70
129
  0
VERTEX
  5
71
100
AcDbEntity
  8
dzialka
100
AcDbVertex
100
AcDb2dVertex
 10
7578934.8200000003
 20
5719715.20000000019
  0
VERTEX
  5
72
100
AcDbEntity
  8
dzialka
100
AcDbVertex
100
AcDb2dVertex
 10
7579207.16999999993
 20
5719723.25999999978
  0
VERTEX
  5
73
100
AcDbEntity
  8
dzialka
100
AcDbVertex
100
AcDb2dVertex
 10
7579207.34999999963
 20
5719718.41000000015
  0
VERTEX
  5
74
100
AcDbEntity
  8
dzialka
100
AcDbVertex
100
AcDb2dVertex
 10
7578934.34999999963
 20
5719710.25999999978
  0
SEQEND
  5
75
100
AcDbEntity
  8
dzialka
  0
POLYLINE
  5
76
100
AcDbEntity
  8
dzialka
  6
CONTINUOUS
370
18
100
AcDb2dPolyline
 66
1
 70
129
  0
VERTEX
  5
77
100
AcDbEntity
  8
dzialka
100
AcDbVertex
100
AcDb2dVertex
 10
7578934.34999999963
 20
5719710.25999999978
  0
VERTEX
  5
78
100
AcDbEntity
  8
dzialka
100
AcDbVertex
100
AcDb2dVertex
 10
7579207.34999999963
 20
5719718.41000000015
  0
VERTEX
  5
79
100
AcDbEntity
  8
dzialka
100
AcDbVertex
100
AcDb2dVertex
 10
7579207.69000000041
 20
5719708.75999999978
  0
VERTEX
  5
7A
100
AcDbEntity
  8
dzialka
100
AcDbVertex
100
AcDb2dVertex
 10
7579115.74000000022
 20
5719705.99000000022
  0
VERTEX
  5
7B
100
AcDbEntity
  8
dzialka
100
AcDbVertex
100
AcDb2dVertex
 10
7578933.37999999989
 20
5719700.45999999996
  0
SEQEND
  5
7C
100
AcDbEntity
  8
dzialka
  0
POLYLINE
  5
7D
100
AcDbEntity
  8
dzialka
  6
CONTINUOUS
370
18
100
AcDb2dPolyline
 66
1
 70
129
  0
VERTEX
  5
7E
100
AcDbEntity
  8
dzialka
100
AcDbVertex
100
AcDb2dVertex
 10
7578933.37999999989
 20
5719700.45999999996
  0
VERTEX
  5
7F
100
AcDbEntity
  8
dzialka
100
AcDbVertex
100
AcDb2dVertex
 10
7579115.74000000022
 20
5719705.99000000022
  0
VERTEX
  5
80
100
AcDbEntity
  8
dzialka
100
AcDbVertex
100
AcDb2dVertex
 10
7579116.03000000026
 20
5719696.34999999963
  0
VERTEX
  5
81
100
AcDbEntity
  8
dzialka
100
AcDbVertex
100
AcDb2dVertex
 10
7578932.44000000041
 20
5719690.70000000019
  0
SEQEND
  5
82
100
AcDbEntity
  8
dzialka
  0
POLYLINE
  5
83
100
AcDbEntity
  8
dzialka
  6
CONTINUOUS
370
18
100
AcDb2dPolyline
 66
1
 70
129
  0
VERTEX
  5
84
100
AcDbEntity
  8
dzialka
100
AcDbVertex
100
AcDb2dVertex
 10
7579207.69000000041
 20
5719708.75999999978
  0
VERTEX
  5
85
100
AcDbEntity
  8
dzialka
100
AcDbVertex
100
AcDb2dVertex
 10
7579208.04999999981
 20
5719699.16999999993
  0
VERTEX
  5
86
100
AcDbEntity
  8
dzialka
100
AcDbVertex
100
AcDb2dVertex
 10
7579116.03000000026
 20
5719696.34999999963
  0
VERTEX
  5
87
100
AcDbEntity
  8
dzialka
100
AcDbVertex
100
AcDb2dVertex
 10
7579115.74000000022
 20
5719705.99000000022
  0
SEQEND
  5
88
100
AcDbEntity
  8
dzialka
  0
POLYLINE
  5
89
100
AcDbEntity
  8
dzialka
  6
CONTINUOUS
370
18
100
AcDb2dPolyline
 66
1
 70
129
  0
VERTEX
  5
8A
100
AcDbEntity
  8
dzialka
100
AcDbVertex
100
AcDb2dVertex
 10
7578932.44000000041
 20
5719690.70000000019
  0
VERTEX
  5
8B
100
AcDbEntity
  8
dzialka
100
AcDbVertex
100
AcDb2dVertex
 10
7579116.03000000026
 20
5719696.34999999963
  0
VERTEX
  5
8C
100
AcDbEntity
  8
dzialka
100
AcDbVertex
100
AcDb2dVertex
 10
7579208.04999999981
 20
5719699.16999999993
  0
VERTEX
  5
8D
100
AcDbEntity
  8
dzialka
100
AcDbVertex
100
AcDb2dVertex
 10
7579208.38999999966
 20
5719689.62000000011
  0
VERTEX
  5
8E
100
AcDbEntity
  8
dzialka
100
AcDbVertex
100
AcDb2dVertex
 10
7578931.49000000022
 20
5719680.99000000022
  0
SEQEND
  5
8F
100
AcDbEntity
  8
dzialka
  0
POLYLINE
  5
90
100
AcDbEntity
  8
dzialka
  6
CONTINUOUS
370
18
100
AcDb2dPolyline
 66
1
 70
129
  0
VERTEX
  5
91
100
AcDbEntity
  8
dzialka
100
AcDbVertex
100
AcDb2dVertex
 10
7578931.49000000022
 20
5719680.99000000022
  0
VERTEX
  5
92
100
AcDbEntity
  8
dzialka
100
AcDbVertex
100
AcDb2dVertex
 10
7579208.38999999966
 20
5719689.62000000011
  0
VERTEX
  5
93
100
AcDbEntity
  8
dzialka
100
AcDbVertex
100
AcDb2dVertex
 10
7579208.74000000022
 20
5719680.13999999966
  0
VERTEX
  5
94
100
AcDbEntity
  8
dzialka
100
AcDbVertex
100
AcDb2dVertex
 10
7578930.54000000004
 20
5719671.33000000007
  0
SEQEND
  5
95
100
AcDbEntity
  8
dzialka
  0
POLYLINE
  5
96
100
AcDbEntity
  8
dzialka
  6
CONTINUOUS
370
18
100
AcDb2dPolyline
 66
1
 70
129
  0
VERTEX
  5
97
100
AcDbEntity
  8
dzialka
100
AcDbVertex
100
AcDb2dVertex
 10
7578930.54000000004
 20
5719671.33000000007
  0
VERTEX
  5
98
100
AcDbEntity
  8
dzialka
100
AcDbVertex
100
AcDb2dVertex
 10
7579208.74000000022
 20
5719680.13999999966
  0
VERTEX
  5
99
100
AcDbEntity
  8
dzialka
100
AcDbVertex
100
AcDb2dVertex
 10
7579209.08000000007
 20
5719670.63999999966
  0
VERTEX
  5
9A
100
AcDbEntity
  8
dzialka
100
AcDbVertex
100
AcDb2dVertex
 10
7578929.61000000034
 20
5719661.71999999974
  0
SEQEND
  5
9B
100
AcDbEntity
  8
dzialka
  0
POLYLINE
  5
9C
100
AcDbEntity
  8
dzialka
  6
CONTINUOUS
370
18
100
AcDb2dPolyline
 66
1
 70
129
  0
VERTEX
  5
9D
100
AcDbEntity
  8
dzialka
100
AcDbVertex
100
AcDb2dVertex
 10
7578929.61000000034
 20
5719661.71999999974
  0
VERTEX
  5
9E
100
AcDbEntity
  8
dzialka
100
AcDbVertex
100
AcDb2dVertex
 10
7579209.08000000007
 20
5719670.63999999966
  0
VERTEX
  5
9F
100
AcDbEntity
  8
dzialka
100
AcDbVertex
100
AcDb2dVertex
 10
7579209.4299999997
 20
5719661.19000000041
  0
VERTEX
  5
A0
100
AcDbEntity
  8
dzialka
100
AcDbVertex
100
AcDb2dVertex
 10
7578928.66999999993
 20
5719652.16000000015
  0
SEQEND
  5
A1
100
AcDbEntity
  8
dzialka
  0
POLYLINE
  5
A2
100
AcDbEntity
  8
dzialka
  6
CONTINUOUS
370
18
100
AcDb2dPolyline
 66
1
 70
129
  0
VERTEX
  5
A3
100
AcDbEntity
  8
dzialka
100
AcDbVertex
100
AcDb2dVertex
 10
7578928.66999999993
 20
5719652.16000000015
  0
VERTEX
  5
A4
100
AcDbEntity
  8
dzialka
100
AcDbVertex
100
AcDb2dVertex
 10
7579209.4299999997
 20
5719661.19000000041
  0
VERTEX
  5
A5
100
AcDbEntity
  8
dzialka
100
AcDbVertex
100
AcDb2dVertex
 10
7579209.45000000019
 20
5719660.5
  0
VERTEX
  5
A6
100
AcDbEntity
  8
dzialka
100
AcDbVertex
100
AcDb2dVertex
 10
7579209.76999999955
 20
5719651.70000000019
  0
VERTEX
  5
A7
100
AcDbEntity
  8
dzialka
100
AcDbVertex
100
AcDb2dVertex
 10
7578927.75
 20
5719642.66000000015
  0
SEQEND
  5
A8
100
AcDbEntity
  8
dzialka
  0
POLYLINE
  5
A9
100
AcDbEntity
  8
dzialka
  6
CONTINUOUS
370
18
100
AcDb2dPolyline
 66
1
 70
129
  0
VERTEX
  5
AA
100
AcDbEntity
  8
dzialka
100
AcDbVertex
100
AcDb2dVertex
 10
7578927.75
 20
5719642.66000000015
  0
VERTEX
  5
AB
100
AcDbEntity
  8
dzialka
100
AcDbVertex
100
AcDb2dVertex
 10
7579209.76999999955
 20
5719651.70000000019
  0
VERTEX
  5
AC
100
AcDbEntity
  8
dzialka
100
AcDbVertex
100
AcDb2dVertex
 10
7579210.12000000011
 20
5719642.25
  0
VERTEX
  5
AD
100
AcDbEntity
  8
dzialka
100
AcDbVertex
100
AcDb2dVertex
 10
7578956.75
 20
5719634.15000000037
  0
VERTEX
  5
AE
100
AcDbEntity
  8
dzialka
100
AcDbVertex
100
AcDb2dVertex
 10
7578926.8200000003
 20
5719633.19000000041
  0
SEQEND
  5
AF
100
AcDbEntity
  8
dzialka
  0
POLYLINE
  5
B0
100
AcDbEntity
  8
dzialka
  6
CONTINUOUS
370
18
100
AcDb2dPolyline
 66
1
 70
129
  0
VERTEX
  5
B1
100
AcDbEntity
  8
dzialka
100
AcDbVertex
100
AcDb2dVertex
 10
7579210.12000000011
 20
5719642.25
  0
VERTEX
  5
B2
100
AcDbEntity
  8
dzialka
100
AcDbVertex
100
AcDb2dVertex
 10
7579210.45999999996
 20
5719632.87000000011
  0
VERTEX
  5
B3
100
AcDbEntity
  8
dzialka
100
AcDbVertex
100
AcDb2dVertex
 10
7578957.04999999981
 20
5719624.73000000045
  0
VERTEX
  5
B4
100
AcDbEntity
  8
dzialka
100
AcDbVertex
100
AcDb2dVertex
 10
7578956.75
 20
5719634.15000000037
  0
SEQEND
  5
B5
100
AcDbEntity
  8
dzialka
  0
POLYLINE
  5
B6
100
AcDbEntity
  8
dzialka
  6
CONTINUOUS
370
18
100
AcDb2dPolyline
 66
1
 70
129
  0
VERTEX
  5
B7
100
AcDbEntity
  8
dzialka
100
AcDbVertex
100
AcDb2dVertex
 10
7579210.45999999996
 20
5719632.87000000011
  0
VERTEX
  5
B8
100
AcDbEntity
  8
dzialka
100
AcDbVertex
100
AcDb2dVertex
 10
7579210.62999999989
 20
5719628.26999999955
  0
VERTEX
  5
B9
100
AcDbEntity
  8
dzialka
100
AcDbVertex
100
AcDb2dVertex
 10
7578925.44000000041
 20
5719619.01999999955
  0
VERTEX
  5
BA
100
AcDbEntity
  8
dzialka
100
AcDbVertex
100
AcDb2dVertex
 10
7578925.90000000037
 20
5719623.73000000045
  0
VERTEX
  5
BB
100
AcDbEntity
  8
dzialka
100
AcDbVertex
100
AcDb2dVertex
 10
7578957.04999999981
 20
5719624.73000000045
  0
SEQEND
  5
BC
100
AcDbEntity
  8
dzialka
  0
POLYLINE
  5
BD
100
AcDbEntity
  8
dzialka
  6
CONTINUOUS
370
18
100
AcDb2dPolyline
 66
1
 70
129
  0
VERTEX
  5
BE
100
AcDbEntity
  8
dzialka
100
AcDbVertex
100
AcDb2dVertex
 10
7578925.44000000041
 20
5719619.01999999955
  0
VERTEX
  5
BF
100
AcDbEntity
  8
dzialka
100
AcDbVertex
100
AcDb2dVertex
 10
7579210.62999999989
 20
5719628.26999999955
  0
VERTEX
  5
C0
100
AcDbEntity
  8
dzialka
100
AcDbVertex
100
AcDb2dVertex
 10
7579210.79999999981
 20
5719623.51999999955
  0
VERTEX
  5
C1
100
AcDbEntity
  8
dzialka
100
AcDbVertex
100
AcDb2dVertex
 10
7578924.98000000045
 20
5719614.3200000003
  0
SEQEND
  5
C2
100
AcDbEntity
  8
dzialka
  0
POLYLINE
  5
C3
100
AcDbEntity
  8
dzialka
  6
CONTINUOUS
370
18
100
AcDb2dPolyline
 66
1
 70
129
  0
VERTEX
  5
C4
100
AcDbEntity
  8
dzialka
100
AcDbVertex
100
AcDb2dVertex
 10
7578924.98000000045
 20
5719614.3200000003
  0
VERTEX
  5
C5
100
AcDbEntity
  8
dzialka
100
AcDbVertex
100
AcDb2dVertex
 10
7579210.79999999981
 20
5719623.51999999955
  0
VERTEX
  5
C6
100
AcDbEntity
  8
dzialka
100
AcDbVertex
100
AcDb2dVertex
 10
7579211.13999999966
 20
5719614.21999999974
  0
VERTEX
  5
C7
100
AcDbEntity
  8
dzialka
100
AcDbVertex
100
AcDb2dVertex
 10
7578924.05999999959
 20
5719604.95999999996
  0
SEQEND
  5
C8
100
AcDbEntity
  8
dzialka
  0
POLYLINE
  5
C9
100
AcDbEntity
  8
dzialka
  6
CONTINUOUS
420
255
370
18
100
AcDb2dPolyline
 66
1
 70
129
  0
VERTEX
  5
CA
100
AcDbEntity
  8
dzialka
100
AcDbVertex
100
AcDb2dVertex
 10
7578924.05999999959
 20
5719604.95999999996
  0
VERTEX
  5
CB
100
AcDbEntity
  8
dzialka
100
AcDbVertex
100
AcDb2dVertex
 10
7579211.13999999966
 20
5719614.21999999974
  0
VERTEX
  5
CC
100
AcDbEntity
  8
dzialka
100
AcDbVertex
100
AcDb2dVertex
 10
7579211.25
 20
5719611.12999999989
  0
VERTEX
  5
CD
100
AcDbEntity
  8
dzialka
100
AcDbVertex
100
AcDb2dVertex
 10
7578923.65000000037
 20
5719600.78000000026
  0
VERTEX
  5
CE
100
AcDbEntity
  8
dzialka
100
AcDbVertex
100
AcDb2dVertex
 10
7578730.51999999955
 20
5719595.6799999997
  0
VERTEX
  5
CF
100
AcDbEntity
  8
dzialka
100
AcDbVertex
100
AcDb2dVertex
 10
7578694.45999999996
 20
5719599.54999999981
  0
SEQEND
  5
D0
100
AcDbEntity
  8
dzialka
  0
POLYLINE
  5
D1
100
AcDbEntity
  8
dzialka
  6
CONTINUOUS
370
18
100
AcDb2dPolyline
 66
1
 70
129
  0
VERTEX
  5
D2
100
AcDbEntity
  8
dzialka
100
AcDbVertex
100
AcDb2dVertex
 10
7578923.65000000037
 20
5719600.78000000026
  0
VERTEX
  5
D3
100
AcDbEntity
  8
dzialka
100
AcDbVertex
100
AcDb2dVertex
 10
7579211.25
 20
5719611.12999999989
  0
VERTEX
  5
D4
100
AcDbEntity
  8
dzialka
100
AcDbVertex
100
AcDb2dVertex
 10
7579211.48000000045
 20
5719604.98000000045
  0
VERTEX
  5
D5
100
AcDbEntity
  8
dzialka
100
AcDbVertex
100
AcDb2dVertex
 10
7578923.16000000015
 20
5719595.70000000019
  0
VERTEX
  5
D6
100
AcDbEntity
  8
dzialka
100
AcDbVertex
100
AcDb2dVertex
 10
7578766.6799999997
 20
5719592.08000000007
  0
VERTEX
  5
D7
100
AcDbEntity
  8
dzialka
100
AcDbVertex
100
AcDb2dVertex
 10
7578735.88999999966
 20
5719595.11000000034
  0
VERTEX
  5
D8
100
AcDbEntity
  8
dzialka
100
AcDbVertex
100
AcDb2dVertex
 10
7578730.51999999955
 20
5719595.6799999997
  0
SEQEND
  5
D9
100
AcDbEntity
  8
dzialka
  0
POLYLINE
  5
DA
100
AcDbEntity
  8
dzialka
  6
CONTINUOUS
370
18
100
AcDb2dPolyline
 66
1
 70
129
  0
VERTEX
  5
DB
100
AcDbEntity
  8
dzialka
100
AcDbVertex
100
AcDb2dVertex
 10
7578923.16000000015
 20
5719595.70000000019
  0
VERTEX
  5
DC
100
AcDbEntity
  8
dzialka
100
AcDbVertex
100
AcDb2dVertex
 10
7579211.48000000045
 20
5719604.98000000045
  0
VERTEX
  5
DD
100
AcDbEntity
  8
dzialka
100
AcDbVertex
100
AcDb2dVertex
 10
7579211.63999999966
 20
5719600.37999999989
  0
VERTEX
  5
DE
100
AcDbEntity
  8
dzialka
100
AcDbVertex
100
AcDb2dVertex
 10
7579067.66999999993
 20
5719595.75999999978
  0
VERTEX
  5
DF
100
AcDbEntity
  8
dzialka
100
AcDbVertex
100
AcDb2dVertex
 10
7578922.70999999996
 20
5719591.12000000011
  0
SEQEND
  5
E0
100
AcDbEntity
  8
dzialka
  0
POLYLINE
  5
E1
100
AcDbEntity
  8
dzialka
  6
CONTINUOUS
370
18
100
AcDb2dPolyline
 66
1
 70
129
  0
VERTEX
  5
E2
100
AcDbEntity
  8
dzialka
100
AcDbVertex
100
AcDb2dVertex
 10
7579211.80999999959
 20
5719595.78000000026
  0
VERTEX
  5
E3
100
AcDbEntity
  8
dzialka
100
AcDbVertex
100
AcDb2dVertex
 10
7579212.13999999966
 20
5719586.62999999989
  0
VERTEX
  5
E4
100
AcDbEntity
  8
dzialka
100
AcDbVertex
100
AcDb2dVertex
 10
7579036.80999999959
 20
5719581.04999999981
  0
VERTEX
  5
E5
100
AcDbEntity
  8
dzialka
100
AcDbVertex
100
AcDb2dVertex
 10
7578921.37000000011
 20
5719577.37999999989
  0
VERTEX
  5
E6
100
AcDbEntity
  8
dzialka
100
AcDbVertex
100
AcDb2dVertex
 10
7578922.25999999978
 20
5719586.53000000026
  0
VERTEX
  5
E7
100
AcDbEntity
  8
dzialka
100
AcDbVertex
100
AcDb2dVertex
 10
7579067.83999999985
 20
5719591.1799999997
  0
SEQEND
  5
E8
100
AcDbEntity
  8
dzialka
  0
POLYLINE
  5
E9
100
AcDbEntity
  8
dzialka
  6
CONTINUOUS
370
18
100
AcDb2dPolyline
 66
1
 70
129
  0
VERTEX
  5
EA
100
AcDbEntity
  8
dzialka
100
AcDbVertex
100
AcDb2dVertex
 10
7578921.37000000011
 20
5719577.37999999989
  0
VERTEX
  5
EB
100
AcDbEntity
  8
dzialka
100
AcDbVertex
100
AcDb2dVertex
 10
7579036.80999999959
 20
5719581.04999999981
  0
VERTEX
  5
EC
100
AcDbEntity
  8
dzialka
100
AcDbVertex
100
AcDb2dVertex
 10
7579037.09999999963
 20
5719571.84999999963
  0
VERTEX
  5
ED
100
AcDbEntity
  8
dzialka
100
AcDbVertex
100
AcDb2dVertex
 10
7578961.21999999974
 20
5719569.38999999966
  0
VERTEX
  5
EE
100
AcDbEntity
  8
dzialka
100
AcDbVertex
100
AcDb2dVertex
 10
7578947.30999999959
 20
5719570.99000000022
  0
VERTEX
  5
EF
100
AcDbEntity
  8
dzialka
100
AcDbVertex
100
AcDb2dVertex
 10
7578921.08000000007
 20
5719574.38999999966
  0
VERTEX
  5
F0
100
AcDbEntity
  8
dzialka
100
AcDbVertex
100
AcDb2dVertex
 10
7578900.20000000019
 20
5719577.08999999985
  0
SEQEND
  5
F1
100
AcDbEntity
  8
dzialka
  0
POLYLINE
  5
F2
100
AcDbEntity
  8
dzialka
  6
CONTINUOUS
370
18
100
AcDb2dPolyline
 66
1
 70
129
  0
VERTEX
  5
F3
100
AcDbEntity
  8
dzialka
100
AcDbVertex
100
AcDb2dVertex
 10
7579212.13999999966
 20
5719586.62999999989
  0
VERTEX
  5
F4
100
AcDbEntity
  8
dzialka
100
AcDbVertex
100
AcDb2dVertex
 10
7579212.48000000045
 20
5719577.54999999981
  0
VERTEX
  5
F5
100
AcDbEntity
  8
dzialka
100
AcDbVertex
100
AcDb2dVertex
 10
7579037.09999999963
 20
5719571.84999999963
  0
VERTEX
  5
F6
100
AcDbEntity
  8
dzialka
100
AcDbVertex
100
AcDb2dVertex
 10
7579036.80999999959
 20
5719581.04999999981
  0
SEQEND
  5
F7
100
AcDbEntity
  8
dzialka
  0
POLYLINE
  5
F8
100
AcDbEntity
  8
dzialka
  6
CONTINUOUS
370
18
100
AcDb2dPolyline
 66
1
 70
129
  0
VERTEX
  5
F9
100
AcDbEntity
  8
dzialka
100
AcDbVertex
100
AcDb2dVertex
 10
7578961.21999999974
 20
5719569.38999999966
  0
VERTEX
  5
FA
100
AcDbEntity
  8
dzialka
100
AcDbVertex
100
AcDb2dVertex
 10
7579037.09999999963
 20
5719571.84999999963
  0
VERTEX
  5
FB
100
AcDbEntity
  8
dzialka
100
AcDbVertex
100
AcDb2dVertex
 10
7579212.48000000045
 20
5719577.54999999981
  0
VERTEX
  5
FC
100
AcDbEntity
  8
dzialka
100
AcDbVertex
100
AcDb2dVertex
 10
7579212.63999999966
 20
5719573.04999999981
  0
VERTEX
  5
FD
100
AcDbEntity
  8
dzialka
100
AcDbVertex
100
AcDb2dVertex
 10
7578994.70000000019
 20
5719565.53000000026
  0
SEQEND
  5
FE
100
AcDbEntity
  8
dzialka
  0
POLYLINE
  5
FF
100
AcDbEntity
  8
dzialka
  6
CONTINUOUS
370
18
100
AcDb2dPolyline
 66
1
 70
129
  0
VERTEX
  5
100
100
AcDbEntity
  8
dzialka
100
AcDbVertex
100
AcDb2dVertex
 10
7579212.63999999966
 20
5719573.04999999981
  0
VERTEX
  5
101
100
AcDbEntity
  8
dzialka
100
AcDbVertex
100
AcDb2dVertex
 10
7579212.79999999981
 20
5719568.5
  0
VERTEX
  5
102
100
AcDbEntity
  8
dzialka
100
AcDbVertex
100
AcDb2dVertex
 10
7579027.96999999974
 20
5719561.6799999997
  0
VERTEX
  5
103
100
AcDbEntity
  8
dzialka
100
AcDbVertex
100
AcDb2dVertex
 10
7578994.70000000019
 20
5719565.53000000026
  0
SEQEND
  5
104
100
AcDbEntity
  8
dzialka
  0
POLYLINE
  5
105
100
AcDbEntity
  8
dzialka
  6
CONTINUOUS
370
18
100
AcDb2dPolyline
 66
1
 70
129
  0
VERTEX
  5
106
100
AcDbEntity
  8
dzialka
100
AcDbVertex
100
AcDb2dVertex
 10
7579212.79999999981
 20
5719568.5
  0
VERTEX
  5
107
100
AcDbEntity
  8
dzialka
100
AcDbVertex
100
AcDb2dVertex
 10
7579212.8200000003
 20
5719567.84999999963
  0
VERTEX
  5
108
100
AcDbEntity
  8
dzialka
100
AcDbVertex
100
AcDb2dVertex
 10
7579213.12999999989
 20
5719559.50999999978
  0
VERTEX
  5
109
100
AcDbEntity
  8
dzialka
100
AcDbVertex
100
AcDb2dVertex
 10
7579090.65000000037
 20
5719554.63999999966
  0
VERTEX
  5
10A
100
AcDbEntity
  8
dzialka
100
AcDbVertex
100
AcDb2dVertex
 10
7579043.87000000011
 20
5719559.84999999963
  0
VERTEX
  5
10B
100
AcDbEntity
  8
dzialka
100
AcDbVertex
100
AcDb2dVertex
 10
7579027.96999999974
 20
5719561.6799999997
  0
SEQEND
  5
10C
100
AcDbEntity
  8
dzialka
  0
POLYLINE
  5
10D
100
AcDbEntity
  8
dzialka
  6
CONTINUOUS
370
18
100
AcDb2dPolyline
 66
1
 70
129
  0
VERTEX
  5
10E
100
AcDbEntity
  8
dzialka
100
AcDbVertex
100
AcDb2dVertex
 10
7579213.12999999989
 20
5719559.50999999978
  0
VERTEX
  5
10F
100
AcDbEntity
  8
dzialka
100
AcDbVertex
100
AcDb2dVertex
 10
7579213.45000000019
 20
5719550.55999999959
  0
VERTEX
  5
110
100
AcDbEntity
  8
dzialka
100
AcDbVertex
100
AcDb2dVertex
 10
7579173.4299999997
 20
5719545.23000000045
  0
VERTEX
  5
111
100
AcDbEntity
  8
dzialka
100
AcDbVertex
100
AcDb2dVertex
 10
7579159.28000000026
 20
5719546.99000000022
  0
VERTEX
  5
112
100
AcDbEntity
  8
dzialka
100
AcDbVertex
100
AcDb2dVertex
 10
7579090.65000000037
 20
5719554.63999999966
  0
SEQEND
  5
113
100
AcDbEntity
  8
dzialka
  0
POLYLINE
  5
114
100
AcDbEntity
  8
dzialka
  6
CONTINUOUS
370
18
100
AcDb2dPolyline
 66
1
 70
129
  0
VERTEX
  5
115
100
AcDbEntity
  8
dzialka
100
AcDbVertex
100
AcDb2dVertex
 10
7579213.45000000019
 20
5719550.55999999959
  0
VERTEX
  5
116
100
AcDbEntity
  8
dzialka
100
AcDbVertex
100
AcDb2dVertex
 10
7579213.83000000007
 20
5719540.20999999996
  0
VERTEX
  5
117
100
AcDbEntity
  8
dzialka
100
AcDbVertex
100
AcDb2dVertex
 10
7579173.4299999997
 20
5719545.23000000045
  0
SEQEND
  5
118
100
AcDbEntity
  8
dzialka
  0
POLYLINE
  5
119
100
AcDbEntity
  8
dzialka
  6
CONTINUOUS
370
18
100
AcDb2dPolyline
 66
1
 70
129
  0
VERTEX
  5
11A
100
AcDbEntity
  8
dzialka
100
AcDbVertex
100
AcDb2dVertex
 10
7579206.12999999989
 20
5719751.83999999985
  0
VERTEX
  5
11B
100
AcDbEntity
  8
dzialka
100
AcDbVertex
100
AcDb2dVertex
 10
7579224.24000000022
 20
5719752.48000000045
  0
VERTEX
  5
11C
100
AcDbEntity
  8
dzialka
100
AcDbVertex
100
AcDb2dVertex
 10
7579227.79999999981
 20
5719661.05999999959
  0
VERTEX
  5
11D
100
AcDbEntity
  8
dzialka
100
AcDbVertex
100
AcDb2dVertex
 10
7579209.45000000019
 20
5719660.5
  0
VERTEX
  5
11E
100
AcDbEntity
  8
dzialka
100
AcDbVertex
100
AcDb2dVertex
 10
7579209.4299999997
 20
5719661.19000000041
  0
VERTEX
  5
11F
100
AcDbEntity
  8
dzialka
100
AcDbVertex
100
AcDb2dVertex
 10
7579209.08000000007
 20
5719670.63999999966
  0
VERTEX
  5
120
100
AcDbEntity
  8
dzialka
100
AcDbVertex
100
AcDb2dVertex
 10
7579208.74000000022
 20
5719680.13999999966
  0
VERTEX
  5
121
100
AcDbEntity
  8
dzialka
100
AcDbVertex
100
AcDb2dVertex
 10
7579208.38999999966
 20
5719689.62000000011
  0
VERTEX
  5
122
100
AcDbEntity
  8
dzialka
100
AcDbVertex
100
AcDb2dVertex
 10
7579208.04999999981
 20
5719699.16999999993
  0
VERTEX
  5
123
100
AcDbEntity
  8
dzialka
100
AcDbVertex
100
AcDb2dVertex
 10
7579207.69000000041
 20
5719708.75999999978
  0
VERTEX
  5
124
100
AcDbEntity
  8
dzialka
100
AcDbVertex
100
AcDb2dVertex
 10
7579207.34999999963
 20
5719718.41000000015
  0
VERTEX
  5
125
100
AcDbEntity
  8
dzialka
100
AcDbVertex
100
AcDb2dVertex
 10
7579207.16999999993
 20
5719723.25999999978
  0
VERTEX
  5
126
100
AcDbEntity
  8
dzialka
100
AcDbVertex
100
AcDb2dVertex
 10
7579206.99000000022
 20
5719728.11000000034
  0
VERTEX
  5
127
100
AcDbEntity
  8
dzialka
100
AcDbVertex
100
AcDb2dVertex
 10
7579206.63999999966
 20
5719737.83999999985
  0
VERTEX
  5
128
100
AcDbEntity
  8
dzialka
100
AcDbVertex
100
AcDb2dVertex
 10
7579206.28000000026
 20
5719747.58999999985
  0
SEQEND
  5
129
100
AcDbEntity
  8
dzialka
  0
POLYLINE
  5
12A
100
AcDbEntity
  8
dzialka
  6
CONTINUOUS
370
18
100
AcDb2dPolyline
 66
1
 70
129
  0
VERTEX
  5
12B
100
AcDbEntity
  8
dzialka
100
AcDbVertex
100
AcDb2dVertex
 10
7579209.45000000019
 20
5719660.5
  0
VERTEX
  5
12C
100
AcDbEntity
  8
dzialka
100
AcDbVertex
100
AcDb2dVertex
 10
7579227.79999999981
 20
5719661.05999999959
  0
VERTEX
  5
12D
100
AcDbEntity
  8
dzialka
100
AcDbVertex
100
AcDb2dVertex
 10
7579231.41000000015
 20
5719568.15000000037
  0
VERTEX
  5
12E
100
AcDbEntity
  8
dzialka
100
AcDbVertex
100
AcDb2dVertex
 10
7579212.8200000003
 20
5719567.84999999963
  0
VERTEX
  5
12F
100
AcDbEntity
  8
dzialka
100
AcDbVertex
100
AcDb2dVertex
 10
7579212.79999999981
 20
5719568.5
  0
VERTEX
  5
130
100
AcDbEntity
  8
dzialka
100
AcDbVertex
100
AcDb2dVertex
 10
7579212.63999999966
 20
5719573.04999999981
  0
VERTEX
  5
131
100
AcDbEntity
  8
dzialka
100
AcDbVertex
100
AcDb2dVertex
 10
7579212.48000000045
 20
5719577.54999999981
  0
VERTEX
  5
132
100
AcDbEntity
  8
dzialka
100
AcDbVertex
100
AcDb2dVertex
 10
7579212.13999999966
 20
5719586.62999999989
  0
VERTEX
  5
133
100
AcDbEntity
  8
dzialka
100
AcDbVertex
100
AcDb2dVertex
 10
7579211.80999999959
 20
5719595.78000000026
  0
VERTEX
  5
134
100
AcDbEntity
  8
dzialka
100
AcDbVertex
100
AcDb2dVertex
 10
7579211.63999999966
 20
5719600.37999999989
  0
VERTEX
  5
135
100
AcDbEntity
  8
dzialka
100
AcDbVertex
100
AcDb2dVertex
 10
7579211.48000000045
 20
5719604.98000000045
  0
VERTEX
  5
136
100
AcDbEntity
  8
dzialka
100
AcDbVertex
100
AcDb2dVertex
 10
7579211.25
 20
5719611.12999999989
  0
VERTEX
  5
137
100
AcDbEntity
  8
dzialka
100
AcDbVertex
100
AcDb2dVertex
 10
7579211.13999999966
 20
5719614.21999999974
  0
VERTEX
  5
138
100
AcDbEntity
  8
dzialka
100
AcDbVertex
100
AcDb2dVertex
 10
7579210.79999999981
 20
5719623.51999999955
  0
VERTEX
  5
139
100
AcDbEntity
  8
dzialka
100
AcDbVertex
100
AcDb2dVertex
 10
7579210.62999999989
 20
5719628.26999999955
  0
VERTEX
  5
13A
100
AcDbEntity
  8
dzialka
100
AcDbVertex
100
AcDb2dVertex
 10
7579210.45999999996
 20
5719632.87000000011
  0
VERTEX
  5
13B
100
AcDbEntity
  8
dzialka
100
AcDbVertex
100
AcDb2dVertex
 10
7579210.12000000011
 20
5719642.25
  0
VERTEX
  5
13C
100
AcDbEntity
  8
dzialka
100
AcDbVertex
100
AcDb2dVertex
 10
7579209.76999999955
 20
5719651.70000000019
  0
SEQEND
  5
13D
100
AcDbEntity
  8
dzialka
  0
POLYLINE
  5
13E
100
AcDbEntity
  8
dzialka
  6
CONTINUOUS
370
18
100
AcDb2dPolyline
 66
1
 70
129
  0
VERTEX
  5
13F
100
AcDbEntity
  8
dzialka
100
AcDbVertex
100
AcDb2dVertex
 10
7579212.8200000003
 20
5719567.84999999963
  0
VERTEX
  5
140
100
AcDbEntity
  8
dzialka
100
AcDbVertex
100
AcDb2dVertex
 10
7579231.41000000015
 20
5719568.15000000037
  0
VERTEX
  5
141
100
AcDbEntity
  8
dzialka
100
AcDbVertex
100
AcDb2dVertex
 10
7579232.58999999985
 20
5719537.88999999966
  0
VERTEX
  5
142
100
AcDbEntity
  8
dzialka
100
AcDbVertex
100
AcDb2dVertex
 10
7579213.83000000007
 20
5719540.20999999996
  0
VERTEX
  5
143
100
AcDbEntity
  8
dzialka
100
AcDbVertex
100
AcDb2dVertex
 10
7579213.45000000019
 20
5719550.55999999959
  0
VERTEX
  5
144
100
AcDbEntity
  8
dzialka
100
AcDbVertex
100
AcDb2dVertex
 10
7579213.12999999989
 20
5719559.50999999978
  0
SEQEND
  5
145
100
AcDbEntity
  8
dzialka
  0
POLYLINE
  5
146
100
AcDbEntity
  8
dzialka
  6
CONTINUOUS
370
18
100
AcDb2dPolyline
 66
1
 70
129
  0
VERTEX
  5
147
100
AcDbEntity
  8
dzialka
100
AcDbVertex
100
AcDb2dVertex
 10
7578660.55999999959
 20
5719703.50999999978
  0
VERTEX
  5
148
100
AcDbEntity
  8
dzialka
100
AcDbVertex
100
AcDb2dVertex
 10
7578934.34999999963
 20
5719710.25999999978
  0
VERTEX
  5
149
100
AcDbEntity
  8
dzialka
100
AcDbVertex
100
AcDb2dVertex
 10
7578933.37999999989
 20
5719700.45999999996
  0
VERTEX
  5
14A
100
AcDbEntity
  8
dzialka
100
AcDbVertex
100
AcDb2dVertex
 10
7578658.20999999996
 20
5719693.84999999963
  0
SEQEND
  5
14B
100
AcDbEntity
  8
dzialka
  0
POLYLINE
  5
14C
100
AcDbEntity
  8
dzialka
  6
CONTINUOUS
370
18
100
AcDb2dPolyline
 66
1
 70
129
  0
VERTEX
  5
14D
100
AcDbEntity
  8
dzialka
100
AcDbVertex
100
AcDb2dVertex
 10
7578933.37999999989
 20
5719700.45999999996
  0
VERTEX
  5
14E
100
AcDbEntity
  8
dzialka
100
AcDbVertex
100
AcDb2dVertex
 10
7578932.44000000041
 20
5719690.70000000019
  0
VERTEX
  5
14F
100
AcDbEntity
  8
dzialka
100
AcDbVertex
100
AcDb2dVertex
 10
7578655.87000000011
 20
5719684.1799999997
  0
VERTEX
  5
150
100
AcDbEntity
  8
dzialka
100
AcDbVertex
100
AcDb2dVertex
 10
7578658.20999999996
 20
5719693.84999999963
  0
SEQEND
  5
151
100
AcDbEntity
  8
dzialka
  0
POLYLINE
  5
152
100
AcDbEntity
  8
dzialka
  6
CONTINUOUS
370
18
100
AcDb2dPolyline
 66
1
 70
129
  0
VERTEX
  5
153
100
AcDbEntity
  8
dzialka
100
AcDbVertex
100
AcDb2dVertex
 10
7578932.44000000041
 20
5719690.70000000019
  0
VERTEX
  5
154
100
AcDbEntity
  8
dzialka
100
AcDbVertex
100
AcDb2dVertex
 10
7578931.49000000022
 20
5719680.99000000022
  0
VERTEX
  5
155
100
AcDbEntity
  8
dzialka
100
AcDbVertex
100
AcDb2dVertex
 10
7578653.53000000026
 20
5719674.55999999959
  0
VERTEX
  5
156
100
AcDbEntity
  8
dzialka
100
AcDbVertex
100
AcDb2dVertex
 10
7578655.87000000011
 20
5719684.1799999997
  0
SEQEND
  5
157
100
AcDbEntity
  8
dzialka
  0
POLYLINE
  5
158
100
AcDbEntity
  8
dzialka
  6
CONTINUOUS
370
18
100
AcDb2dPolyline
 66
1
 70
129
  0
VERTEX
  5
159
100
AcDbEntity
  8
dzialka
100
AcDbVertex
100
AcDb2dVertex
 10
7578931.49000000022
 20
5719680.99000000022
  0
VERTEX
  5
15A
100
AcDbEntity
  8
dzialka
100
AcDbVertex
100
AcDb2dVertex
 10
7578930.54000000004
 20
5719671.33000000007
  0
VERTEX
  5
15B
100
AcDbEntity
  8
dzialka
100
AcDbVertex
100
AcDb2dVertex
 10
7578651.21999999974
 20
5719665.04999999981
  0
VERTEX
  5
15C
100
AcDbEntity
  8
dzialka
100
AcDbVertex
100
AcDb2dVertex
 10
7578653.53000000026
 20
5719674.55999999959
  0
SEQEND
  5
15D
100
AcDbEntity
  8
dzialka
  0
POLYLINE
  5
15E
100
AcDbEntity
  8
dzialka
  6
CONTINUOUS
370
18
100
AcDb2dPolyline
 66
1
 70
129
  0
VERTEX
  5
15F
100
AcDbEntity
  8
dzialka
100
AcDbVertex
100
AcDb2dVertex
 10
7578930.54000000004
 20
5719671.33000000007
  0
VERTEX
  5
160
100
AcDbEntity
  8
dzialka
100
AcDbVertex
100
AcDb2dVertex
 10
7578929.61000000034
 20
5719661.71999999974
  0
VERTEX
  5
161
100
AcDbEntity
  8
dzialka
100
AcDbVertex
100
AcDb2dVertex
 10
7578648.90000000037
 20
5719655.51999999955
  0
VERTEX
  5
162
100
AcDbEntity
  8
dzialka
100
AcDbVertex
100
AcDb2dVertex
 10
7578651.21999999974
 20
5719665.04999999981
  0
SEQEND
  5
163
100
AcDbEntity
  8
dzialka
  0
POLYLINE
  5
164
100
AcDbEntity
  8
dzialka
  6
CONTINUOUS
370
18
100
AcDb2dPolyline
 66
1
 70
129
  0
VERTEX
  5
165
100
AcDbEntity
  8
dzialka
100
AcDbVertex
100
AcDb2dVertex
 10
7578929.61000000034
 20
5719661.71999999974
  0
VERTEX
  5
166
100
AcDbEntity
  8
dzialka
100
AcDbVertex
100
AcDb2dVertex
 10
7578928.66999999993
 20
5719652.16000000015
  0
VERTEX
  5
167
100
AcDbEntity
  8
dzialka
100
AcDbVertex
100
AcDb2dVertex
 10
7578786.08000000007
 20
5719649.08999999985
  0
VERTEX
  5
168
100
AcDbEntity
  8
dzialka
100
AcDbVertex
100
AcDb2dVertex
 10
7578646.62000000011
 20
5719646.09999999963
  0
VERTEX
  5
169
100
AcDbEntity
  8
dzialka
100
AcDbVertex
100
AcDb2dVertex
 10
7578648.90000000037
 20
5719655.51999999955
  0
SEQEND
  5
16A
100
AcDbEntity
  8
dzialka
  0
POLYLINE
  5
16B
100
AcDbEntity
  8
dzialka
  6
CONTINUOUS
370
18
100
AcDb2dPolyline
 66
1
 70
129
  0
VERTEX
  5
16C
100
AcDbEntity
  8
dzialka
100
AcDbVertex
100
AcDb2dVertex
 10
7578646.62000000011
 20
5719646.09999999963
  0
VERTEX
  5
16D
100
AcDbEntity
  8
dzialka
100
AcDbVertex
100
AcDb2dVertex
 10
7578786.08000000007
 20
5719649.08999999985
  0
VERTEX
  5
16E
100
AcDbEntity
  8
dzialka
100
AcDbVertex
100
AcDb2dVertex
 10
7578786.29000000004
 20
5719639.66999999993
  0
VERTEX
  5
16F
100
AcDbEntity
  8
dzialka
100
AcDbVertex
100
AcDb2dVertex
 10
7578644.33000000007
 20
5719636.6799999997
  0
SEQEND
  5
170
100
AcDbEntity
  8
dzialka
  0
POLYLINE
  5
171
100
AcDbEntity
  8
dzialka
  6
CONTINUOUS
370
18
100
AcDb2dPolyline
 66
1
 70
129
  0
VERTEX
  5
172
100
AcDbEntity
  8
dzialka
100
AcDbVertex
100
AcDb2dVertex
 10
7578928.66999999993
 20
5719652.16000000015
  0
VERTEX
  5
173
100
AcDbEntity
  8
dzialka
100
AcDbVertex
100
AcDb2dVertex
 10
7578927.75
 20
5719642.66000000015
  0
VERTEX
  5
174
100
AcDbEntity
  8
dzialka
100
AcDbVertex
100
AcDb2dVertex
 10
7578831.75999999978
 20
5719640.62999999989
  0
VERTEX
  5
175
100
AcDbEntity
  8
dzialka
100
AcDbVertex
100
AcDb2dVertex
 10
7578786.29000000004
 20
5719639.66999999993
  0
VERTEX
  5
176
100
AcDbEntity
  8
dzialka
100
AcDbVertex
100
AcDb2dVertex
 10
7578786.08000000007
 20
5719649.08999999985
  0
SEQEND
  5
177
100
AcDbEntity
  8
dzialka
  0
POLYLINE
  5
178
100
AcDbEntity
  8
dzialka
  6
CONTINUOUS
370
18
100
AcDb2dPolyline
 66
1
 70
129
  0
VERTEX
  5
179
100
AcDbEntity
  8
dzialka
100
AcDbVertex
100
AcDb2dVertex
 10
7578644.33000000007
 20
5719636.6799999997
  0
VERTEX
  5
17A
100
AcDbEntity
  8
dzialka
100
AcDbVertex
100
AcDb2dVertex
 10
7578786.29000000004
 20
5719639.66999999993
  0
VERTEX
  5
17B
100
AcDbEntity
  8
dzialka
100
AcDbVertex
100
AcDb2dVertex
 10
7578831.75999999978
 20
5719640.62999999989
  0
VERTEX
  5
17C
100
AcDbEntity
  8
dzialka
100
AcDbVertex
100
AcDb2dVertex
 10
7578831.95999999996
 20
5719631.24000000022
  0
VERTEX
  5
17D
100
AcDbEntity
  8
dzialka
100
AcDbVertex
100
AcDb2dVertex
 10
7578720.30999999959
 20
5719628.95000000019
  0
VERTEX
  5
17E
100
AcDbEntity
  8
dzialka
100
AcDbVertex
100
AcDb2dVertex
 10
7578642.05999999959
 20
5719627.34999999963
  0
SEQEND
  5
17F
100
AcDbEntity
  8
dzialka
  0
POLYLINE
  5
180
100
AcDbEntity
  8
dzialka
  6
CONTINUOUS
370
18
100
AcDb2dPolyline
 66
1
 70
129
  0
VERTEX
  5
181
100
AcDbEntity
  8
dzialka
100
AcDbVertex
100
AcDb2dVertex
 10
7578927.75
 20
5719642.66000000015
  0
VERTEX
  5
182
100
AcDbEntity
  8
dzialka
100
AcDbVertex
100
AcDb2dVertex
 10
7578926.8200000003
 20
5719633.19000000041
  0
VERTEX
  5
183
100
AcDbEntity
  8
dzialka
100
AcDbVertex
100
AcDb2dVertex
 10
7578831.95999999996
 20
5719631.24000000022
  0
VERTEX
  5
184
100
AcDbEntity
  8
dzialka
100
AcDbVertex
100
AcDb2dVertex
 10
7578831.75999999978
 20
5719640.62999999989
  0
SEQEND
  5
185
100
AcDbEntity
  8
dzialka
  0
POLYLINE
  5
186
100
AcDbEntity
  8
dzialka
  6
CONTINUOUS
370
18
100
AcDb2dPolyline
 66
1
 70
129
  0
VERTEX
  5
187
100
AcDbEntity
  8
dzialka
100
AcDbVertex
100
AcDb2dVertex
 10
7578642.05999999959
 20
5719627.34999999963
  0
VERTEX
  5
188
100
AcDbEntity
  8
dzialka
100
AcDbVertex
100
AcDb2dVertex
 10
7578720.30999999959
 20
5719628.95000000019
  0
VERTEX
  5
189
100
AcDbEntity
  8
dzialka
100
AcDbVertex
100
AcDb2dVertex
 10
7578720.28000000026
 20
5719619.62999999989
  0
VERTEX
  5
18A
100
AcDbEntity
  8
dzialka
100
AcDbVertex
100
AcDb2dVertex
 10
7578639.79999999981
 20
5719618.03000000026
  0
SEQEND
  5
18B
100
AcDbEntity
  8
dzialka
  0
POLYLINE
  5
18C
100
AcDbEntity
  8
dzialka
  6
CONTINUOUS
370
18
100
AcDb2dPolyline
 66
1
 70
129
  0
VERTEX
  5
18D
100
AcDbEntity
  8
dzialka
100
AcDbVertex
100
AcDb2dVertex
 10
7578926.8200000003
 20
5719633.19000000041
  0
VERTEX
  5
18E
100
AcDbEntity
  8
dzialka
100
AcDbVertex
100
AcDb2dVertex
 10
7578956.75
 20
5719634.15000000037
  0
VERTEX
  5
18F
100
AcDbEntity
  8
dzialka
100
AcDbVertex
100
AcDb2dVertex
 10
7578957.04999999981
 20
5719624.73000000045
  0
VERTEX
  5
190
100
AcDbEntity
  8
dzialka
100
AcDbVertex
100
AcDb2dVertex
 10
7578925.90000000037
 20
5719623.73000000045
  0
VERTEX
  5
191
100
AcDbEntity
  8
dzialka
100
AcDbVertex
100
AcDb2dVertex
 10
7578720.28000000026
 20
5719619.62999999989
  0
VERTEX
  5
192
100
AcDbEntity
  8
dzialka
100
AcDbVertex
100
AcDb2dVertex
 10
7578720.30999999959
 20
5719628.95000000019
  0
VERTEX
  5
193
100
AcDbEntity
  8
dzialka
100
AcDbVertex
100
AcDb2dVertex
 10
7578831.95999999996
 20
5719631.24000000022
  0
SEQEND
  5
194
100
AcDbEntity
  8
dzialka
  0
POLYLINE
  5
195
100
AcDbEntity
  8
dzialka
  6
CONTINUOUS
370
18
100
AcDb2dPolyline
 66
1
 70
129
  0
VERTEX
  5
196
100
AcDbEntity
  8
dzialka
100
AcDbVertex
100
AcDb2dVertex
 10
7578925.90000000037
 20
5719623.73000000045
  0
VERTEX
  5
197
100
AcDbEntity
  8
dzialka
100
AcDbVertex
100
AcDb2dVertex
 10
7578925.44000000041
 20
5719619.01999999955
  0
VERTEX
  5
198
100
AcDbEntity
  8
dzialka
100
AcDbVertex
100
AcDb2dVertex
 10
7578924.98000000045
 20
5719614.3200000003
  0
VERTEX
  5
199
100
AcDbEntity
  8
dzialka
100
AcDbVertex
100
AcDb2dVertex
 10
7578637.55999999959
 20
5719608.79000000004
  0
VERTEX
  5
19A
100
AcDbEntity
  8
dzialka
100
AcDbVertex
100
AcDb2dVertex
 10
7578639.79999999981
 20
5719618.03000000026
  0
VERTEX
  5
19B
100
AcDbEntity
  8
dzialka
100
AcDbVertex
100
AcDb2dVertex
 10
7578720.28000000026
 20
5719619.62999999989
  0
SEQEND
  5
19C
100
AcDbEntity
  8
dzialka
  0
POLYLINE
  5
19D
100
AcDbEntity
  8
dzialka
  6
CONTINUOUS
370
18
100
AcDb2dPolyline
 66
1
 70
129
  0
VERTEX
  5
19E
100
AcDbEntity
  8
dzialka
100
AcDbVertex
100
AcDb2dVertex
 10
7578923.16000000015
 20
5719595.70000000019
  0
VERTEX
  5
19F
100
AcDbEntity
  8
dzialka
100
AcDbVertex
100
AcDb2dVertex
 10
7578922.70999999996
 20
5719591.12000000011
  0
VERTEX
  5
1A0
100
AcDbEntity
  8
dzialka
100
AcDbVertex
100
AcDb2dVertex
 10
7578803.46999999974
 20
5719588.45999999996
  0
VERTEX
  5
1A1
100
AcDbEntity
  8
dzialka
100
AcDbVertex
100
AcDb2dVertex
 10
7578766.6799999997
 20
5719592.08000000007
  0
SEQEND
  5
1A2
100
AcDbEntity
  8
dzialka
  0
POLYLINE
  5
1A3
100
AcDbEntity
  8
dzialka
  6
CONTINUOUS
370
18
100
AcDb2dPolyline
 66
1
 70
129
  0
VERTEX
  5
1A4
100
AcDbEntity
  8
dzialka
100
AcDbVertex
100
AcDb2dVertex
 10
7578922.70999999996
 20
5719591.12000000011
  0
VERTEX
  5
1A5
100
AcDbEntity
  8
dzialka
100
AcDbVertex
100
AcDb2dVertex
 10
7578922.25999999978
 20
5719586.53000000026
  0
VERTEX
  5
1A6
100
AcDbEntity
  8
dzialka
100
AcDbVertex
100
AcDb2dVertex
 10
7578840.83999999985
 20
5719584.76999999955
  0
VERTEX
  5
1A7
100
AcDbEntity
  8
dzialka
100
AcDbVertex
100
AcDb2dVertex
 10
7578803.46999999974
 20
5719588.45999999996
  0
SEQEND
  5
1A8
100
AcDbEntity
  8
dzialka
  0
POLYLINE
  5
1A9
100
AcDbEntity
  8
dzialka
  6
CONTINUOUS
370
18
100
AcDb2dPolyline
 66
1
 70
129
  0
VERTEX
  5
1AA
100
AcDbEntity
  8
dzialka
100
AcDbVertex
100
AcDb2dVertex
 10
7578922.25999999978
 20
5719586.53000000026
  0
VERTEX
  5
1AB
100
AcDbEntity
  8
dzialka
100
AcDbVertex
100
AcDb2dVertex
 10
7578921.37000000011
 20
5719577.37999999989
  0
VERTEX
  5
1AC
100
AcDbEntity
  8
dzialka
100
AcDbVertex
100
AcDb2dVertex
 10
7578900.20000000019
 20
5719577.08999999985
  0
VERTEX
  5
1AD
100
AcDbEntity
  8
dzialka
100
AcDbVertex
100
AcDb2dVertex
 10
7578840.83999999985
 20
5719584.76999999955
  0
SEQEND
  5
1AE
100
AcDbEntity
  8
dzialka
  0
POLYLINE
  5
1AF
100
AcDbEntity
  8
dzialka
  6
CONTINUOUS
370
18
100
AcDb2dPolyline
 66
1
 70
129
  0
VERTEX
  5
1B0
100
AcDbEntity
  8
dzialka
100
AcDbVertex
100
AcDb2dVertex
 10
7579217.66000000015
 20
5719921.58999999985
  0
VERTEX
  5
1B1
100
AcDbEntity
  8
dzialka
100
AcDbVertex
100
AcDb2dVertex
 10
7579220.66000000015
 20
5719921.70000000019
  0
VERTEX
  5
1B2
100
AcDbEntity
  8
dzialka
100
AcDbVertex
100
AcDb2dVertex
 10
7579223.70000000019
 20
5719843.36000000034
  0
VERTEX
  5
1B3
100
AcDbEntity
  8
dzialka
100
AcDbVertex
100
AcDb2dVertex
 10
7579227.24000000022
 20
5719752.59999999963
  0
VERTEX
  5
1B4
100
AcDbEntity
  8
dzialka
100
AcDbVertex
100
AcDb2dVertex
 10
7579235.61000000034
 20
5719537.54999999981
  0
VERTEX
  5
1B5
100
AcDbEntity
  8
dzialka
100
AcDbVertex
100
AcDb2dVertex
 10
7579232.58999999985
 20
5719537.88999999966
  0
VERTEX
  5
1B6
100
AcDbEntity
  8
dzialka
100
AcDbVertex
100
AcDb2dVertex
 10
7579231.41000000015
 20
5719568.15000000037
  0
VERTEX
  5
1B7
100
AcDbEntity
  8
dzialka
100
AcDbVertex
100
AcDb2dVertex
 10
7579227.79999999981
 20
5719661.05999999959
  0
VERTEX
  5
1B8
100
AcDbEntity
  8
dzialka
100
AcDbVertex
100
AcDb2dVertex
 10
7579224.24000000022
 20
5719752.48000000045
  0
VERTEX
  5
1B9
100
AcDbEntity
  8
dzialka
100
AcDbVertex
100
AcDb2dVertex
 10
7579220.41999999993
 20
5719850.66999999993
  0
VERTEX
  5
1BA
100
AcDbEntity
  8
dzialka
100
AcDbVertex
100
AcDb2dVertex
 10
7579219.63999999966
 20
5719870.62999999989
  0
SEQEND
  5
1BB
100
AcDbEntity
  8
dzialka
  0
POLYLINE
  5
1BC
100
AcDbEntity
  8
dzialka
  6
CONTINUOUS
370
18
100
AcDb2dPolyline
 66
1
 70
129
  0
VERTEX
  5
1BD
100
AcDbEntity
  8
dzialka
100
AcDbVertex
100
AcDb2dVertex
 10
7579067.66999999993
 20
5719595.75999999978
  0
VERTEX
  5
1BE
100
AcDbEntity
  8
dzialka
100
AcDbVertex
100
AcDb2dVertex
 10
7579067.83999999985
 20
5719591.1799999997
  0
VERTEX
  5
1BF
100
AcDbEntity
  8
dzialka
100
AcDbVertex
100
AcDb2dVertex
 10
7578922.25999999978
 20
5719586.53000000026
  0
VERTEX
  5
1C0
100
AcDbEntity
  8
dzialka
100
AcDbVertex
100
AcDb2dVertex
 10
7578922.70999999996
 20
5719591.12000000011
  0
SEQEND
  5
1C1
100
AcDbEntity
  8
dzialka
  0
POLYLINE
  5
1C2
100
AcDbEntity
  8
dzialka
  6
CONTINUOUS
370
18
100
AcDb2dPolyline
 66
1
 70
129
  0
VERTEX
  5
1C3
100
AcDbEntity
  8
dzialka
100
AcDbVertex
100
AcDb2dVertex
 10
7579067.66999999993
 20
5719595.75999999978
  0
VERTEX
  5
1C4
100
AcDbEntity
  8
dzialka
100
AcDbVertex
100
AcDb2dVertex
 10
7579211.63999999966
 20
5719600.37999999989
  0
VERTEX
  5
1C5
100
AcDbEntity
  8
dzialka
100
AcDbVertex
100
AcDb2dVertex
 10
7579211.80999999959
 20
5719595.78000000026
  0
VERTEX
  5
1C6
100
AcDbEntity
  8
dzialka
100
AcDbVertex
100
AcDb2dVertex
 10
7579067.83999999985
 20
5719591.1799999997
  0
SEQEND
  5
1C7
100
AcDbEntity
  8
dzialka
  0
POLYLINE
  5
1C8
100
AcDbEntity
  8
dzialka
  6
CONTINUOUS
370
18
100
AcDb2dPolyline
 66
1
 70
129
  0
VERTEX
  5
1C9
100
AcDbEntity
  8
dzialka
100
AcDbVertex
100
AcDb2dVertex
 10
7579227.24000000022
 20
5719752.59999999963
  0
VERTEX
  5
1CA
100
AcDbEntity
  8
dzialka
100
AcDbVertex
100
AcDb2dVertex
 10
7579223.70000000019
 20
5719843.36000000034
  0
VERTEX
  5
1CB
100
AcDbEntity
  8
dzialka
100
AcDbVertex
100
AcDb2dVertex
 10
7579246.24000000022
 20
5719844.95000000019
  0
VERTEX
  5
1CC
100
AcDbEntity
  8
dzialka
100
AcDbVertex
100
AcDb2dVertex
 10
7579251.70999999996
 20
5719726.69000000041
  0
VERTEX
  5
1CD
100
AcDbEntity
  8
dzialka
100
AcDbVertex
100
AcDb2dVertex
 10
7579259.37000000011
 20
5719534.95000000019
  0
VERTEX
  5
1CE
100
AcDbEntity
  8
dzialka
100
AcDbVertex
100
AcDb2dVertex
 10
7579235.61000000034
 20
5719537.54999999981
  0
SEQEND
  5
1CF
100
AcDbEntity
  8
dzialka
  0
POLYLINE
  5
1D0
100
AcDbEntity
  8
dzialka
  6
CONTINUOUS
370
18
100
AcDb2dPolyline
 66
1
 70
129
  0
VERTEX
  5
1D1
100
AcDbEntity
  8
dzialka
100
AcDbVertex
100
AcDb2dVertex
 10
7579242.63999999966
 20
5719922.46999999974
  0
VERTEX
  5
1D2
100
AcDbEntity
  8
dzialka
100
AcDbVertex
100
AcDb2dVertex
 10
7579258.65000000037
 20
5719923.03000000026
  0
VERTEX
  5
1D3
100
AcDbEntity
  8
dzialka
100
AcDbVertex
100
AcDb2dVertex
 10
7579273.33000000007
 20
5719533.41999999993
  0
VERTEX
  5
1D4
100
AcDbEntity
  8
dzialka
100
AcDbVertex
100
AcDb2dVertex
 10
7579259.37000000011
 20
5719534.95000000019
  0
VERTEX
  5
1D5
100
AcDbEntity
  8
dzialka
100
AcDbVertex
100
AcDb2dVertex
 10
7579251.70999999996
 20
5719726.69000000041
  0
VERTEX
  5
1D6
100
AcDbEntity
  8
dzialka
100
AcDbVertex
100
AcDb2dVertex
 10
7579246.24000000022
 20
5719844.95000000019
  0
SEQEND
  5
1D7
100
AcDbEntity
  8
dzialka
  0
POLYLINE
  5
1D8
100
AcDbEntity
  8
dzialka
  6
CONTINUOUS
370
18
100
AcDb2dPolyline
 66
1
 70
129
  0
VERTEX
  5
1D9
100
AcDbEntity
  8
dzialka
100
AcDbVertex
100
AcDb2dVertex
 10
7579258.65000000037
 20
5719923.03000000026
  0
VERTEX
  5
1DA
100
AcDbEntity
  8
dzialka
100
AcDbVertex
100
AcDb2dVertex
 10
7579280.98000000045
 20
5719923.80999999959
  0
VERTEX
  5
1DB
100
AcDbEntity
  8
dzialka
100
AcDbVertex
100
AcDb2dVertex
 10
7579296.70000000019
 20
5719530.84999999963
  0
VERTEX
  5
1DC
100
AcDbEntity
  8
dzialka
100
AcDbVertex
100
AcDb2dVertex
 10
7579273.33000000007
 20
5719533.41999999993
  0
SEQEND
  5
1DD
100
AcDbEntity
  8
dzialka
  0
POLYLINE
  5
1DE
100
AcDbEntity
  8
dzialka
  6
CONTINUOUS
370
18
100
AcDb2dPolyline
 66
1
 70
129
  0
VERTEX
  5
1DF
100
AcDbEntity
  8
dzialka
100
AcDbVertex
100
AcDb2dVertex
 10
7579280.98000000045
 20
5719923.80999999959
  0
VERTEX
  5
1E0
100
AcDbEntity
  8
dzialka
100
AcDbVertex
100
AcDb2dVertex
 10
7579295.6799999997
 20
5719924.33000000007
  0
VERTEX
  5
1E1
100
AcDbEntity
  8
dzialka
100
AcDbVertex
100
AcDb2dVertex
 10
7579304.04999999981
 20
5719741.84999999963
  0
VERTEX
  5
1E2
100
AcDbEntity
  8
dzialka
100
AcDbVertex
100
AcDb2dVertex
 10
7579312.30999999959
 20
5719529.13999999966
  0
VERTEX
  5
1E3
100
AcDbEntity
  8
dzialka
100
AcDbVertex
100
AcDb2dVertex
 10
7579296.70000000019
 20
5719530.84999999963
  0
SEQEND
  5
1E4
100
AcDbEntity
  8
dzialka
  0
POLYLINE
  5
1E5
100
AcDbEntity
  8
dzialka
  6
CONTINUOUS
370
18
100
AcDb2dPolyline
 66
1
 70
129
  0
VERTEX
  5
1E6
100
AcDbEntity
  8
dzialka
100
AcDbVertex
100
AcDb2dVertex
 10
7578694.45999999996
 20
5719599.54999999981
  0
VERTEX
  5
1E7
100
AcDbEntity
  8
dzialka
100
AcDbVertex
100
AcDb2dVertex
 10
7578730.51999999955
 20
5719595.6799999997
  0
VERTEX
  5
1E8
100
AcDbEntity
  8
dzialka
100
AcDbVertex
100
AcDb2dVertex
 10
7578735.88999999966
 20
5719595.11000000034
  0
VERTEX
  5
1E9
100
AcDbEntity
  8
dzialka
100
AcDbVertex
100
AcDb2dVertex
 10
7578766.6799999997
 20
5719592.08000000007
  0
VERTEX
  5
1EA
100
AcDbEntity
  8
dzialka
100
AcDbVertex
100
AcDb2dVertex
 10
7578803.46999999974
 20
5719588.45999999996
  0
VERTEX
  5
1EB
100
AcDbEntity
  8
dzialka
100
AcDbVertex
100
AcDb2dVertex
 10
7578840.83999999985
 20
5719584.76999999955
  0
VERTEX
  5
1EC
100
AcDbEntity
  8
dzialka
100
AcDbVertex
100
AcDb2dVertex
 10
7578900.20000000019
 20
5719577.08999999985
  0
VERTEX
  5
1ED
100
AcDbEntity
  8
dzialka
100
AcDbVertex
100
AcDb2dVertex
 10
7578921.08000000007
 20
5719574.38999999966
  0
VERTEX
  5
1EE
100
AcDbEntity
  8
dzialka
100
AcDbVertex
100
AcDb2dVertex
 10
7578947.30999999959
 20
5719570.99000000022
  0
VERTEX
  5
1EF
100
AcDbEntity
  8
dzialka
100
AcDbVertex
100
AcDb2dVertex
 10
7578961.21999999974
 20
5719569.38999999966
  0
VERTEX
  5
1F0
100
AcDbEntity
  8
dzialka
100
AcDbVertex
100
AcDb2dVertex
 10
7578994.70000000019
 20
5719565.53000000026
  0
VERTEX
  5
1F1
100
AcDbEntity
  8
dzialka
100
AcDbVertex
100
AcDb2dVertex
 10
7579027.96999999974
 20
5719561.6799999997
  0
VERTEX
  5
1F2
100
AcDbEntity
  8
dzialka
100
AcDbVertex
100
AcDb2dVertex
 10
7579043.87000000011
 20
5719559.84999999963
  0
VERTEX
  5
1F3
100
AcDbEntity
  8
dzialka
100
AcDbVertex
100
AcDb2dVertex
 10
7579090.65000000037
 20
5719554.63999999966
  0
VERTEX
  5
1F4
100
AcDbEntity
  8
dzialka
100
AcDbVertex
100
AcDb2dVertex
 10
7579159.28000000026
 20
5719546.99000000022
  0
VERTEX
  5
1F5
100
AcDbEntity
  8
dzialka
100
AcDbVertex
100
AcDb2dVertex
 10
7579173.4299999997
 20
5719545.23000000045
  0
VERTEX
  5
1F6
100
AcDbEntity
  8
dzialka
100
AcDbVertex
100
AcDb2dVertex
 10
7579213.83000000007
 20
5719540.20999999996
  0
VERTEX
  5
1F7
100
AcDbEntity
  8
dzialka
100
AcDbVertex
100
AcDb2dVertex
 10
7579232.58999999985
 20
5719537.88999999966
  0
VERTEX
  5
1F8
100
AcDbEntity
  8
dzialka
100
AcDbVertex
100
AcDb2dVertex
 10
7579235.61000000034
 20
5719537.54999999981
  0
VERTEX
  5
1F9
100
AcDbEntity
  8
dzialka
100
AcDbVertex
100
AcDb2dVertex
 10
7579259.37000000011
 20
5719534.95000000019
  0
VERTEX
  5
1FA
100
AcDbEntity
  8
dzialka
100
AcDbVertex
100
AcDb2dVertex
 10
7579273.33000000007
 20
5719533.41999999993
  0
VERTEX
  5
1FB
100
AcDbEntity
  8
dzialka
100
AcDbVertex
100
AcDb2dVertex
 10
7579296.70000000019
 20
5719530.84999999963
  0
VERTEX
  5
1FC
100
AcDbEntity
  8
dzialka
100
AcDbVertex
100
AcDb2dVertex
 10
7579312.30999999959
 20
5719529.13999999966
  0
VERTEX
  5
1FD
100
AcDbEntity
  8
dzialka
100
AcDbVertex
100
AcDb2dVertex
 10
7579316.98000000045
 20
5719528.62000000011
  0
VERTEX
  5
1FE
100
AcDbEntity
  8
dzialka
100
AcDbVertex
100
AcDb2dVertex
 10
7579332.74000000022
 20
5719526.88999999966
  0
VERTEX
  5
1FF
100
AcDbEntity
  8
dzialka
100
AcDbVertex
100
AcDb2dVertex
 10
7579333.33999999985
 20
5719526.83000000007
  0
VERTEX
  5
200
100
AcDbEntity
  8
dzialka
100
AcDbVertex
100
AcDb2dVertex
 10
7579343.49000000022
 20
5719525.65000000037
  0
VERTEX
  5
201
100
AcDbEntity
  8
dzialka
100
AcDbVertex
100
AcDb2dVertex
 10
7579348.50999999978
 20
5719525.08000000007
  0
VERTEX
  5
202
100
AcDbEntity
  8
dzialka
100
AcDbVertex
100
AcDb2dVertex
 10
7579383.79000000004
 20
5719521.00999999978
  0
VERTEX
  5
203
100
AcDbEntity
  8
dzialka
100
AcDbVertex
100
AcDb2dVertex
 10
7579406.44000000041
 20
5719518.38999999966
  0
VERTEX
  5
204
100
AcDbEntity
  8
dzialka
100
AcDbVertex
100
AcDb2dVertex
 10
7579415.58000000007
 20
5719517.33000000007
  0
VERTEX
  5
205
100
AcDbEntity
  8
dzialka
100
AcDbVertex
100
AcDb2dVertex
 10
7579427.09999999963
 20
5719516.0
  0
VERTEX
  5
206
100
AcDbEntity
  8
dzialka
100
AcDbVertex
100
AcDb2dVertex
 10
7579435.54000000004
 20
5719515.03000000026
  0
VERTEX
  5
207
100
AcDbEntity
  8
dzialka
100
AcDbVertex
100
AcDb2dVertex
 10
7579443.6799999997
 20
5719514.08999999985
  0
VERTEX
  5
208
100
AcDbEntity
  8
dzialka
100
AcDbVertex
100
AcDb2dVertex
 10
7579452.8200000003
 20
5719513.04000000004
  0
VERTEX
  5
209
100
AcDbEntity
  8
dzialka
100
AcDbVertex
100
AcDb2dVertex
 10
7579462.25999999978
 20
5719511.95000000019
  0
VERTEX
  5
20A
100
AcDbEntity
  8
dzialka
100
AcDbVertex
100
AcDb2dVertex
 10
7579481.8200000003
 20
5719509.69000000041
  0
VERTEX
  5
20B
100
AcDbEntity
  8
dzialka
100
AcDbVertex
100
AcDb2dVertex
 10
7579499.79999999981
 20
5719507.62000000011
  0
VERTEX
  5
20C
100
AcDbEntity
  8
dzialka
100
AcDbVertex
100
AcDb2dVertex
 10
7579536.90000000037
 20
5719503.33999999985
  0
VERTEX
  5
20D
100
AcDbEntity
  8
dzialka
100
AcDbVertex
100
AcDb2dVertex
 10
7579610.13999999966
 20
5719494.87000000011
  0
VERTEX
  5
20E
100
AcDbEntity
  8
dzialka
100
AcDbVertex
100
AcDb2dVertex
 10
7579638.25999999978
 20
5719491.62999999989
  0
VERTEX
  5
20F
100
AcDbEntity
  8
dzialka
100
AcDbVertex
100
AcDb2dVertex
 10
7579686.03000000026
 20
5719486.12000000011
  0
VERTEX
  5
210
100
AcDbEntity
  8
dzialka
100
AcDbVertex
100
AcDb2dVertex
 10
7579695.26999999955
 20
5719485.04999999981
  0
VERTEX
  5
211
100
AcDbEntity
  8
dzialka
100
AcDbVertex
100
AcDb2dVertex
 10
7579723.91999999993
 20
5719481.75
  0
VERTEX
  5
212
100
AcDbEntity
  8
dzialka
100
AcDbVertex
100
AcDb2dVertex
 10
7579756.5
 20
5719477.99000000022
  0
VERTEX
  5
213
100
AcDbEntity
  8
dzialka
100
AcDbVertex
100
AcDb2dVertex
 10
7579789.91999999993
 20
5719474.12999999989
  0
VERTEX
  5
214
100
AcDbEntity
  8
dzialka
100
AcDbVertex
100
AcDb2dVertex
 10
7579811.16999999993
 20
5719471.6799999997
  0
VERTEX
  5
215
100
AcDbEntity
  8
dzialka
100
AcDbVertex
100
AcDb2dVertex
 10
7579840.28000000026
 20
5719468.3200000003
  0
VERTEX
  5
216
100
AcDbEntity
  8
dzialka
100
AcDbVertex
100
AcDb2dVertex
 10
7579869.3200000003
 20
5719464.95999999996
  0
VERTEX
  5
217
100
AcDbEntity
  8
dzialka
100
AcDbVertex
100
AcDb2dVertex
 10
7579950.66999999993
 20
5719455.58000000007
  0
VERTEX
  5
218
100
AcDbEntity
  8
dzialka
100
AcDbVertex
100
AcDb2dVertex
 10
7579954.49000000022
 20
5719455.12999999989
  0
VERTEX
  5
219
100
AcDbEntity
  8
dzialka
100
AcDbVertex
100
AcDb2dVertex
 10
7579996.25999999978
 20
5719450.29000000004
  0
VERTEX
  5
21A
100
AcDbEntity
  8
dzialka
100
AcDbVertex
100
AcDb2dVertex
 10
7580031.21999999974
 20
5719446.25
  0
VERTEX
  5
21B
100
AcDbEntity
  8
dzialka
100
AcDbVertex
100
AcDb2dVertex
 10
7580065.33999999985
 20
5719442.29999999981
  0
VERTEX
  5
21C
100
AcDbEntity
  8
dzialka
100
AcDbVertex
100
AcDb2dVertex
 10
7580101.73000000045
 20
5719438.08999999985
  0
VERTEX
  5
21D
100
AcDbEntity
  8
dzialka
100
AcDbVertex
100
AcDb2dVertex
 10
7580113.16000000015
 20
5719436.75999999978
  0
VERTEX
  5
21E
100
AcDbEntity
  8
dzialka
100
AcDbVertex
100
AcDb2dVertex
 10
7580125.26999999955
 20
5719435.36000000034
  0
VERTEX
  5
21F
100
AcDbEntity
  8
dzialka
100
AcDbVertex
100
AcDb2dVertex
 10
7580135.54999999981
 20
5719434.16999999993
  0
VERTEX
  5
220
100
AcDbEntity
  8
dzialka
100
AcDbVertex
100
AcDb2dVertex
 10
7580184.80999999959
 20
5719428.45999999996
  0
VERTEX
  5
221
100
AcDbEntity
  8
dzialka
100
AcDbVertex
100
AcDb2dVertex
 10
7580243.50999999978
 20
5719421.66999999993
  0
VERTEX
  5
222
100
AcDbEntity
  8
dzialka
100
AcDbVertex
100
AcDb2dVertex
 10
7580252.94000000041
 20
5719420.58000000007
  0
VERTEX
  5
223
100
AcDbEntity
  8
dzialka
100
AcDbVertex
100
AcDb2dVertex
 10
7580257.21999999974
 20
5719420.45000000019
  0
VERTEX
  5
224
100
AcDbEntity
  8
dzialka
100
AcDbVertex
100
AcDb2dVertex
 10
7580278.78000000026
 20
5719418.09999999963
  0
VERTEX
  5
225
100
AcDbEntity
  8
dzialka
100
AcDbVertex
100
AcDb2dVertex
 10
7580330.74000000022
 20
5719412.44000000041
  0
VERTEX
  5
226
100
AcDbEntity
  8
dzialka
100
AcDbVertex
100
AcDb2dVertex
 10
7580430.87999999989
 20
5719401.54000000004
  0
VERTEX
  5
227
100
AcDbEntity
  8
dzialka
100
AcDbVertex
100
AcDb2dVertex
 10
7580449.25
 20
5719399.54999999981
  0
VERTEX
  5
228
100
AcDbEntity
  8
dzialka
100
AcDbVertex
100
AcDb2dVertex
 10
7580549.48000000045
 20
5719388.63999999966
  0
VERTEX
  5
229
100
AcDbEntity
  8
dzialka
100
AcDbVertex
100
AcDb2dVertex
 10
7580553.1799999997
 20
5719388.23000000045
  0
VERTEX
  5
22A
100
AcDbEntity
  8
dzialka
100
AcDbVertex
100
AcDb2dVertex
 10
7580594.79000000004
 20
5719384.61000000034
  0
VERTEX
  5
22B
100
AcDbEntity
  8
dzialka
100
AcDbVertex
100
AcDb2dVertex
 10
7580640.36000000034
 20
5719380.63999999966
  0
VERTEX
  5
22C
100
AcDbEntity
  8
dzialka
100
AcDbVertex
100
AcDb2dVertex
 10
7580686.84999999963
 20
5719376.58999999985
  0
VERTEX
  5
22D
100
AcDbEntity
  8
dzialka
100
AcDbVertex
100
AcDb2dVertex
 10
7580688.76999999955
 20
5719376.41999999993
  0
VERTEX
  5
22E
100
AcDbEntity
  8
dzialka
100
AcDbVertex
100
AcDb2dVertex
 10
7580710.0
 20
5719379.99000000022
  0
VERTEX
  5
22F
100
AcDbEntity
  8
dzialka
100
AcDbVertex
100
AcDb2dVertex
 10
7580820.96999999974
 20
5719402.37999999989
  0
VERTEX
  5
230
100
AcDbEntity
  8
dzialka
100
AcDbVertex
100
AcDb2dVertex
 10
7580838.94000000041
 20
5719406.01999999955
  0
VERTEX
  5
231
100
AcDbEntity
  8
dzialka
100
AcDbVertex
100
AcDb2dVertex
 10
7580858.44000000041
 20
5719409.95000000019
  0
VERTEX
  5
232
100
AcDbEntity
  8
dzialka
100
AcDbVertex
100
AcDb2dVertex
 10
7580865.65000000037
 20
5719411.41000000015
  0
VERTEX
  5
233
100
AcDbEntity
  8
dzialka
100
AcDbVertex
100
AcDb2dVertex
 10
7580867.58000000008
 20
5719411.79000000004
  0
VERTEX
  5
234
100
AcDbEntity
  8
dzialka
100
AcDbVertex
100
AcDb2dVertex
 10
7580879.87999999989
 20
5719414.28000000026
  0
VERTEX
  5
235
100
AcDbEntity
  8
dzialka
100
AcDbVertex
100
AcDb2dVertex
 10
7580902.70999999996
 20
5719418.88999999966
  0
VERTEX
  5
236
100
AcDbEntity
  8
dzialka
100
AcDbVertex
100
AcDb2dVertex
 10
7580927.12999999989
 20
5719423.73000000045
  0
VERTEX
  5
237
100
AcDbEntity
  8
dzialka
100
AcDbVertex
100
AcDb2dVertex
 10
7580947.45999999996
 20
5719427.9299999997
  0
VERTEX
  5
238
100
AcDbEntity
  8
dzialka
100
AcDbVertex
100
AcDb2dVertex
 10
7580951.95999999996
 20
5719428.87999999989
  0
VERTEX
  5
239
100
AcDbEntity
  8
dzialka
100
AcDbVertex
100
AcDb2dVertex
 10
7580965.11000000034
 20
5719431.48000000045
  0
VERTEX
  5
23A
100
AcDbEntity
  8
dzialka
100
AcDbVertex
100
AcDb2dVertex
 10
7580977.38999999966
 20
5719433.96999999974
  0
VERTEX
  5
23B
100
AcDbEntity
  8
dzialka
100
AcDbVertex
100
AcDb2dVertex
 10
7580984.74000000022
 20
5719435.45000000019
  0
VERTEX
  5
23C
100
AcDbEntity
  8
dzialka
100
AcDbVertex
100
AcDb2dVertex
 10
7581023.19000000041
 20
5719443.20999999996
  0
VERTEX
  5
23D
100
AcDbEntity
  8
dzialka
100
AcDbVertex
100
AcDb2dVertex
 10
7581039.16000000015
 20
5719448.4299999997
  0
VERTEX
  5
23E
100
AcDbEntity
  8
dzialka
100
AcDbVertex
100
AcDb2dVertex
 10
7581125.11000000034
 20
5719466.83999999985
  0
VERTEX
  5
23F
100
AcDbEntity
  8
dzialka
100
AcDbVertex
100
AcDb2dVertex
 10
7581207.09999999963
 20
5719484.83999999985
  0
VERTEX
  5
240
100
AcDbEntity
  8
dzialka
100
AcDbVertex
100
AcDb2dVertex
 10
7581272.13999999966
 20
5719497.1799999997
  0
VERTEX
  5
241
100
AcDbEntity
  8
dzialka
100
AcDbVertex
100
AcDb2dVertex
 10
7581310.94000000041
 20
5719506.09999999963
  0
VERTEX
  5
242
100
AcDbEntity
  8
dzialka
100
AcDbVertex
100
AcDb2dVertex
 10
7581404.61000000034
 20
5719527.51999999955
  0
VERTEX
  5
243
100
AcDbEntity
  8
dzialka
100
AcDbVertex
100
AcDb2dVertex
 10
7581483.08999999985
 20
5719545.70999999996
  0
VERTEX
  5
244
100
AcDbEntity
  8
dzialka
100
AcDbVertex
100
AcDb2dVertex
 10
7581539.80999999959
 20
5719557.0700000003
  0
VERTEX
  5
245
100
AcDbEntity
  8
dzialka
100
AcDbVertex
100
AcDb2dVertex
 10
7581627.9299999997
 20
5719541.70999999996
  0
VERTEX
  5
246
100
AcDbEntity
  8
dzialka
100
AcDbVertex
100
AcDb2dVertex
 10
7581566.79000000004
 20
5719527.88999999966
  0
VERTEX
  5
247
100
AcDbEntity
  8
dzialka
100
AcDbVertex
100
AcDb2dVertex
 10
7581514.62999999989
 20
5719517.05999999959
  0
VERTEX
  5
248
100
AcDbEntity
  8
dzialka
100
AcDbVertex
100
AcDb2dVertex
 10
7581291.73000000045
 20
5719468.8200000003
  0
VERTEX
  5
249
100
AcDbEntity
  8
dzialka
100
AcDbVertex
100
AcDb2dVertex
 10
7581228.36000000034
 20
5719457.33999999985
  0
VERTEX
  5
24A
100
AcDbEntity
  8
dzialka
100
AcDbVertex
100
AcDb2dVertex
 10
7581162.73000000045
 20
5719443.30999999959
  0
VERTEX
  5
24B
100
AcDbEntity
  8
dzialka
100
AcDbVertex
100
AcDb2dVertex
 10
7581043.28000000026
 20
5719418.24000000022
  0
VERTEX
  5
24C
100
AcDbEntity
  8
dzialka
100
AcDbVertex
100
AcDb2dVertex
 10
7581027.11000000034
 20
5719414.84999999963
  0
VERTEX
  5
24D
100
AcDbEntity
  8
dzialka
100
AcDbVertex
100
AcDb2dVertex
 10
7581007.55999999959
 20
5719410.45000000019
  0
VERTEX
  5
24E
100
AcDbEntity
  8
dzialka
100
AcDbVertex
100
AcDb2dVertex
 10
7580993.55999999959
 20
5719407.29000000004
  0
VERTEX
  5
24F
100
AcDbEntity
  8
dzialka
100
AcDbVertex
100
AcDb2dVertex
 10
7580923.15000000037
 20
5719391.41000000015
  0
VERTEX
  5
250
100
AcDbEntity
  8
dzialka
100
AcDbVertex
100
AcDb2dVertex
 10
7580908.19000000041
 20
5719388.80999999959
  0
VERTEX
  5
251
100
AcDbEntity
  8
dzialka
100
AcDbVertex
100
AcDb2dVertex
 10
7580892.76999999955
 20
5719386.12999999989
  0
VERTEX
  5
252
100
AcDbEntity
  8
dzialka
100
AcDbVertex
100
AcDb2dVertex
 10
7580882.29000000004
 20
5719384.30999999959
  0
VERTEX
  5
253
100
AcDbEntity
  8
dzialka
100
AcDbVertex
100
AcDb2dVertex
 10
7580872.74000000022
 20
5719382.33000000007
  0
VERTEX
  5
254
100
AcDbEntity
  8
dzialka
100
AcDbVertex
100
AcDb2dVertex
 10
7580863.16999999993
 20
5719380.36000000034
  0
VERTEX
  5
255
100
AcDbEntity
  8
dzialka
100
AcDbVertex
100
AcDb2dVertex
 10
7580844.3200000003
 20
5719376.45999999996
  0
VERTEX
  5
256
100
AcDbEntity
  8
dzialka
100
AcDbVertex
100
AcDb2dVertex
 10
7580838.23000000045
 20
5719375.20000000019
  0
VERTEX
  5
257
100
AcDbEntity
  8
dzialka
100
AcDbVertex
100
AcDb2dVertex
 10
7580834.1799999997
 20
5719374.36000000034
  0
VERTEX
  5
258
100
AcDbEntity
  8
dzialka
100
AcDbVertex
100
AcDb2dVertex
 10
7580830.01999999955
 20
5719373.5
  0
VERTEX
  5
259
100
AcDbEntity
  8
dzialka
100
AcDbVertex
100
AcDb2dVertex
 10
7580826.16000000015
 20
5719372.70999999996
  0
VERTEX
  5
25A
100
AcDbEntity
  8
dzialka
100
AcDbVertex
100
AcDb2dVertex
 10
7580806.53000000026
 20
5719368.63999999966
  0
VERTEX
  5
25B
100
AcDbEntity
  8
dzialka
100
AcDbVertex
100
AcDb2dVertex
 10
7580797.03000000026
 20
5719366.6799999997
  0
VERTEX
  5
25C
100
AcDbEntity
  8
dzialka
100
AcDbVertex
100
AcDb2dVertex
 10
7580787.46999999974
 20
5719364.74000000022
  0
VERTEX
  5
25D
100
AcDbEntity
  8
dzialka
100
AcDbVertex
100
AcDb2dVertex
 10
7580767.91000000015
 20
5719360.78000000026
  0
VERTEX
  5
25E
100
AcDbEntity
  8
dzialka
100
AcDbVertex
100
AcDb2dVertex
 10
7580758.58000000007
 20
5719358.88999999966
  0
VERTEX
  5
25F
100
AcDbEntity
  8
dzialka
100
AcDbVertex
100
AcDb2dVertex
 10
7580749.66000000015
 20
5719357.08999999985
  0
VERTEX
  5
260
100
AcDbEntity
  8
dzialka
100
AcDbVertex
100
AcDb2dVertex
 10
7580723.16999999993
 20
5719353.16999999993
  0
VERTEX
  5
261
100
AcDbEntity
  8
dzialka
100
AcDbVertex
100
AcDb2dVertex
 10
7580708.08000000007
 20
5719350.9299999997
  0
VERTEX
  5
262
100
AcDbEntity
  8
dzialka
100
AcDbVertex
100
AcDb2dVertex
 10
7580691.54999999981
 20
5719348.49000000022
  0
VERTEX
  5
263
100
AcDbEntity
  8
dzialka
100
AcDbVertex
100
AcDb2dVertex
 10
7580664.91999999993
 20
5719346.69000000041
  0
VERTEX
  5
264
100
AcDbEntity
  8
dzialka
100
AcDbVertex
100
AcDb2dVertex
 10
7580639.04000000004
 20
5719347.98000000045
  0
VERTEX
  5
265
100
AcDbEntity
  8
dzialka
100
AcDbVertex
100
AcDb2dVertex
 10
7580595.1799999997
 20
5719352.29000000004
  0
VERTEX
  5
266
100
AcDbEntity
  8
dzialka
100
AcDbVertex
100
AcDb2dVertex
 10
7580580.30999999959
 20
5719354.30999999959
  0
VERTEX
  5
267
100
AcDbEntity
  8
dzialka
100
AcDbVertex
100
AcDb2dVertex
 10
7580557.61000000034
 20
5719357.41000000015
  0
VERTEX
  5
268
100
AcDbEntity
  8
dzialka
100
AcDbVertex
100
AcDb2dVertex
 10
7580525.33000000007
 20
5719361.09999999963
  0
VERTEX
  5
269
100
AcDbEntity
  8
dzialka
100
AcDbVertex
100
AcDb2dVertex
 10
7580512.58999999985
 20
5719362.54000000004
  0
VERTEX
  5
26A
100
AcDbEntity
  8
dzialka
100
AcDbVertex
100
AcDb2dVertex
 10
7580487.69000000041
 20
5719365.36000000034
  0
VERTEX
  5
26B
100
AcDbEntity
  8
dzialka
100
AcDbVertex
100
AcDb2dVertex
 10
7580464.51999999955
 20
5719367.99000000022
  0
VERTEX
  5
26C
100
AcDbEntity
  8
dzialka
100
AcDbVertex
100
AcDb2dVertex
 10
7580447.8200000003
 20
5719369.88999999966
  0
VERTEX
  5
26D
100
AcDbEntity
  8
dzialka
100
AcDbVertex
100
AcDb2dVertex
 10
7580431.12000000011
 20
5719371.76999999955
  0
VERTEX
  5
26E
100
AcDbEntity
  8
dzialka
100
AcDbVertex
100
AcDb2dVertex
 10
7580417.76999999955
 20
5719373.29000000004
  0
VERTEX
  5
26F
100
AcDbEntity
  8
dzialka
100
AcDbVertex
100
AcDb2dVertex
 10
7580405.62000000011
 20
5719374.66999999993
  0
VERTEX
  5
270
100
AcDbEntity
  8
dzialka
100
AcDbVertex
100
AcDb2dVertex
 10
7580394.21999999974
 20
5719375.95999999996
  0
VERTEX
  5
271
100
AcDbEntity
  8
dzialka
100
AcDbVertex
100
AcDb2dVertex
 10
7580382.91000000015
 20
5719377.25
  0
VERTEX
  5
272
100
AcDbEntity
  8
dzialka
100
AcDbVertex
100
AcDb2dVertex
 10
7580370.62999999989
 20
5719378.62999999989
  0
VERTEX
  5
273
100
AcDbEntity
  8
dzialka
100
AcDbVertex
100
AcDb2dVertex
 10
7580311.12000000011
 20
5719385.38999999966
  0
VERTEX
  5
274
100
AcDbEntity
  8
dzialka
100
AcDbVertex
100
AcDb2dVertex
 10
7580273.08999999985
 20
5719389.70000000019
  0
VERTEX
  5
275
100
AcDbEntity
  8
dzialka
100
AcDbVertex
100
AcDb2dVertex
 10
7580254.09999999963
 20
5719391.84999999963
  0
VERTEX
  5
276
100
AcDbEntity
  8
dzialka
100
AcDbVertex
100
AcDb2dVertex
 10
7580253.1799999997
 20
5719391.95999999996
  0
VERTEX
  5
277
100
AcDbEntity
  8
dzialka
100
AcDbVertex
100
AcDb2dVertex
 10
7580241.87999999989
 20
5719393.24000000022
  0
VERTEX
  5
278
100
AcDbEntity
  8
dzialka
100
AcDbVertex
100
AcDb2dVertex
 10
7580227.6799999997
 20
5719394.86000000034
  0
VERTEX
  5
279
100
AcDbEntity
  8
dzialka
100
AcDbVertex
100
AcDb2dVertex
 10
7580211.13999999966
 20
5719396.74000000022
  0
VERTEX
  5
27A
100
AcDbEntity
  8
dzialka
100
AcDbVertex
100
AcDb2dVertex
 10
7580150.5
 20
5719403.63999999966
  0
VERTEX
  5
27B
100
AcDbEntity
  8
dzialka
100
AcDbVertex
100
AcDb2dVertex
 10
7580045.37000000011
 20
5719415.58999999985
  0
VERTEX
  5
27C
100
AcDbEntity
  8
dzialka
100
AcDbVertex
100
AcDb2dVertex
 10
7580023.3200000003
 20
5719418.09999999963
  0
VERTEX
  5
27D
100
AcDbEntity
  8
dzialka
100
AcDbVertex
100
AcDb2dVertex
 10
7579934.28000000026
 20
5719428.21999999974
  0
VERTEX
  5
27E
100
AcDbEntity
  8
dzialka
100
AcDbVertex
100
AcDb2dVertex
 10
7579926.03000000026
 20
5719429.1799999997
  0
VERTEX
  5
27F
100
AcDbEntity
  8
dzialka
100
AcDbVertex
100
AcDb2dVertex
 10
7579912.91999999993
 20
5719430.69000000041
  0
VERTEX
  5
280
100
AcDbEntity
  8
dzialka
100
AcDbVertex
100
AcDb2dVertex
 10
7579897.13999999966
 20
5719432.50999999978
  0
VERTEX
  5
281
100
AcDbEntity
  8
dzialka
100
AcDbVertex
100
AcDb2dVertex
 10
7579876.48000000045
 20
5719434.90000000037
  0
VERTEX
  5
282
100
AcDbEntity
  8
dzialka
100
AcDbVertex
100
AcDb2dVertex
 10
7579866.33999999985
 20
5719436.0700000003
  0
VERTEX
  5
283
100
AcDbEntity
  8
dzialka
100
AcDbVertex
100
AcDb2dVertex
 10
7579855.51999999955
 20
5719437.3200000003
  0
VERTEX
  5
284
100
AcDbEntity
  8
dzialka
100
AcDbVertex
100
AcDb2dVertex
 10
7579833.46999999974
 20
5719439.87000000011
  0
VERTEX
  5
285
100
AcDbEntity
  8
dzialka
100
AcDbVertex
100
AcDb2dVertex
 10
7579811.37000000011
 20
5719442.41999999993
  0
VERTEX
  5
286
100
AcDbEntity
  8
dzialka
100
AcDbVertex
100
AcDb2dVertex
 10
7579799.5
 20
5719443.79999999981
  0
VERTEX
  5
287
100
AcDbEntity
  8
dzialka
100
AcDbVertex
100
AcDb2dVertex
 10
7579768.3200000003
 20
5719447.40000000037
  0
VERTEX
  5
288
100
AcDbEntity
  8
dzialka
100
AcDbVertex
100
AcDb2dVertex
 10
7579737.03000000026
 20
5719451.00999999978
  0
VERTEX
  5
289
100
AcDbEntity
  8
dzialka
100
AcDbVertex
100
AcDb2dVertex
 10
7579728.48000000045
 20
5719452.0
  0
VERTEX
  5
28A
100
AcDbEntity
  8
dzialka
100
AcDbVertex
100
AcDb2dVertex
 10
7579719.94000000041
 20
5719452.99000000022
  0
VERTEX
  5
28B
100
AcDbEntity
  8
dzialka
100
AcDbVertex
100
AcDb2dVertex
 10
7579710.80999999959
 20
5719454.04000000004
  0
VERTEX
  5
28C
100
AcDbEntity
  8
dzialka
100
AcDbVertex
100
AcDb2dVertex
 10
7579701.46999999974
 20
5719455.12000000011
  0
VERTEX
  5
28D
100
AcDbEntity
  8
dzialka
100
AcDbVertex
100
AcDb2dVertex
 10
7579692.9299999997
 20
5719456.09999999963
  0
VERTEX
  5
28E
100
AcDbEntity
  8
dzialka
100
AcDbVertex
100
AcDb2dVertex
 10
7579684.48000000045
 20
5719457.08999999985
  0
VERTEX
  5
28F
100
AcDbEntity
  8
dzialka
100
AcDbVertex
100
AcDb2dVertex
 10
7579677.9299999997
 20
5719457.83999999985
  0
VERTEX
  5
290
100
AcDbEntity
  8
dzialka
100
AcDbVertex
100
AcDb2dVertex
 10
7579666.70999999996
 20
5719459.13999999966
  0
VERTEX
  5
291
100
AcDbEntity
  8
dzialka
100
AcDbVertex
100
AcDb2dVertex
 10
7579654.69000000041
 20
5719460.51999999955
  0
VERTEX
  5
292
100
AcDbEntity
  8
dzialka
100
AcDbVertex
100
AcDb2dVertex
 10
7579641.58000000007
 20
5719462.04000000004
  0
VERTEX
  5
293
100
AcDbEntity
  8
dzialka
100
AcDbVertex
100
AcDb2dVertex
 10
7579593.75999999978
 20
5719467.55999999959
  0
VERTEX
  5
294
100
AcDbEntity
  8
dzialka
100
AcDbVertex
100
AcDb2dVertex
 10
7579577.37000000011
 20
5719469.45999999996
  0
VERTEX
  5
295
100
AcDbEntity
  8
dzialka
100
AcDbVertex
100
AcDb2dVertex
 10
7579561.87999999989
 20
5719471.24000000022
  0
VERTEX
  5
296
100
AcDbEntity
  8
dzialka
100
AcDbVertex
100
AcDb2dVertex
 10
7579529.34999999963
 20
5719475.0
  0
VERTEX
  5
297
100
AcDbEntity
  8
dzialka
100
AcDbVertex
100
AcDb2dVertex
 10
7579455.86000000034
 20
5719483.5
  0
VERTEX
  5
298
100
AcDbEntity
  8
dzialka
100
AcDbVertex
100
AcDb2dVertex
 10
7579417.16999999993
 20
5719487.95999999996
  0
VERTEX
  5
299
100
AcDbEntity
  8
dzialka
100
AcDbVertex
100
AcDb2dVertex
 10
7579400.23000000045
 20
5719489.9299999997
  0
VERTEX
  5
29A
100
AcDbEntity
  8
dzialka
100
AcDbVertex
100
AcDb2dVertex
 10
7579387.01999999955
 20
5719491.45000000019
  0
VERTEX
  5
29B
100
AcDbEntity
  8
dzialka
100
AcDbVertex
100
AcDb2dVertex
 10
7579374.91000000015
 20
5719492.84999999963
  0
VERTEX
  5
29C
100
AcDbEntity
  8
dzialka
100
AcDbVertex
100
AcDb2dVertex
 10
7579361.5
 20
5719494.38999999966
  0
VERTEX
  5
29D
100
AcDbEntity
  8
dzialka
100
AcDbVertex
100
AcDb2dVertex
 10
7579342.24000000022
 20
5719496.62000000011
  0
VERTEX
  5
29E
100
AcDbEntity
  8
dzialka
100
AcDbVertex
100
AcDb2dVertex
 10
7579336.04000000004
 20
5719497.36000000034
  0
VERTEX
  5
29F
100
AcDbEntity
  8
dzialka
100
AcDbVertex
100
AcDb2dVertex
 10
7579309.58000000007
 20
5719500.50999999978
  0
VERTEX
  5
2A0
100
AcDbEntity
  8
dzialka
100
AcDbVertex
100
AcDb2dVertex
 10
7579290.33000000007
 20
5719502.80999999959
  0
VERTEX
  5
2A1
100
AcDbEntity
  8
dzialka
100
AcDbVertex
100
AcDb2dVertex
 10
7579235.40000000037
 20
5719509.36000000034
  0
VERTEX
  5
2A2
100
AcDbEntity
  8
dzialka
100
AcDbVertex
100
AcDb2dVertex
 10
7579232.38999999966
 20
5719509.71999999974
  0
VERTEX
  5
2A3
100
AcDbEntity
  8
dzialka
100
AcDbVertex
100
AcDb2dVertex
 10
7579213.65000000037
 20
5719511.94000000041
  0
VERTEX
  5
2A4
100
AcDbEntity
  8
dzialka
100
AcDbVertex
100
AcDb2dVertex
 10
7579188.26999999955
 20
5719514.94000000041
  0
VERTEX
  5
2A5
100
AcDbEntity
  8
dzialka
100
AcDbVertex
100
AcDb2dVertex
 10
7579155.54999999981
 20
5719518.80999999959
  0
VERTEX
  5
2A6
100
AcDbEntity
  8
dzialka
100
AcDbVertex
100
AcDb2dVertex
 10
7579134.66000000015
 20
5719521.0
  0
VERTEX
  5
2A7
100
AcDbEntity
  8
dzialka
100
AcDbVertex
100
AcDb2dVertex
 10
7579067.34999999963
 20
5719528.11000000034
  0
VERTEX
  5
2A8
100
AcDbEntity
  8
dzialka
100
AcDbVertex
100
AcDb2dVertex
 10
7579041.48000000045
 20
5719530.83000000007
  0
VERTEX
  5
2A9
100
AcDbEntity
  8
dzialka
100
AcDbVertex
100
AcDb2dVertex
 10
7578999.12999999989
 20
5719535.46999999974
  0
VERTEX
  5
2AA
100
AcDbEntity
  8
dzialka
100
AcDbVertex
100
AcDb2dVertex
 10
7578943.50999999978
 20
5719541.58999999985
  0
VERTEX
  5
2AB
100
AcDbEntity
  8
dzialka
100
AcDbVertex
100
AcDb2dVertex
 10
7578935.5700000003
 20
5719542.49000000022
  0
VERTEX
  5
2AC
100
AcDbEntity
  8
dzialka
100
AcDbVertex
100
AcDb2dVertex
 10
7578909.74000000022
 20
5719545.45999999996
  0
VERTEX
  5
2AD
100
AcDbEntity
  8
dzialka
100
AcDbVertex
100
AcDb2dVertex
 10
7578873.33000000007
 20
5719549.63999999966
  0
VERTEX
  5
2AE
100
AcDbEntity
  8
dzialka
100
AcDbVertex
100
AcDb2dVertex
 10
7578838.05999999959
 20
5719553.69000000041
  0
VERTEX
  5
2AF
100
AcDbEntity
  8
dzialka
100
AcDbVertex
100
AcDb2dVertex
 10
7578808.29000000004
 20
5719557.15000000037
  0
VERTEX
  5
2B0
100
AcDbEntity
  8
dzialka
100
AcDbVertex
100
AcDb2dVertex
 10
7578770.58000000007
 20
5719561.53000000026
  0
VERTEX
  5
2B1
100
AcDbEntity
  8
dzialka
100
AcDbVertex
100
AcDb2dVertex
 10
7578733.95999999996
 20
5719565.78000000026
  0
VERTEX
  5
2B2
100
AcDbEntity
  8
dzialka
100
AcDbVertex
100
AcDb2dVertex
 10
7578732.3200000003
 20
5719565.96999999974
  0
VERTEX
  5
2B3
100
AcDbEntity
  8
dzialka
100
AcDbVertex
100
AcDb2dVertex
 10
7578676.83999999985
 20
5719572.37000000011
  0
VERTEX
  5
2B4
100
AcDbEntity
  8
dzialka
100
AcDbVertex
100
AcDb2dVertex
 10
7578621.28000000026
 20
5719578.75999999978
  0
VERTEX
  5
2B5
100
AcDbEntity
  8
dzialka
100
AcDbVertex
100
AcDb2dVertex
 10
7578616.19000000041
 20
5719579.34999999963
  0
VERTEX
  5
2B6
100
AcDbEntity
  8
dzialka
100
AcDbVertex
100
AcDb2dVertex
 10
7578636.80999999959
 20
5719605.73000000045
  0
SEQEND
  5
2B7
100
AcDbEntity
  8
dzialka
  0
POLYLINE
  5
2B8
100
AcDbEntity
  8
dzialka
  6
CONTINUOUS
370
18
100
AcDb2dPolyline
 66
1
 70
129
  0
VERTEX
  5
2B9
100
AcDbEntity
  8
dzialka
100
AcDbVertex
100
AcDb2dVertex
 10
7578924.98000000045
 20
5719614.3200000003
  0
VERTEX
  5
2BA
100
AcDbEntity
  8
dzialka
100
AcDbVertex
100
AcDb2dVertex
 10
7578924.05999999959
 20
5719604.95999999996
  0
VERTEX
  5
2BB
100
AcDbEntity
  8
dzialka
100
AcDbVertex
100
AcDb2dVertex
 10
7578694.45999999996
 20
5719599.54999999981
  0
VERTEX
  5
2BC
100
AcDbEntity
  8
dzialka
100
AcDbVertex
100
AcDb2dVertex
 10
7578636.80999999959
 20
5719605.73000000045
  0
VERTEX
  5
2BD
100
AcDbEntity
  8
dzialka
100
AcDbVertex
100
AcDb2dVertex
 10
7578637.55999999959
 20
5719608.79000000004
  0
SEQEND
  5
2BE
100
AcDbEntity
  8
dzialka
  0
MTEXT
  5
2BF
100
AcDbEntity
  8
dzialka
370
35
100
AcDbMText
 10
7579212.72499999963
 20
5719801.25499999989
 40
1.7500
 41
0.0
 71
5
 72
1
  1
\W0.6563x;41
  7
STANDARD
 11
1.00000000
 21
0.00000000
 44
0.90
 90
3
 63
0
 45
1.0
  0
MTEXT
  5
2C0
100
AcDbEntity
  8
dzialka
370
35
100
AcDbMText
 10
7579072.0549999997
 20
5719758.44000000041
 40
1.7500
 41
0.0
 71
5
 72
1
  1
\W0.6563x;2011
  7
STANDARD
 11
1.00000000
 21
0.00000000
 44
0.90
 90
3
 63
0
 45
1.0
  0
MTEXT
  5
2C1
100
AcDbEntity
  8
dzialka
370
35
100
AcDbMText
 10
7579071.75500000082
 20
5719748.58999999985
 40
1.7500
 41
0.0
 71
5
 72
1
  1
\W0.6563x;2013
  7
STANDARD
 11
1.00000000
 21
0.00000000
 44
0.90
 90
3
 63
0
 45
1.0
  0
MTEXT
  5
2C2
100
AcDbEntity
  8
dzialka
370
35
100
AcDbMText
 10
7578805.21499999985
 20
5719753.62000000011
 40
1.7500
 41
0.0
 71
5
 72
1
  1
\W0.6563x;2009
  7
STANDARD
 11
1.00000000
 21
0.00000000
 44
0.90
 90
3
 63
0
 45
1.0
  0
MTEXT
  5
2C3
100
AcDbEntity
  8
dzialka
370
35
100
AcDbMText
 10
7578804.375
 20
5719748.65000000037
 40
1.7500
 41
0.0
 71
5
 72
1
  1
\W0.6563x;2010
  7
STANDARD
 11
1.00000000
 21
0.00000000
 44
0.90
 90
3
 63
0
 45
1.0
  0
MTEXT
  5
2C4
100
AcDbEntity
  8
dzialka
370
35
100
AcDbMText
 10
7578802.94000000041
 20
5719741.25
 40
1.7500
 41
0.0
 71
5
 72
1
  1
\W0.6563x;2012
  7
STANDARD
 11
1.00000000
 21
0.00000000
 44
0.90
 90
3
 63
0
 45
1.0
  0
MTEXT
  5
2C5
100
AcDbEntity
  8
dzialka
370
35
100
AcDbMText
 10
7578935.96999999974
 20
5719735.3200000003
 40
1.7500
 41
0.0
 71
5
 72
1
  1
\W0.6563x;2014
  7
STANDARD
 11
1.00000000
 21
0.00000000
 44
0.90
 90
3
 63
0
 45
1.0
  0
MTEXT
  5
2C6
100
AcDbEntity
  8
dzialka
370
35
100
AcDbMText
 10
7578799.59499999974
 20
5719721.61000000034
 40
1.7500
 41
0.0
 71
5
 72
1
  1
\W0.6563x;2015
  7
STANDARD
 11
1.00000000
 21
0.00000000
 44
0.90
 90
3
 63
0
 45
1.0
  0
MTEXT
  5
2C7
100
AcDbEntity
  8
dzialka
370
35
100
AcDbMText
 10
7579071.15000000037
 20
5719728.98000000045
 40
1.7500
 41
0.0
 71
5
 72
1
  1
\W0.6563x;2016
  7
STANDARD
 11
1.00000000
 21
0.00000000
 44
0.90
 90
3
 63
0
 45
1.0
  0
MTEXT
  5
2C8
100
AcDbEntity
  8
dzialka
370
35
100
AcDbMText
 10
7578797.93499999959
 20
5719711.81499999948
 40
1.7500
 41
0.0
 71
5
 72
1
  1
\W0.6563x;2017
  7
STANDARD
 11
1.00000000
 21
0.00000000
 44
0.90
 90
3
 63
0
 45
1.0
  0
MTEXT
  5
2C9
100
AcDbEntity
  8
dzialka
370
35
100
AcDbMText
 10
7579070.99500000011
 20
5719721.65500000026
 40
1.7500
 41
0.0
 71
5
 72
1
  1
\W0.6563x;2018
  7
STANDARD
 11
1.00000000
 21
0.00000000
 44
0.90
 90
3
 63
0
 45
1.0
  0
MTEXT
  5
2CA
100
AcDbEntity
  8
dzialka
370
35
100
AcDbMText
 10
7579070.84999999963
 20
5719716.75999999978
 40
1.7500
 41
0.0
 71
5
 72
1
  1
\W0.6563x;2019
  7
STANDARD
 11
1.00000000
 21
0.00000000
 44
0.90
 90
3
 63
0
 45
1.0
  0
MTEXT
  5
2CB
100
AcDbEntity
  8
dzialka
370
35
100
AcDbMText
 10
7579070.53500000015
 20
5719709.43500000052
 40
1.7500
 41
0.0
 71
5
 72
1
  1
\W0.6563x;2021
  7
STANDARD
 11
1.00000000
 21
0.00000000
 44
0.90
 90
3
 63
0
 45
1.0
  0
MTEXT
  5
2CC
100
AcDbEntity
  8
dzialka
370
35
100
AcDbMText
 10
7579024.23500000034
 20
5719698.34500000067
 40
1.7500
 41
0.0
 71
5
 72
1
  1
\W0.6563x;2023
  7
STANDARD
 11
1.00000000
 21
0.00000000
 44
0.90
 90
3
 63
0
 45
1.0
  0
MTEXT
  5
2CD
100
AcDbEntity
  8
dzialka
370
35
100
AcDbMText
 10
7579161.89499999955
 20
5719702.5549999997
 40
1.7500
 41
0.0
 71
5
 72
1
  1
\W0.6563x;2024
  7
STANDARD
 11
1.00000000
 21
0.00000000
 44
0.90
 90
3
 63
0
 45
1.0
  0
MTEXT
  5
2CE
100
AcDbEntity
  8
dzialka
370
35
100
AcDbMText
 10
7579069.93999999948
 20
5719690.08000000007
 40
1.7500
 41
0.0
 71
5
 72
1
  1
\W0.6563x;2026
  7
STANDARD
 11
1.00000000
 21
0.00000000
 44
0.90
 90
3
 63
0
 45
1.0
  0
MTEXT
  5
2CF
100
AcDbEntity
  8
dzialka
370
35
100
AcDbMText
 10
7579069.6400000006
 20
5719680.47499999963
 40
1.7500
 41
0.0
 71
5
 72
1
  1
\W0.6563x;2028
  7
STANDARD
 11
1.00000000
 21
0.00000000
 44
0.90
 90
3
 63
0
 45
1.0
  0
MTEXT
  5
2D0
100
AcDbEntity
  8
dzialka
370
35
100
AcDbMText
 10
7579069.34500000067
 20
5719670.9299999997
 40
1.7500
 41
0.0
 71
5
 72
1
  1
\W0.6563x;2030
  7
STANDARD
 11
1.00000000
 21
0.00000000
 44
0.90
 90
3
 63
0
 45
1.0
  0
MTEXT
  5
2D1
100
AcDbEntity
  8
dzialka
370
35
100
AcDbMText
 10
7579069.04999999981
 20
5719661.40000000037
 40
1.7500
 41
0.0
 71
5
 72
1
  1
\W0.6563x;2032
  7
STANDARD
 11
1.00000000
 21
0.00000000
 44
0.90
 90
3
 63
0
 45
1.0
  0
MTEXT
  5
2D2
100
AcDbEntity
  8
dzialka
370
35
100
AcDbMText
 10
7579068.75999999978
 20
5719651.92500000074
 40
1.7500
 41
0.0
 71
5
 72
1
  1
\W0.6563x;2035
  7
STANDARD
 11
1.00000000
 21
0.00000000
 44
0.90
 90
3
 63
0
 45
1.0
  0
MTEXT
  5
2D3
100
AcDbEntity
  8
dzialka
370
35
100
AcDbMText
 10
7579068.47000000067
 20
5719642.4450000003
 40
1.7500
 41
0.0
 71
5
 72
1
  1
\W0.6563x;2038
  7
STANDARD
 11
1.00000000
 21
0.00000000
 44
0.90
 90
3
 63
0
 45
1.0
  0
MTEXT
  5
2D4
100
AcDbEntity
  8
dzialka
370
35
100
AcDbMText
 10
7579083.60500000045
 20
5719633.49000000022
 40
1.7500
 41
0.0
 71
5
 72
1
  1
\W0.6563x;2040
  7
STANDARD
 11
1.00000000
 21
0.00000000
 44
0.90
 90
3
 63
0
 45
1.0
  0
MTEXT
  5
2D5
100
AcDbEntity
  8
dzialka
370
35
100
AcDbMText
 10
7579068.03500000015
 20
5719625.9450000003
 40
1.7500
 41
0.0
 71
5
 72
1
  1
\W0.6563x;2042
  7
STANDARD
 11
1.00000000
 21
0.00000000
 44
0.90
 90
3
 63
0
 45
1.0
  0
MTEXT
  5
2D6
100
AcDbEntity
  8
dzialka
370
35
100
AcDbMText
 10
7579067.8900000006
 20
5719621.29499999993
 40
1.7500
 41
0.0
 71
5
 72
1
  1
\W0.6563x;2043
  7
STANDARD
 11
1.00000000
 21
0.00000000
 44
0.90
 90
3
 63
0
 45
1.0
  0
MTEXT
  5
2D7
100
AcDbEntity
  8
dzialka
370
35
100
AcDbMText
 10
7579067.59999999963
 20
5719614.24000000022
 40
1.7500
 41
0.0
 71
5
 72
1
  1
\W0.6563x;2045
  7
STANDARD
 11
1.00000000
 21
0.00000000
 44
0.90
 90
3
 63
0
 45
1.0
  0
MTEXT
  5
2D8
100
AcDbEntity
  8
dzialka
370
35
100
AcDbMText
 10
7578952.85500000045
 20
5719604.94999999926
 40
1.7500
 41
0.0
 71
5
 72
1
  1
\W0.6563x;2046
  7
STANDARD
 11
1.00000000
 21
0.00000000
 44
0.90
 90
3
 63
0
 45
1.0
  0
MTEXT
  5
2D9
100
AcDbEntity
  8
dzialka
370
35
100
AcDbMText
 10
7578971.0
 20
5719601.60500000045
 40
1.7500
 41
0.0
 71
5
 72
1
  1
\W0.6563x;2047
  7
STANDARD
 11
1.00000000
 21
0.00000000
 44
0.90
 90
3
 63
0
 45
1.0
  0
MTEXT
  5
2DA
100
AcDbEntity
  8
dzialka
370
35
100
AcDbMText
 10
7579067.17499999981
 20
5719598.05000000074
 40
1.7500
 41
0.0
 71
5
 72
1
  1
\W0.6563x;2050
  7
STANDARD
 11
1.00000000
 21
0.00000000
 44
0.90
 90
3
 63
0
 45
1.0
  0
MTEXT
  5
2DB
100
AcDbEntity
  8
dzialka
370
35
100
AcDbMText
 10
7579066.75499999989
 20
5719586.58000000007
 40
1.7500
 41
0.0
 71
5
 72
1
  1
\W0.6563x;2054
  7
STANDARD
 11
1.00000000
 21
0.00000000
 44
0.90
 90
3
 63
0
 45
1.0
  0
MTEXT
  5
2DC
100
AcDbEntity
  8
dzialka
370
35
100
AcDbMText
 10
7578968.65000000037
 20
5719575.21999999974
 40
1.7500
 41
0.0
 71
5
 72
1
  1
\W0.6563x;2055
  7
STANDARD
 11
1.00000000
 21
0.00000000
 44
0.90
 90
3
 63
0
 45
1.0
  0
MTEXT
  5
2DD
100
AcDbEntity
  8
dzialka
370
35
100
AcDbMText
 10
7579124.64499999955
 20
5719579.24000000022
 40
1.7500
 41
0.0
 71
5
 72
1
  1
\W0.6563x;2056
  7
STANDARD
 11
1.00000000
 21
0.00000000
 44
0.90
 90
3
 63
0
 45
1.0
  0
MTEXT
  5
2DE
100
AcDbEntity
  8
dzialka
370
35
100
AcDbMText
 10
7579086.9299999997
 20
5719571.54000000004
 40
1.7500
 41
0.0
 71
5
 72
1
  1
\W0.6563x;2057
  7
STANDARD
 11
1.00000000
 21
0.00000000
 44
0.90
 90
3
 63
0
 45
1.0
  0
MTEXT
  5
2DF
100
AcDbEntity
  8
dzialka
370
35
100
AcDbMText
 10
7579103.75
 20
5719567.36500000022
 40
1.7500
 41
0.0
 71
5
 72
1
  1
\W0.6563x;2058
  7
STANDARD
 11
1.00000000
 21
0.00000000
 44
0.90
 90
3
 63
0
 45
1.0
  0
MTEXT
  5
2E0
100
AcDbEntity
  8
dzialka
370
35
100
AcDbMText
 10
7579120.54999999981
 20
5719561.5700000003
 40
1.7500
 41
0.0
 71
5
 72
1
  1
\W0.6563x;2059
  7
STANDARD
 11
1.00000000
 21
0.00000000
 44
0.90
 90
3
 63
0
 45
1.0
  0
MTEXT
  5
2E1
100
AcDbEntity
  8
dzialka
370
35
100
AcDbMText
 10
7579152.05000000074
 20
5719552.37000000011
 40
1.7500
 41
0.0
 71
5
 72
1
  1
\W0.6563x;2060
  7
STANDARD
 11
1.00000000
 21
0.00000000
 44
0.90
 90
3
 63
0
 45
1.0
  0
MTEXT
  5
2E2
100
AcDbEntity
  8
dzialka
370
35
100
AcDbMText
 10
7579193.62999999989
 20
5719545.38499999978
 40
1.7500
 41
0.0
 71
5
 72
1
  1
\W0.6563x;2061
  7
STANDARD
 11
1.00000000
 21
0.00000000
 44
0.90
 90
3
 63
0
 45
1.0
  0
MTEXT
  5
2E3
100
AcDbEntity
  8
dzialka
370
35
100
AcDbMText
 10
7579216.96499999985
 20
5719706.49000000022
 40
1.7500
 41
0.0
 71
5
 72
1
  1
\W0.6563x;2062
  7
STANDARD
 11
1.00000000
 21
0.00000000
 44
0.90
 90
3
 63
0
 45
1.0
  0
MTEXT
  5
2E4
100
AcDbEntity
  8
dzialka
370
35
100
AcDbMText
 10
7579220.4299999997
 20
5719614.45500000007
 40
1.7500
 41
0.0
 71
5
 72
1
  1
\W0.6563x;2063
  7
STANDARD
 11
1.00000000
 21
0.00000000
 44
0.90
 90
3
 63
0
 45
1.0
  0
MTEXT
  5
2E5
100
AcDbEntity
  8
dzialka
370
35
100
AcDbMText
 10
7579222.70500000007
 20
5719553.01999999955
 40
1.7500
 41
0.0
 71
5
 72
1
  1
\W0.6563x;2064
  7
STANDARD
 11
1.00000000
 21
0.00000000
 44
0.90
 90
3
 63
0
 45
1.0
  0
MTEXT
  5
2E6
100
AcDbEntity
  8
dzialka
370
35
100
AcDbMText
 10
7578796.27999999933
 20
5719702.0549999997
 40
1.7500
 41
0.0
 71
5
 72
1
  1
\W0.6563x;2020
  7
STANDARD
 11
1.00000000
 21
0.00000000
 44
0.90
 90
3
 63
0
 45
1.0
  0
MTEXT
  5
2E7
100
AcDbEntity
  8
dzialka
370
35
100
AcDbMText
 10
7578794.625
 20
5719692.3200000003
 40
1.7500
 41
0.0
 71
5
 72
1
  1
\W0.6563x;2022
  7
STANDARD
 11
1.00000000
 21
0.00000000
 44
0.90
 90
3
 63
0
 45
1.0
  0
MTEXT
  5
2E8
100
AcDbEntity
  8
dzialka
370
35
100
AcDbMText
 10
7578792.98500000034
 20
5719682.62999999989
 40
1.7500
 41
0.0
 71
5
 72
1
  1
\W0.6563x;2025
  7
STANDARD
 11
1.00000000
 21
0.00000000
 44
0.90
 90
3
 63
0
 45
1.0
  0
MTEXT
  5
2E9
100
AcDbEntity
  8
dzialka
370
35
100
AcDbMText
 10
7578791.35500000045
 20
5719673.01999999955
 40
1.7500
 41
0.0
 71
5
 72
1
  1
\W0.6563x;2027
  7
STANDARD
 11
1.00000000
 21
0.00000000
 44
0.90
 90
3
 63
0
 45
1.0
  0
MTEXT
  5
2EA
100
AcDbEntity
  8
dzialka
370
35
100
AcDbMText
 10
7578789.72000000067
 20
5719663.42499999981
 40
1.7500
 41
0.0
 71
5
 72
1
  1
\W0.6563x;2029
  7
STANDARD
 11
1.00000000
 21
0.00000000
 44
0.90
 90
3
 63
0
 45
1.0
  0
MTEXT
  5
2EB
100
AcDbEntity
  8
dzialka
370
35
100
AcDbMText
 10
7578788.11500000022
 20
5719653.91000000015
 40
1.7500
 41
0.0
 71
5
 72
1
  1
\W0.6563x;2031
  7
STANDARD
 11
1.00000000
 21
0.00000000
 44
0.90
 90
3
 63
0
 45
1.0
  0
MTEXT
  5
2EC
100
AcDbEntity
  8
dzialka
370
35
100
AcDbMText
 10
7578715.31000000052
 20
5719642.88499999978
 40
1.7500
 41
0.0
 71
5
 72
1
  1
\W0.6563x;2033
  7
STANDARD
 11
1.00000000
 21
0.00000000
 44
0.90
 90
3
 63
0
 45
1.0
  0
MTEXT
  5
2ED
100
AcDbEntity
  8
dzialka
370
35
100
AcDbMText
 10
7578857.375
 20
5719645.91500000004
 40
1.7500
 41
0.0
 71
5
 72
1
  1
\W0.6563x;2034
  7
STANDARD
 11
1.00000000
 21
0.00000000
 44
0.90
 90
3
 63
0
 45
1.0
  0
MTEXT
  5
2EE
100
AcDbEntity
  8
dzialka
370
35
100
AcDbMText
 10
7578737.00999999978
 20
5719633.99000000022
 40
1.7500
 41
0.0
 71
5
 72
1
  1
\W0.6563x;2036
  7
STANDARD
 11
1.00000000
 21
0.00000000
 44
0.90
 90
3
 63
0
 45
1.0
  0
MTEXT
  5
2EF
100
AcDbEntity
  8
dzialka
370
35
100
AcDbMText
 10
7578879.75499999989
 20
5719636.95000000019
 40
1.7500
 41
0.0
 71
5
 72
1
  1
\W0.6563x;2037
  7
STANDARD
 11
1.00000000
 21
0.00000000
 44
0.90
 90
3
 63
0
 45
1.0
  0
MTEXT
  5
2F0
100
AcDbEntity
  8
dzialka
370
35
100
AcDbMText
 10
7578680.0549999997
 20
5719623.49000000022
 40
1.7500
 41
0.0
 71
5
 72
1
  1
\W0.6563x;2039/1
  7
STANDARD
 11
1.00000000
 21
0.00000000
 44
0.90
 90
3
 63
0
 45
1.0
  0
MTEXT
  5
2F1
100
AcDbEntity
  8
dzialka
370
35
100
AcDbMText
 10
7578838.66500000004
 20
5719626.8900000006
 40
1.7500
 41
0.0
 71
5
 72
1
  1
\W0.6563x;2039/2
  7
STANDARD
 11
1.00000000
 21
0.00000000
 44
0.90
 90
3
 63
0
 45
1.0
  0
MTEXT
  5
2F2
100
AcDbEntity
  8
dzialka
370
35
100
AcDbMText
 10
7578781.73000000045
 20
5719616.25999999978
 40
1.7500
 41
0.0
 71
5
 72
1
  1
\W0.6563x;2041
  7
STANDARD
 11
1.00000000
 21
0.00000000
 44
0.90
 90
3
 63
0
 45
1.0
  0
MTEXT
  5
2F3
100
AcDbEntity
  8
dzialka
370
35
100
AcDbMText
 10
7578844.91999999993
 20
5719592.08000000007
 40
1.7500
 41
0.0
 71
5
 72
1
  1
\W0.6563x;2048
  7
STANDARD
 11
1.00000000
 21
0.00000000
 44
0.90
 90
3
 63
0
 45
1.0
  0
MTEXT
  5
2F4
100
AcDbEntity
  8
dzialka
370
35
100
AcDbMText
 10
7578863.08999999985
 20
5719587.9450000003
 40
1.7500
 41
0.0
 71
5
 72
1
  1
\W0.6563x;2049
  7
STANDARD
 11
1.00000000
 21
0.00000000
 44
0.90
 90
3
 63
0
 45
1.0
  0
MTEXT
  5
2F5
100
AcDbEntity
  8
dzialka
370
35
100
AcDbMText
 10
7578881.54999999981
 20
5719581.81000000052
 40
1.7500
 41
0.0
 71
5
 72
1
  1
\W0.6563x;2053
  7
STANDARD
 11
1.00000000
 21
0.00000000
 44
0.90
 90
3
 63
0
 45
1.0
  0
MTEXT
  5
2F6
100
AcDbEntity
  8
dzialka
370
35
100
AcDbMText
 10
7579226.63499999978
 20
5719729.625
 40
1.7500
 41
0.0
 71
5
 72
1
  1
\W0.6563x;43
  7
STANDARD
 11
1.00000000
 21
0.00000000
 44
0.90
 90
3
 63
0
 45
1.0
  0
MTEXT
  5
2F7
100
AcDbEntity
  8
dzialka
370
35
100
AcDbMText
 10
7578995.04999999981
 20
5719591.14499999955
 40
1.7500
 41
0.0
 71
5
 72
1
  1
\W0.6563x;2051
  7
STANDARD
 11
1.00000000
 21
0.00000000
 44
0.90
 90
3
 63
0
 45
1.0
  0
MTEXT
  5
2F8
100
AcDbEntity
  8
dzialka
370
35
100
AcDbMText
 10
7579139.74000000022
 20
5719595.77999999933
 40
1.7500
 41
0.0
 71
5
 72
1
  1
\W0.6563x;2052
  7
STANDARD
 11
1.00000000
 21
0.00000000
 44
0.90
 90
3
 63
0
 45
1.0
  0
MTEXT
  5
2F9
100
AcDbEntity
  8
dzialka
370
35
100
AcDbMText
 10
7579241.53500000015
 20
5719689.95000000019
 40
1.7500
 41
0.0
 71
5
 72
1
  1
\W0.6563x;44/2
  7
STANDARD
 11
1.00000000
 21
0.00000000
 44
0.90
 90
3
 63
0
 45
1.0
  0
MTEXT
  5
2FA
100
AcDbEntity
  8
dzialka
370
35
100
AcDbMText
 10
7579257.9849999994
 20
5719728.22499999963
 40
1.7500
 41
0.0
 71
5
 72
1
  1
\W0.6563x;45
  7
STANDARD
 11
1.00000000
 21
0.00000000
 44
0.90
 90
3
 63
0
 45
1.0
  0
MTEXT
  5
2FB
100
AcDbEntity
  8
dzialka
370
35
100
AcDbMText
 10
7579277.67500000074
 20
5719727.33000000007
 40
1.7500
 41
0.0
 71
5
 72
1
  1
\W0.6563x;46
  7
STANDARD
 11
1.00000000
 21
0.00000000
 44
0.90
 90
3
 63
0
 45
1.0
  0
MTEXT
  5
2FC
100
AcDbEntity
  8
dzialka
370
35
100
AcDbMText
 10
7579296.64499999955
 20
5719726.7349999994
 40
1.7500
 41
0.0
 71
5
 72
1
  1
\W0.6563x;47/1
  7
STANDARD
 11
1.00000000
 21
0.00000000
 44
0.90
 90
3
 63
0
 45
1.0
  0
MTEXT
  5
2FD
100
AcDbEntity
  8
dzialka
370
35
100
AcDbMText
 10
7581246.83346480504
 20
5719476.21000000089
 40
1.7500
 41
0.0
 71
5
 72
1
  1
\W0.6563x;98
  7
STANDARD
 11
1.00000000
 21
0.00000000
 44
0.90
 90
3
 63
0
 45
1.0
  0
MTEXT
  5
2FE
100
AcDbEntity
  8
dzialka
370
35
100
AcDbMText
 10
7578780.89499999955
 20
5719606.93500000052
 40
1.7500
 41
0.0
 71
5
 72
1
  1
\W0.6563x;2044
  7
STANDARD
 11
1.00000000
 21
0.00000000
 44
0.90
 90
3
 63
0
 45
1.0
  0
ENDSEC
  0
SECTION
  2
OBJECTS
  0
DICTIONARY
  5
2FF
330
0
100
AcDbDictionary
280
0
281
1
  3
ACAD_GROUP
350
300
  3
ACAD_LAYOUT
350
301
  3
ACAD_MLINESTYLE
350
302
  3
ACAD_PLOTSETTINGS
350
303
  3
ACAD_PLOTSTYLENAME
350
304
  0
DICTIONARY
  5
300
102
{ACAD_REACTORS
330
2FF
102
}
330
2FF
100
AcDbDictionary
280
0
281
1
  0
DICTIONARY
  5
301
102
{ACAD_REACTORS
330
2FF
102
}
330
2FF
100
AcDbDictionary
280
0
281
1
  3
Layout
350
18
  3
Model
350
16
  0
DICTIONARY
  5
302
102
{ACAD_REACTORS
330
2FF
102
}
330
2FF
100
AcDbDictionary
280
0
281
1
  3
Standard
350
305
  0
DICTIONARY
  5
303
102
{ACAD_REACTORS
330
2FF
102
}
330
2FF
100
AcDbDictionary
280
0
281
1
  0
ACDBDICTIONARYWDFLT
  5
304
102
{ACAD_REACTORS
330
2FF
102
}
330
2FF
100
AcDbDictionary
281
1
  3
Normal
350
9
100
AcDbDictionaryWithDefault
340
9
  0
LAYOUT
  5
18
100
AcDbPlotSettings
  1

  2

  4

  6

 40
0.0
 41
0.0
 42
0.0
 43
0.0
 44
0.0
 45
0.0
 46
0.0
 47
0.0
 48
0.0
 49
0.0
140
0.0
141
0.0
142
1.0
143
1.0
 70
688
 72
1
 73
0
 74
5
  7

 75
0
147
1.0
148
0.0
149
0.0
100
AcDbLayout
  1
Layout
 70
1
 71
1
 10
0.0
 20
0.0
 11
420.0
 21
297.0
 12
0.0
 22
0.0
 32
0.0
 14
100000000000000000000.0
 24
100000000000000000000.0
 34
100000000000000000000.0
 15
-100000000000000000000.0
 25
-100000000000000000000.0
 35
-100000000000000000000.0
146
0.0
 13
0.0
 23
0.0
 33
0.0
 16
1.0
 26
0.0
 36
0.0
 17
0.0
 27
1.0
 37
0.0
 76
0
330
17
  0
LAYOUT
  5
16
100
AcDbPlotSettings
  1

  2

  4

  6

 40
0.0
 41
0.0
 42
0.0
 43
0.0
 44
0.0
 45
0.0
 46
0.0
 47
0.0
 48
0.0
 49
0.0
140
0.0
141
0.0
142
1.0
143
1.0
 70
1712
 72
1
 73
0
 74
0
  7

 75
0
147
1.0
148
0.0
149
0.0
100
AcDbLayout
  1
Model
 70
1
 71
0
 10
0.0
 20
0.0
 11
12.0
 21
9.0
 12
0.0
 22
0.0
 32
0.0
 14
0.0
 24
0.0
 34
0.0
 15
0.0
 25
0.0
 35
0.0
146
0.0
 13
0.0
 23
0.0
 33
0.0
 16
1.0
 26
0.0
 36
0.0
 17
0.0
 27
1.0
 37
0.0
 76
0
330
15
  0
MLINESTYLE
  5
305
102
{ACAD_REACTORS
330
302
102
}
330
302
100
AcDbMlineStyle
  2
Standard
 70
0
  3

 62
256
 51
90.0
 52
90.0
  2
Standard
 71
2
 49
0.5
 62
256
  6
ByLayer
 49
-0.5
 62
256
  6
ByLayer
  0
ACDBPLACEHOLDER
  5
9
  0
ENDSEC
  0
EOF
