  0
SECTION
  2
HEADER
  9
$ACADVER
  1
AC1018
  9
$HANDSEED
  5
FFFFFF
  9
$EXTMAX
 10
7576552.65799999982
 20
5706604.30200000014
 30
1000000.00
  9
$EXTMIN
 10
7576534.38800000027
 20
5706572.33499999996
 30
0.00
  9
$LIMMIN
 10
7576534.38800000027
 20
5706572.33499999996
  9
$LIMMAX
 10
7576552.65799999982
 20
5706604.30200000014
  9
$DIMASZ
 40
2.5
  9
$DIMGAP
 40
0.625
  9
$INSUNITS
 70
6
  9
$MEASUREMENT
 70
1
  9
$DIMEXO
 40
0.625
  9
$DIMTXT
 40
2.5
  9
$DIMSTYLE
  2
Standard
  9
$PLIMMIN
 10
0.0
 20
0.0
  9
$PLIMMAX
 10
210.0
 20
297.0
  9
$DIMEXE
 40
1.25
  9
$TEXTSIZE
 40
2.5
  9
$TEXTSTYLE
  7
Standard
  9
$LWDISPLAY
290
1
  9
$TDCREATE
 40
45956.630292118
  9
$TDUCREATE
 40
45956.588625451
  9
$TDUPDATE
 40
45956.630292118
  9
$TDUUPDATE
 40
45956.588625451
  9
$TDINDWG
 40
0.0
  9
$TDUSRTIMER
 40
0.0
  9
$USRTIMER
 70
1
  0
ENDSEC
  0
SECTION
  2
TABLES
  0
TABLE
  2
VPORT
  5
1
100
AcDbSymbolTable
 70
1
  0
VPORT
  5
2
100
AcDbSymbolTableRecord
100
AcDbViewportTableRecord
  2
*ACTIVE
 70
0
 10
0.0
 20
0.0
 11
1.0
 21
1.0
 12
7576543.523
 22
5706588.319
 13
0.0
 23
0.0
 14
1.0
 24
1.0
 15
0.0
 25
0.0
 16
0.0
 26
0.0
 36
1.0
 17
0.0
 27
0.0
 37
0.0
 40
31.967
 41
0.572
 42
50.0
 43
0.0
 44
0.0
 50
0.0
 51
0.0
 71
0
 72
100
 73
1
 74
1
 75
0
 76
0
 77
0
 78
0
  0
ENDTAB
  0
TABLE
  2
LTYPE
  5
3
100
AcDbSymbolTable
 70
3
  0
LTYPE
  5
4
100
AcDbSymbolTableRecord
100
AcDbLinetypeTableRecord
  2
ByBlock
 70
0
  3

 72
65
 73
0
 40
0.0
  0
LTYPE
  5
5
100
AcDbSymbolTableRecord
100
AcDbLinetypeTableRecord
  2
ByLayer
 70
0
  3

 72
65
 73
0
 40
0.0
  0
LTYPE
  5
6
100
AcDbSymbolTableRecord
100
AcDbLinetypeTableRecord
  2
CONTINUOUS
 70
0
  3
Solid line
 72
65
 73
0
 40
0.0
  0
LTYPE
  5
7
100
AcDbSymbolTableRecord
100
AcDbLinetypeTableRecord
  2
L_0_03
 70
0
  3
Uzytek_gruntowy
 72
65
 73
2
 40
0.4
 49
0.2
 74
0
 49
-0.2
 74
0
  0
LTYPE
  5
8
100
AcDbSymbolTableRecord
100
AcDbLinetypeTableRecord
  2
L_0_06
 70
0
  3
Granica_konturu_klasyfikacyjnego_Krawedz_chodnika
 72
65
 73
2
 40
0.8
 49
0.6
 74
0
 49
-0.2
 74
0
  0
ENDTAB
  0
TABLE
  2
LAYER
  5
9
100
AcDbSymbolTable
 70
3
  0
LAYER
  5
A
100
AcDbSymbolTableRecord
100
AcDbLayerTableRecord
  2
0
 70
0
420
0
  6
CONTINUOUS
370
18
390
B
  0
LAYER
  5
C
100
AcDbSymbolTableRecord
100
AcDbLayerTableRecord
  2
obrys_budynku
 70
0
420
16711935
  6
CONTINUOUS
370
35
390
B
  0
LAYER
  5
D
100
AcDbSymbolTableRecord
100
AcDbLayerTableRecord
  2
Osie
 70
0
420
16711680
  6
CONTINUOUS
370
18
390
B
  0
ENDTAB
  0
TABLE
  2
STYLE
  5
E
100
AcDbSymbolTable
 70
2
  0
STYLE
  5
F
100
AcDbSymbolTableRecord
100
AcDbTextStyleTableRecord
  2
STANDARD
 70
0
 40
0.0
 41
1.0
 50
0.0
 71
0
  3
simplex.shx
  4

  0
STYLE
  5
10
100
AcDbSymbolTableRecord
100
AcDbTextStyleTableRecord
  2
STANDARD_ITALIC
 70
0
 40
0.0
 41
1.0
 50
15.0
 71
0
  3
simplex.shx
  4

  0
ENDTAB
  0
TABLE
  2
VIEW
  5
11
100
AcDbSymbolTable
 70
0
  0
ENDTAB
  0
TABLE
  2
UCS
  5
12
100
AcDbSymbolTable
 70
0
  0
ENDTAB
  0
TABLE
  2
APPID
  5
13
100
AcDbSymbolTable
 70
1
  0
APPID
  5
14
100
AcDbSymbolTableRecord
100
AcDbRegAppTableRecord
  2
ACAD
 70
0
  0
ENDTAB
  0
TABLE
  2
DIMSTYLE
  5
15
100
AcDbSymbolTable
 70
1
100
AcDbDimStyleTable
  0
DIMSTYLE
105
16
100
AcDbSymbolTableRecord
100
AcDbDimStyleTableRecord
  2
Standard
 70
0
340
F
  0
ENDTAB
  0
TABLE
  2
BLOCK_RECORD
  5
17
100
AcDbSymbolTable
 70
3
  0
BLOCK_RECORD
  5
18
100
AcDbSymbolTableRecord
100
AcDbBlockTableRecord
  2
*Model_Space
340
19
  0
BLOCK_RECORD
  5
1A
100
AcDbSymbolTableRecord
100
AcDbBlockTableRecord
  2
*Paper_Space
340
1B
  0
BLOCK_RECORD
  5
1C
100
AcDbSymbolTableRecord
100
AcDbBlockTableRecord
  2
GRO
340
1D
  0
ENDTAB
  0
ENDSEC
  0
SECTION
  2
BLOCKS
  0
BLOCK
  5
1E
100
AcDbEntity
  8
0
100
AcDbBlockBegin
  2
*Model_Space
 70
0
 10
0.0
 20
0.0
 30
0.0
  3
*Model_Space
  1

  0
ENDBLK
  5
1F
100
AcDbEntity
  8
0
100
AcDbBlockEnd
  0
BLOCK
  5
20
100
AcDbEntity
 67
1
  8
0
100
AcDbBlockBegin
  2
*Paper_Space
 70
0
 10
0.0
 20
0.0
 30
0.0
  3
*Paper_Space
  1

  0
ENDBLK
  5
21
100
AcDbEntity
 67
1
  8
0
100
AcDbBlockEnd
  0
BLOCK
  5
1D
100
AcDbEntity
  8
0
100
AcDbBlockBegin
 62
0
370
13
  2
GRO
 70
0
 10
0
 20
0
 30
0
  3
GRO
  0
HATCH
  5
22
100
AcDbEntity
  8
0
  6
CONTINUOUS
 62
0
370
13
100
AcDbHatch
 10
0.0
 20
0.0
 30
0.0
210
0.0
220
0.0
230
1.0
  2
SOLID
 70
1
 71
1
 91
1
 92
3
 72
1
 73
1
 93
2
 10
0.0
 20
-0.090553851381
 42
1.0
 10
0.0
 20
0.090553851381
 42
1.0
 97
0
 75
0
 76
1
 98
0
  0
CIRCLE
  5
23
100
AcDbEntity
  8
0
  6
CONTINUOUS
 62
0
370
13
100
AcDbCircle
 10
0.0
 20
-0.0
 40
0.090553851381
  0
ENDBLK
  5
24
100
AcDbEntity
  8
0
100
AcDbBlockEnd
  0
ENDSEC
  0
SECTION
  2
ENTITIES
  0
POLYLINE
  5
25
100
AcDbEntity
  8
obrys_budynku
  6
CONTINUOUS
370
35
100
AcDb2dPolyline
 66
1
 70
129
  0
VERTEX
  5
26
100
AcDbEntity
  8
obrys_budynku
100
AcDbVertex
100
AcDb2dVertex
 10
7576536.39199999999
 20
5706603.1540000001
  0
VERTEX
  5
27
100
AcDbEntity
  8
obrys_budynku
100
AcDbVertex
100
AcDb2dVertex
 10
7576550.1197286211
 20
5706601.74351536855
  0
VERTEX
  5
28
100
AcDbEntity
  8
obrys_budynku
100
AcDbVertex
100
AcDb2dVertex
 10
7576549.097638309
 20
5706591.79588593263
  0
VERTEX
  5
29
100
AcDbEntity
  8
obrys_budynku
100
AcDbVertex
100
AcDb2dVertex
 10
7576535.36990968697
 20
5706593.20637056418
  0
SEQEND
  5
2A
100
AcDbEntity
  8
obrys_budynku
  0
POLYLINE
  5
2B
100
AcDbEntity
  8
obrys_budynku
  6
CONTINUOUS
370
35
100
AcDb2dPolyline
 66
1
 70
129
  0
VERTEX
  5
2C
100
AcDbEntity
  8
obrys_budynku
100
AcDbVertex
100
AcDb2dVertex
 10
7576545.25695137773
 20
5706582.13731526304
  0
VERTEX
  5
2D
100
AcDbEntity
  8
obrys_budynku
100
AcDbVertex
100
AcDb2dVertex
 10
7576552.65757181216
 20
5706581.37737247068
  0
VERTEX
  5
2E
100
AcDbEntity
  8
obrys_budynku
100
AcDbVertex
100
AcDb2dVertex
 10
7576551.72906643338
 20
5706572.33458978869
  0
VERTEX
  5
2F
100
AcDbEntity
  8
obrys_budynku
100
AcDbVertex
100
AcDb2dVertex
 10
7576544.32801781129
 20
5706573.0949050514
  0
SEQEND
  5
30
100
AcDbEntity
  8
obrys_budynku
  0
POLYLINE
  5
31
100
AcDbEntity
  8
Osie
  6
CONTINUOUS
370
18
100
AcDb2dPolyline
 66
1
 70
128
  0
VERTEX
  5
32
100
AcDbEntity
  8
Osie
100
AcDbVertex
100
AcDb2dVertex
 10
7576536.69547393359
 20
5706602.78104158305
  0
VERTEX
  5
33
100
AcDbEntity
  8
Osie
100
AcDbVertex
100
AcDb2dVertex
 10
7576549.74703256413
 20
5706601.44051873125
  0
SEQEND
  5
34
100
AcDbEntity
  8
Osie
  0
POLYLINE
  5
35
100
AcDbEntity
  8
Osie
  6
CONTINUOUS
370
18
100
AcDb2dPolyline
 66
1
 70
128
  0
VERTEX
  5
36
100
AcDbEntity
  8
Osie
100
AcDbVertex
100
AcDb2dVertex
 10
7576549.74703256413
 20
5706601.44051873125
  0
VERTEX
  5
37
100
AcDbEntity
  8
Osie
100
AcDbVertex
100
AcDb2dVertex
 10
7576548.79452606663
 20
5706592.16895841714
  0
SEQEND
  5
38
100
AcDbEntity
  8
Osie
  0
POLYLINE
  5
39
100
AcDbEntity
  8
Osie
  6
CONTINUOUS
370
18
100
AcDb2dPolyline
 66
1
 70
128
  0
VERTEX
  5
3A
100
AcDbEntity
  8
Osie
100
AcDbVertex
100
AcDb2dVertex
 10
7576548.79452606663
 20
5706592.16895841714
  0
VERTEX
  5
3B
100
AcDbEntity
  8
Osie
100
AcDbVertex
100
AcDb2dVertex
 10
7576535.74296743609
 20
5706593.50948126893
  0
SEQEND
  5
3C
100
AcDbEntity
  8
Osie
  0
POLYLINE
  5
3D
100
AcDbEntity
  8
Osie
  6
CONTINUOUS
370
18
100
AcDb2dPolyline
 66
1
 70
128
  0
VERTEX
  5
3E
100
AcDbEntity
  8
Osie
100
AcDbVertex
100
AcDb2dVertex
 10
7576535.74296743609
 20
5706593.50948126893
  0
VERTEX
  5
3F
100
AcDbEntity
  8
Osie
100
AcDbVertex
100
AcDb2dVertex
 10
7576536.69547393359
 20
5706602.78104158305
  0
SEQEND
  5
40
100
AcDbEntity
  8
Osie
  0
POLYLINE
  5
41
100
AcDbEntity
  8
Osie
  6
CONTINUOUS
370
18
100
AcDb2dPolyline
 66
1
 70
128
  0
VERTEX
  5
42
100
AcDbEntity
  8
Osie
100
AcDbVertex
100
AcDb2dVertex
 10
7576539.36396376137
 20
5706593.13721856102
  0
VERTEX
  5
43
100
AcDbEntity
  8
Osie
100
AcDbVertex
100
AcDb2dVertex
 10
7576540.31596376188
 20
5706602.40921856184
  0
SEQEND
  5
44
100
AcDbEntity
  8
Osie
  0
POLYLINE
  5
45
100
AcDbEntity
  8
Osie
  6
CONTINUOUS
370
18
100
AcDb2dPolyline
 66
1
 70
128
  0
VERTEX
  5
46
100
AcDbEntity
  8
Osie
100
AcDbVertex
100
AcDb2dVertex
 10
7576545.07398131583
 20
5706592.55072927009
  0
VERTEX
  5
47
100
AcDbEntity
  8
Osie
100
AcDbVertex
100
AcDb2dVertex
 10
7576546.02598131541
 20
5706601.82272926997
  0
SEQEND
  5
48
100
AcDbEntity
  8
Osie
  0
POLYLINE
  5
49
100
AcDbEntity
  8
Osie
  6
CONTINUOUS
370
18
100
AcDb2dPolyline
 66
1
 70
128
  0
VERTEX
  5
4A
100
AcDbEntity
  8
Osie
100
AcDbVertex
100
AcDb2dVertex
 10
7576536.63372234348
 20
5706602.18413732853
  0
VERTEX
  5
4B
100
AcDbEntity
  8
Osie
100
AcDbVertex
100
AcDb2dVertex
 10
7576549.68572234362
 20
5706600.84413732775
  0
SEQEND
  5
4C
100
AcDbEntity
  8
Osie
  0
POLYLINE
  5
4D
100
AcDbEntity
  8
Osie
  6
CONTINUOUS
370
18
100
AcDb2dPolyline
 66
1
 70
128
  0
VERTEX
  5
4E
100
AcDbEntity
  8
Osie
100
AcDbVertex
100
AcDb2dVertex
 10
7576545.49799230974
 20
5706581.84083294589
  0
VERTEX
  5
4F
100
AcDbEntity
  8
Osie
100
AcDbVertex
100
AcDb2dVertex
 10
7576552.36181713548
 20
5706581.13599483017
  0
SEQEND
  5
50
100
AcDbEntity
  8
Osie
  0
POLYLINE
  5
51
100
AcDbEntity
  8
Osie
  6
CONTINUOUS
370
18
100
AcDb2dPolyline
 66
1
 70
128
  0
VERTEX
  5
52
100
AcDbEntity
  8
Osie
100
AcDbVertex
100
AcDb2dVertex
 10
7576552.36181713548
 20
5706581.13599483017
  0
VERTEX
  5
53
100
AcDbEntity
  8
Osie
100
AcDbVertex
100
AcDb2dVertex
 10
7576551.48800769076
 20
5706572.63116705418
  0
SEQEND
  5
54
100
AcDbEntity
  8
Osie
  0
POLYLINE
  5
55
100
AcDbEntity
  8
Osie
  6
CONTINUOUS
370
18
100
AcDb2dPolyline
 66
1
 70
128
  0
VERTEX
  5
56
100
AcDbEntity
  8
Osie
100
AcDbVertex
100
AcDb2dVertex
 10
7576551.48800769076
 20
5706572.63116705418
  0
VERTEX
  5
57
100
AcDbEntity
  8
Osie
100
AcDbVertex
100
AcDb2dVertex
 10
7576544.62418286409
 20
5706573.3360051699
  0
SEQEND
  5
58
100
AcDbEntity
  8
Osie
  0
POLYLINE
  5
59
100
AcDbEntity
  8
Osie
  6
CONTINUOUS
370
18
100
AcDb2dPolyline
 66
1
 70
128
  0
VERTEX
  5
5A
100
AcDbEntity
  8
Osie
100
AcDbVertex
100
AcDb2dVertex
 10
7576544.62418286409
 20
5706573.3360051699
  0
VERTEX
  5
5B
100
AcDbEntity
  8
Osie
100
AcDbVertex
100
AcDb2dVertex
 10
7576545.49799230974
 20
5706581.84083294589
  0
SEQEND
  5
5C
100
AcDbEntity
  8
Osie
  0
TEXT
  5
5D
100
AcDbEntity
  8
Osie
370
9
100
AcDbText
 39
0.09
 10
7576536.83999999613
 20
5706603.95999999717
 40
0.20
  1
1
 50
0.00
 41
0.66
  7
STANDARD
 72
1
 11
7576536.88999999594
 21
5706604.0599999968
100
AcDbText
 73
2
  0
TEXT
  5
5E
100
AcDbEntity
  8
Osie
370
9
100
AcDbText
 39
0.09
 10
7576535.5599999968
 20
5706592.15999999736
 40
0.20
  1
1
 50
0.00
 41
0.66
  7
STANDARD
 72
1
 11
7576535.60999999661
 21
5706592.25999999698
100
AcDbText
 73
2
  0
TEXT
  5
5F
100
AcDbEntity
  8
Osie
370
9
100
AcDbText
 39
0.09
 10
7576540.47999999672
 20
5706603.65999999736
 40
0.20
  1
2
 50
0.00
 41
0.66
  7
STANDARD
 72
1
 11
7576540.52999999654
 21
5706603.75999999698
100
AcDbText
 73
2
  0
TEXT
  5
60
100
AcDbEntity
  8
Osie
370
9
100
AcDbText
 39
0.09
 10
7576539.2399999965
 20
5706591.90999999736
 40
0.20
  1
2
 50
0.00
 41
0.66
  7
STANDARD
 72
1
 11
7576539.28999999631
 21
5706592.00999999698
100
AcDbText
 73
2
  0
TEXT
  5
61
100
AcDbEntity
  8
Osie
370
9
100
AcDbText
 39
0.09
 10
7576546.11999999639
 20
5706602.96999999788
 40
0.20
  1
3
 50
0.00
 41
0.66
  7
STANDARD
 72
1
 11
7576546.1699999962
 21
5706603.0699999975
100
AcDbText
 73
2
  0
TEXT
  5
62
100
AcDbEntity
  8
Osie
370
9
100
AcDbText
 39
0.09
 10
7576544.9199999962
 20
5706591.20999999717
 40
0.20
  1
3
 50
0.00
 41
0.66
  7
STANDARD
 72
1
 11
7576544.96999999601
 21
5706591.3099999968
100
AcDbText
 73
2
  0
TEXT
  5
63
100
AcDbEntity
  8
Osie
370
9
100
AcDbText
 39
0.09
 10
7576549.71999999601
 20
5706602.71999999788
 40
0.20
  1
4
 50
0.00
 41
0.66
  7
STANDARD
 72
1
 11
7576549.76999999583
 21
5706602.8199999975
100
AcDbText
 73
2
  0
TEXT
  5
64
100
AcDbEntity
  8
Osie
370
9
100
AcDbText
 39
0.09
 10
7576548.59999999683
 20
5706590.80999999773
 40
0.20
  1
4
 50
0.00
 41
0.66
  7
STANDARD
 72
1
 11
7576548.64999999665
 21
5706590.90999999736
100
AcDbText
 73
2
  0
TEXT
  5
65
100
AcDbEntity
  8
Osie
370
9
100
AcDbText
 39
0.09
 10
7576534.57999999635
 20
5706593.64999999758
 40
0.20
  1
A
 50
0.00
 41
0.66
  7
STANDARD
 72
1
 11
7576534.62999999616
 21
5706593.74999999721
100
AcDbText
 73
2
  0
TEXT
  5
66
100
AcDbEntity
  8
Osie
370
9
100
AcDbText
 39
0.09
 10
7576549.82999999635
 20
5706592.08999999706
 40
0.20
  1
A
 50
0.00
 41
0.66
  7
STANDARD
 72
1
 11
7576549.87999999616
 21
5706592.18999999668
100
AcDbText
 73
2
  0
TEXT
  5
67
100
AcDbEntity
  8
Osie
370
9
100
AcDbText
 39
0.09
 10
7576535.52999999654
 20
5706602.05999999773
 40
0.20
  1
B
 50
0.00
 41
0.66
  7
STANDARD
 72
1
 11
7576535.57999999635
 21
5706602.15999999736
100
AcDbText
 73
2
  0
TEXT
  5
68
100
AcDbEntity
  8
Osie
370
9
100
AcDbText
 39
0.09
 10
7576550.44999999646
 20
5706600.52999999747
 40
0.20
  1
B
 50
0.00
 41
0.66
  7
STANDARD
 72
1
 11
7576550.49999999628
 21
5706600.62999999709
100
AcDbText
 73
2
  0
TEXT
  5
69
100
AcDbEntity
  8
Osie
370
9
100
AcDbText
 39
0.09
 10
7576535.63999999594
 20
5706602.85999999754
 40
0.20
  1
C
 50
0.00
 41
0.66
  7
STANDARD
 72
1
 11
7576535.68999999575
 21
5706602.95999999717
100
AcDbText
 73
2
  0
TEXT
  5
6A
100
AcDbEntity
  8
Osie
370
9
100
AcDbText
 39
0.09
 10
7576550.52999999654
 20
5706601.36999999732
 40
0.20
  1
C
 50
0.00
 41
0.66
  7
STANDARD
 72
1
 11
7576550.57999999635
 21
5706601.46999999695
100
AcDbText
 73
2
  0
ENDSEC
  0
SECTION
  2
OBJECTS
  0
DICTIONARY
  5
6B
330
0
100
AcDbDictionary
280
0
281
1
  3
ACAD_GROUP
350
6C
  3
ACAD_LAYOUT
350
6D
  3
ACAD_MLINESTYLE
350
6E
  3
ACAD_PLOTSETTINGS
350
6F
  3
ACAD_PLOTSTYLENAME
350
70
  0
DICTIONARY
  5
6C
102
{ACAD_REACTORS
330
6B
102
}
330
6B
100
AcDbDictionary
280
0
281
1
  0
DICTIONARY
  5
6D
102
{ACAD_REACTORS
330
6B
102
}
330
6B
100
AcDbDictionary
280
0
281
1
  3
Layout
350
1B
  3
Model
350
19
  0
DICTIONARY
  5
6E
102
{ACAD_REACTORS
330
6B
102
}
330
6B
100
AcDbDictionary
280
0
281
1
  3
Standard
350
71
  0
DICTIONARY
  5
6F
102
{ACAD_REACTORS
330
6B
102
}
330
6B
100
AcDbDictionary
280
0
281
1
  0
ACDBDICTIONARYWDFLT
  5
70
102
{ACAD_REACTORS
330
6B
102
}
330
6B
100
AcDbDictionary
281
1
  3
Normal
350
B
100
AcDbDictionaryWithDefault
340
B
  0
LAYOUT
  5
1B
100
AcDbPlotSettings
  1

  2

  4

  6

 40
0.0
 41
0.0
 42
0.0
 43
0.0
 44
0.0
 45
0.0
 46
0.0
 47
0.0
 48
0.0
 49
0.0
140
0.0
141
0.0
142
1.0
143
1.0
 70
688
 72
1
 73
0
 74
5
  7

 75
0
147
1.0
148
0.0
149
0.0
100
AcDbLayout
  1
Layout
 70
1
 71
1
 10
0.0
 20
0.0
 11
420.0
 21
297.0
 12
0.0
 22
0.0
 32
0.0
 14
100000000000000000000.0
 24
100000000000000000000.0
 34
100000000000000000000.0
 15
-100000000000000000000.0
 25
-100000000000000000000.0
 35
-100000000000000000000.0
146
0.0
 13
0.0
 23
0.0
 33
0.0
 16
1.0
 26
0.0
 36
0.0
 17
0.0
 27
1.0
 37
0.0
 76
0
330
1A
  0
LAYOUT
  5
19
100
AcDbPlotSettings
  1

  2

  4

  6

 40
0.0
 41
0.0
 42
0.0
 43
0.0
 44
0.0
 45
0.0
 46
0.0
 47
0.0
 48
0.0
 49
0.0
140
0.0
141
0.0
142
1.0
143
1.0
 70
1712
 72
1
 73
0
 74
0
  7

 75
0
147
1.0
148
0.0
149
0.0
100
AcDbLayout
  1
Model
 70
1
 71
0
 10
0.0
 20
0.0
 11
12.0
 21
9.0
 12
0.0
 22
0.0
 32
0.0
 14
0.0
 24
0.0
 34
0.0
 15
0.0
 25
0.0
 35
0.0
146
0.0
 13
0.0
 23
0.0
 33
0.0
 16
1.0
 26
0.0
 36
0.0
 17
0.0
 27
1.0
 37
0.0
 76
0
330
18
  0
MLINESTYLE
  5
71
102
{ACAD_REACTORS
330
6E
102
}
330
6E
100
AcDbMlineStyle
  2
Standard
 70
0
  3

 62
256
 51
90.0
 52
90.0
  2
Standard
 71
2
 49
0.5
 62
256
  6
ByLayer
 49
-0.5
 62
256
  6
ByLayer
  0
ACDBPLACEHOLDER
  5
B
  0
ENDSEC
  0
EOF
