  0
SECTION
  2
HEADER
  9
$ACADVER
  1
AC1018
  9
$HANDSEED
  5
FFFFFF
  9
$EXTMAX
 10
7575767.45999999996
 20
5708091.12999999989
 30
1000000.00
  9
$EXTMIN
 10
7575463.4299999997
 20
5707769.53000000026
 30
0.00
  9
$LIMMIN
 10
7575463.4299999997
 20
5707769.53000000026
  9
$LIMMAX
 10
7575767.45999999996
 20
5708091.12999999989
  9
$DIMASZ
 40
2.5
  9
$DIMGAP
 40
0.625
  9
$INSUNITS
 70
6
  9
$DIMEXO
 40
0.625
  9
$DIMTXT
 40
2.5
  9
$DIMSTYLE
  2
Standard
  9
$PLIMMIN
 10
0.0
 20
0.0
  9
$PLIMMAX
 10
210.0
 20
297.0
  9
$DIMEXE
 40
1.25
  9
$TEXTSIZE
 40
2.5
  9
$TEXTSTYLE
  7
Standard
  9
$LWDISPLAY
290
1
  9
$TDCREATE
 40
44693.607314861
  9
$TDUCREATE
 40
44693.523981528
  9
$TDUPDATE
 40
44693.607314861
  9
$TDUUPDATE
 40
44693.523981528
  9
$TDINDWG
 40
0.0
  9
$TDUSRTIMER
 40
0.0
  9
$USRTIMER
 70
1
  0
ENDSEC
  0
SECTION
  2
CLASSES
  0
CLASS
  1
WIPEOUT
  2
AcDbWipeout
  3
WipeOut
 90
127
 91
1
280
0
281
1
  0
CLASS
  1
WIPEOUTVARIABLES
  2
AcDbWipeoutVariables
  3
WipeOut
 90
0
 91
1
280
0
281
0
  0
ENDSEC
  0
SECTION
  2
TABLES
  0
TABLE
  2
VPORT
  5
1
100
AcDbSymbolTable
 70
1
  0
VPORT
  5
2
100
AcDbSymbolTableRecord
100
AcDbViewportTableRecord
  2
*ACTIVE
 70
0
 10
0.0
 20
0.0
 11
1.0
 21
1.0
 12
7575615.45
 22
5707930.33
 13
0.0
 23
0.0
 14
1.0
 24
1.0
 15
0.0
 25
0.0
 16
0.0
 26
0.0
 36
1.0
 17
0.0
 27
0.0
 37
0.0
 40
321.60
 41
0.95
 42
50.0
 43
0.0
 44
0.0
 50
0.0
 51
0.0
 71
0
 72
100
 73
1
 74
1
 75
0
 76
0
 77
0
 78
0
  0
ENDTAB
  0
TABLE
  2
LTYPE
  5
3
100
AcDbSymbolTable
 70
3
  0
LTYPE
  5
4
100
AcDbSymbolTableRecord
100
AcDbLinetypeTableRecord
  2
ByBlock
 70
0
  3

 72
65
 73
0
 40
0.0
  0
LTYPE
  5
5
100
AcDbSymbolTableRecord
100
AcDbLinetypeTableRecord
  2
ByLayer
 70
0
  3

 72
65
 73
0
 40
0.0
  0
LTYPE
  5
6
100
AcDbSymbolTableRecord
100
AcDbLinetypeTableRecord
  2
CONTINUOUS
 70
0
  3
Solid line
 72
65
 73
0
 40
0.0
  0
LTYPE
  5
8
100
AcDbSymbolTableRecord
100
AcDbLinetypeTableRecord
  2
L_0_02
 70
0
  3
Dzialka_ewidencyjna (MLineStyle)
 72
65
 73
0
 40
0.0
  0
LTYPE
  5
9
100
AcDbSymbolTableRecord
100
AcDbLinetypeTableRecord
  2
L_0_03
 70
0
  3
Uzytek_gruntowy
 72
65
 73
2
 40
1.0
 49
0.5
 74
0
 49
-0.5
 74
0
  0
LTYPE
  5
A
100
AcDbSymbolTableRecord
100
AcDbLinetypeTableRecord
  2
L_0_04
 70
0
  3
Budynek_projektowany
 72
65
 73
2
 40
1.5
 49
1.0
 74
0
 49
-0.5
 74
0
  0
LTYPE
  5
B
100
AcDbSymbolTableRecord
100
AcDbLinetypeTableRecord
  2
L_0_06
 70
0
  3
Granica_konturu_klasyfikacyjnego_Krawedz_chodnika
 72
65
 73
2
 40
2.0
 49
1.5
 74
0
 49
-0.5
 74
0
  0
ENDTAB
  0
TABLE
  2
LAYER
  5
C
100
AcDbSymbolTable
 70
53
  0
LAYER
  5
D
100
AcDbSymbolTableRecord
100
AcDbLayerTableRecord
  2
0
 70
0
 62
7
  6
CONTINUOUS
370
18
390
E
  0
LAYER
  5
F
100
AcDbSymbolTableRecord
100
AcDbLayerTableRecord
  2
Dzialki
 70
0
 62
7
  6
L_0_02
370
18
390
E
  0
LAYER
  5
10
100
AcDbSymbolTableRecord
100
AcDbLayerTableRecord
  2
EADTD_T_0
 70
0
 62
7
  6
CONTINUOUS
370
18
390
E
  0
LAYER
  5
11
100
AcDbSymbolTableRecord
100
AcDbLayerTableRecord
  2
EGBB_E_T_0
 70
0
 62
7
  6
CONTINUOUS
370
25
390
E
  0
LAYER
  5
12
100
AcDbSymbolTableRecord
100
AcDbLayerTableRecord
  2
EGBB_L_0
 70
0
 62
7
  6
CONTINUOUS
370
50
390
E
  0
LAYER
  5
13
100
AcDbSymbolTableRecord
100
AcDbLayerTableRecord
  2
Kontury
 70
0
 62
3
  6
L_0_06
370
18
390
E
  0
LAYER
  5
14
100
AcDbSymbolTableRecord
100
AcDbLayerTableRecord
  2
KTJZ_E_T_0
 70
0
 62
7
  6
CONTINUOUS
370
13
390
E
  0
LAYER
  5
15
100
AcDbSymbolTableRecord
100
AcDbLayerTableRecord
  2
KTJZ_L_0
 70
0
 62
7
  6
L_0_06
370
18
390
E
  0
LAYER
  5
16
100
AcDbSymbolTableRecord
100
AcDbLayerTableRecord
  2
KTOK_L_1
 70
0
 62
7
  6
L_0_03
370
18
390
E
  0
LAYER
  5
17
100
AcDbSymbolTableRecord
100
AcDbLayerTableRecord
  2
KTOK_L_4
 70
0
 62
7
  6
CONTINUOUS
370
35
390
E
  0
LAYER
  5
18
100
AcDbSymbolTableRecord
100
AcDbLayerTableRecord
  2
Numery_dzialek
 70
0
 62
7
  6
CONTINUOUS
370
18
390
E
  0
LAYER
  5
19
100
AcDbSymbolTableRecord
100
AcDbLayerTableRecord
  2
Pkt_projekt_KS
 70
0
 62
7
  6
CONTINUOUS
370
18
390
E
  0
LAYER
  5
1A
100
AcDbSymbolTableRecord
100
AcDbLayerTableRecord
  2
RTPW_T_1
 70
0
 62
7
  6
CONTINUOUS
370
13
390
E
  0
LAYER
  5
1B
100
AcDbSymbolTableRecord
100
AcDbLayerTableRecord
  2
SUPE_E_T_2
 70
0
 62
1
  6
CONTINUOUS
370
13
390
E
  0
LAYER
  5
1C
100
AcDbSymbolTableRecord
100
AcDbLayerTableRecord
  2
SUPE_E_T_3
 70
0
 62
1
  6
CONTINUOUS
370
13
390
E
  0
LAYER
  5
1D
100
AcDbSymbolTableRecord
100
AcDbLayerTableRecord
  2
SUPE_L_2
 70
0
 62
1
  6
CONTINUOUS
370
18
390
E
  0
LAYER
  5
1E
100
AcDbSymbolTableRecord
100
AcDbLayerTableRecord
  2
SUPE_L_3
 70
0
 62
1
  6
CONTINUOUS
370
18
390
E
  0
LAYER
  5
1F
100
AcDbSymbolTableRecord
100
AcDbLayerTableRecord
  2
SUPG_E_T_2
 70
0
 62
7
  6
CONTINUOUS
370
13
390
E
  0
LAYER
  5
20
100
AcDbSymbolTableRecord
100
AcDbLayerTableRecord
  2
SUPG_E_T_3
 70
0
 62
7
  6
CONTINUOUS
370
13
390
E
  0
LAYER
  5
21
100
AcDbSymbolTableRecord
100
AcDbLayerTableRecord
  2
SUPG_L_2
 70
0
 62
52
  6
CONTINUOUS
370
18
390
E
  0
LAYER
  5
22
100
AcDbSymbolTableRecord
100
AcDbLayerTableRecord
  2
SUPG_L_3
 70
0
 62
52
  6
CONTINUOUS
370
18
390
E
  0
LAYER
  5
23
100
AcDbSymbolTableRecord
100
AcDbLayerTableRecord
  2
SUPK_E_T_1
 70
0
 62
34
  6
CONTINUOUS
370
13
390
E
  0
LAYER
  5
24
100
AcDbSymbolTableRecord
100
AcDbLayerTableRecord
  2
SUPK_L_1
 70
0
 62
34
  6
CONTINUOUS
370
18
390
E
  0
LAYER
  5
25
100
AcDbSymbolTableRecord
100
AcDbLayerTableRecord
  2
SUPK_L_4
 70
0
 62
34
  6
CONTINUOUS
370
18
390
E
  0
LAYER
  5
26
100
AcDbSymbolTableRecord
100
AcDbLayerTableRecord
  2
SUPP_E_T_2
 70
0
 62
1
  6
CONTINUOUS
370
13
390
E
  0
LAYER
  5
27
100
AcDbSymbolTableRecord
100
AcDbLayerTableRecord
  2
SUPP_E_T_4
 70
0
 62
34
  6
CONTINUOUS
370
13
390
E
  0
LAYER
  5
28
100
AcDbSymbolTableRecord
100
AcDbLayerTableRecord
  2
SUPP_L_2
 70
0
 62
1
  6
CONTINUOUS
370
18
390
E
  0
LAYER
  5
29
100
AcDbSymbolTableRecord
100
AcDbLayerTableRecord
  2
SUPP_L_4
 70
0
 62
34
  6
CONTINUOUS
370
18
390
E
  0
LAYER
  5
2A
100
AcDbSymbolTableRecord
100
AcDbLayerTableRecord
  2
SUPT_E_T_0
 70
0
 62
30
  6
CONTINUOUS
370
13
390
E
  0
LAYER
  5
2B
100
AcDbSymbolTableRecord
100
AcDbLayerTableRecord
  2
SUPT_L_0
 70
0
 62
30
  6
CONTINUOUS
370
18
390
E
  0
LAYER
  5
2C
100
AcDbSymbolTableRecord
100
AcDbLayerTableRecord
  2
SUPW_E_T_0
 70
0
 62
5
  6
CONTINUOUS
370
13
390
E
  0
LAYER
  5
2D
100
AcDbSymbolTableRecord
100
AcDbLayerTableRecord
  2
SUPW_L_0
 70
0
 62
5
  6
CONTINUOUS
370
18
390
E
  0
LAYER
  5
2E
100
AcDbSymbolTableRecord
100
AcDbLayerTableRecord
  2
SUPW_L_1
 70
0
 62
5
  6
CONTINUOUS
370
18
390
E
  0
LAYER
  5
2F
100
AcDbSymbolTableRecord
100
AcDbLayerTableRecord
  2
SUSM_T_0
 70
0
 62
7
  6
CONTINUOUS
370
18
390
E
  0
LAYER
  5
30
100
AcDbSymbolTableRecord
100
AcDbLayerTableRecord
  2
SUTE_T_0
 70
0
 62
1
  6
CONTINUOUS
370
18
390
E
  0
LAYER
  5
31
100
AcDbSymbolTableRecord
100
AcDbLayerTableRecord
  2
SUTG_T_0
 70
0
 62
52
  6
CONTINUOUS
370
18
390
E
  0
LAYER
  5
32
100
AcDbSymbolTableRecord
100
AcDbLayerTableRecord
  2
SUTK_T_0
 70
0
 62
7
  6
CONTINUOUS
370
18
390
E
  0
LAYER
  5
33
100
AcDbSymbolTableRecord
100
AcDbLayerTableRecord
  2
SUTT_T_0
 70
0
 62
30
  6
CONTINUOUS
370
18
390
E
  0
LAYER
  5
34
100
AcDbSymbolTableRecord
100
AcDbLayerTableRecord
  2
SUTW_T_0
 70
0
 62
5
  6
CONTINUOUS
370
18
390
E
  0
LAYER
  5
35
100
AcDbSymbolTableRecord
100
AcDbLayerTableRecord
  2
SUUE_E_T_2
 70
0
 62
7
  6
CONTINUOUS
370
13
390
E
  0
LAYER
  5
36
100
AcDbSymbolTableRecord
100
AcDbLayerTableRecord
  2
SUUE_L_3
 70
0
 62
7
  6
CONTINUOUS
370
18
390
E
  0
LAYER
  5
37
100
AcDbSymbolTableRecord
100
AcDbLayerTableRecord
  2
SUUE_T_3
 70
0
 62
7
  6
CONTINUOUS
370
18
390
E
  0
LAYER
  5
38
100
AcDbSymbolTableRecord
100
AcDbLayerTableRecord
  2
SUUG_E_T_1
 70
0
 62
7
  6
CONTINUOUS
370
13
390
E
  0
LAYER
  5
39
100
AcDbSymbolTableRecord
100
AcDbLayerTableRecord
  2
SUUG_T_1
 70
0
 62
7
  6
CONTINUOUS
370
18
390
E
  0
LAYER
  5
3A
100
AcDbSymbolTableRecord
100
AcDbLayerTableRecord
  2
SUUK_E_T_1
 70
0
 62
7
  6
CONTINUOUS
370
13
390
E
  0
LAYER
  5
3B
100
AcDbSymbolTableRecord
100
AcDbLayerTableRecord
  2
SUUK_E_T_3
 70
0
 62
7
  6
CONTINUOUS
370
13
390
E
  0
LAYER
  5
3C
100
AcDbSymbolTableRecord
100
AcDbLayerTableRecord
  2
SUUK_L_1
 70
0
 62
7
  6
CONTINUOUS
370
18
390
E
  0
LAYER
  5
3D
100
AcDbSymbolTableRecord
100
AcDbLayerTableRecord
  2
SUUK_T_1
 70
0
 62
7
  6
CONTINUOUS
370
18
390
E
  0
LAYER
  5
3E
100
AcDbSymbolTableRecord
100
AcDbLayerTableRecord
  2
SUUK_T_4
 70
0
 62
7
  6
CONTINUOUS
370
18
390
E
  0
LAYER
  5
3F
100
AcDbSymbolTableRecord
100
AcDbLayerTableRecord
  2
SUUW_E_T_5
 70
0
 62
7
  6
CONTINUOUS
370
13
390
E
  0
LAYER
  5
40
100
AcDbSymbolTableRecord
100
AcDbLayerTableRecord
  2
SUUW_T_7
 70
0
 62
7
  6
CONTINUOUS
370
18
390
E
  0
LAYER
  5
41
100
AcDbSymbolTableRecord
100
AcDbLayerTableRecord
  2
Uzytki
 70
0
 62
3
  6
L_0_03
370
18
390
E
  0
LAYER
  5
42
100
AcDbSymbolTableRecord
100
AcDbLayerTableRecord
  2
ZUD_EN_L_0
 70
0
 62
1
  6
L_0_04
370
18
390
E
  0
ENDTAB
  0
TABLE
  2
STYLE
  5
43
100
AcDbSymbolTable
 70
2
  0
STYLE
  5
44
100
AcDbSymbolTableRecord
100
AcDbTextStyleTableRecord
  2
STANDARD
 70
0
 40
0.0
 41
1.0
 50
0.0
 71
0
  3
simplex.shx
  4

  0
STYLE
  5
45
100
AcDbSymbolTableRecord
100
AcDbTextStyleTableRecord
  2
STANDARD_ITALIC
 70
0
 40
0.0
 41
1.0
 50
15.0
 71
0
  3
simplex.shx
  4

  0
ENDTAB
  0
TABLE
  2
VIEW
  5
46
100
AcDbSymbolTable
 70
0
  0
ENDTAB
  0
TABLE
  2
UCS
  5
47
100
AcDbSymbolTable
 70
0
  0
ENDTAB
  0
TABLE
  2
APPID
  5
48
100
AcDbSymbolTable
 70
1
  0
APPID
  5
49
100
AcDbSymbolTableRecord
100
AcDbRegAppTableRecord
  2
ACAD
 70
0
  0
ENDTAB
  0
TABLE
  2
DIMSTYLE
  5
4A
100
AcDbSymbolTable
 70
1
100
AcDbDimStyleTable
  0
DIMSTYLE
105
4B
100
AcDbSymbolTableRecord
100
AcDbDimStyleTableRecord
  2
Standard
 70
0
340
44
  0
ENDTAB
  0
TABLE
  2
BLOCK_RECORD
  5
4C
100
AcDbSymbolTable
 70
9
  0
BLOCK_RECORD
  5
4D
100
AcDbSymbolTableRecord
100
AcDbBlockTableRecord
  2
*Model_Space
340
4E
  0
BLOCK_RECORD
  5
4F
100
AcDbSymbolTableRecord
100
AcDbBlockTableRecord
  2
*Paper_Space
340
50
  0
BLOCK_RECORD
  5
51
100
AcDbSymbolTableRecord
100
AcDbBlockTableRecord
  2
EGBP04_03
340
52
  0
BLOCK_RECORD
  5
53
100
AcDbSymbolTableRecord
100
AcDbBlockTableRecord
  2
OBOP02_01
340
54
  0
BLOCK_RECORD
  5
55
100
AcDbSymbolTableRecord
100
AcDbBlockTableRecord
  2
RTPW02
340
56
  0
BLOCK_RECORD
  5
57
100
AcDbSymbolTableRecord
100
AcDbBlockTableRecord
  2
SUUS10
340
58
  0
BLOCK_RECORD
  5
59
100
AcDbSymbolTableRecord
100
AcDbBlockTableRecord
  2
pikieta
340
5A
  0
BLOCK_RECORD
  5
5B
100
AcDbSymbolTableRecord
100
AcDbBlockTableRecord
  2
L_0_02_1
340
5C
  0
BLOCK_RECORD
  5
5D
100
AcDbSymbolTableRecord
100
AcDbBlockTableRecord
  2
L_0_02_2
340
5E
  0
ENDTAB
  0
ENDSEC
  0
SECTION
  2
BLOCKS
  0
BLOCK
  5
5F
100
AcDbEntity
  8
0
100
AcDbBlockBegin
  2
*Model_Space
 70
0
 10
0.0
 20
0.0
 30
0.0
  3
*Model_Space
  1

  0
ENDBLK
  5
60
100
AcDbEntity
  8
0
100
AcDbBlockEnd
  0
BLOCK
  5
61
100
AcDbEntity
 67
1
  8
0
100
AcDbBlockBegin
  2
*Paper_Space
 70
0
 10
0.0
 20
0.0
 30
0.0
  3
*Paper_Space
  1

  0
ENDBLK
  5
62
100
AcDbEntity
 67
1
  8
0
100
AcDbBlockEnd
  0
BLOCK
  5
52
100
AcDbEntity
  8
0
100
AcDbBlockBegin
 62
0
370
13
  2
EGBP04_03
 70
0
 10
0
 20
0
 30
0
  3
EGBP04_03
  0
WIPEOUT
  5
63
100
AcDbEntity
  8
0
  6
CONTINUOUS
 62
0
370
13
100
AcDbWipeout
 90
0
 10
-0.5
 20
-0.5
 30
0.0
 11
1.0
 21
0.0
 31
0.0
 12
0.0
 22
1.0
 32
0.0
 13
1.0
 23
1.0
 70
7
280
1
281
100
282
100
283
0
 71
2
 91
13
 14
0.0
 24
0.5
 14
0.25
 24
0.433012701892
 14
0.433012701892
 24
0.25
 14
0.5
 24
0.0
 14
0.433012701892
 24
-0.25
 14
0.25
 24
-0.433012701892
 14
0.0
 24
-0.5
 14
-0.25
 24
-0.433012701892
 14
-0.433012701892
 24
-0.25
 14
-0.5
 24
0.0
 14
-0.433012701892
 24
0.25
 14
-0.25
 24
0.433012701892
 14
0.0
 24
0.5
  0
HATCH
  5
64
100
AcDbEntity
  8
0
  6
CONTINUOUS
 62
0
370
13
100
AcDbHatch
 10
0.0
 20
0.0
 30
0.0
210
0.0
220
0.0
230
1.0
  2
SOLID
 70
1
 71
1
 91
1
 92
3
 72
1
 73
1
 93
2
 10
0.0
 20
-0.1
 42
1.0
 10
0.0
 20
0.1
 42
1.0
 97
0
 75
0
 76
1
 98
0
  0
CIRCLE
  5
65
100
AcDbEntity
  8
0
  6
CONTINUOUS
 62
0
370
13
100
AcDbCircle
 10
0.0
 20
-0.0
 40
0.1
  0
ENDBLK
  5
66
100
AcDbEntity
  8
0
100
AcDbBlockEnd
  0
BLOCK
  5
54
100
AcDbEntity
  8
0
100
AcDbBlockBegin
 62
0
370
13
  2
OBOP02_01
 70
0
 10
0
 20
0
 30
0
  3
OBOP02_01
  0
ARC
  5
67
100
AcDbEntity
  8
0
  6
CONTINUOUS
 62
0
370
18
100
AcDbCircle
 10
0.0000000000
 20
0.8000000000
 30
0
 40
0.7000000000
100
AcDbArc
 50
29.8459319497
 51
150.1540680503
  0
ARC
  5
68
100
AcDbEntity
  8
0
  6
CONTINUOUS
 62
0
370
18
100
AcDbCircle
 10
0.7700000000
 20
0.2500000000
 30
0
 40
0.7000000000
100
AcDbArc
 50
317.3373058591
 51
78.3663660011
  0
ARC
  5
69
100
AcDbEntity
  8
0
  6
CONTINUOUS
 62
0
370
18
100
AcDbCircle
 10
0.4600000000
 20
-0.6400000000
 30
0
 40
0.7100000000
100
AcDbArc
 50
247.4427533653
 51
5.6306827576
  0
ARC
  5
6A
100
AcDbEntity
  8
0
  6
CONTINUOUS
 62
0
370
18
100
AcDbCircle
 10
-0.4600000000
 20
-0.6400000000
 30
0
 40
0.7100000000
100
AcDbArc
 50
174.3693172424
 51
292.5572466347
  0
ARC
  5
6B
100
AcDbEntity
  8
0
  6
CONTINUOUS
 62
0
370
18
100
AcDbCircle
 10
-0.7700000000
 20
0.2500000000
 30
0
 40
0.7000000000
100
AcDbArc
 50
101.6336339989
 51
222.6626941409
  0
HATCH
  5
6C
100
AcDbEntity
  8
0
  6
CONTINUOUS
 62
0
370
18
100
AcDbHatch
 10
0.0
 20
0.0
 30
0.0
210
0.0
220
0.0
230
1.0
  2
SOLID
 70
1
 71
1
 91
1
 92
3
 72
1
 73
1
 93
2
 10
0.0
 20
-0.1
 42
1.0
 10
0.0
 20
0.1
 42
1.0
 97
0
 75
0
 76
1
 98
0
  0
CIRCLE
  5
6D
100
AcDbEntity
  8
0
  6
CONTINUOUS
 62
0
370
18
100
AcDbCircle
 10
0.0
 20
-0.0
 40
0.1
  0
ENDBLK
  5
6E
100
AcDbEntity
  8
0
100
AcDbBlockEnd
  0
BLOCK
  5
56
100
AcDbEntity
  8
0
100
AcDbBlockBegin
 62
0
370
13
  2
RTPW02
 70
0
 10
0
 20
0
 30
0
  3
RTPW02
  0
HATCH
  5
6F
100
AcDbEntity
  8
0
  6
CONTINUOUS
 62
0
370
13
100
AcDbHatch
 10
0.0
 20
0.0
 30
0.0
210
0.0
220
0.0
230
1.0
  2
SOLID
 70
1
 71
1
 91
1
 92
3
 72
1
 73
1
 93
2
 10
0.0
 20
-0.090553851381
 42
1.0
 10
0.0
 20
0.090553851381
 42
1.0
 97
0
 75
0
 76
1
 98
0
  0
CIRCLE
  5
70
100
AcDbEntity
  8
0
  6
CONTINUOUS
 62
0
370
13
100
AcDbCircle
 10
0.0
 20
-0.0
 40
0.090553851381
  0
ENDBLK
  5
71
100
AcDbEntity
  8
0
100
AcDbBlockEnd
  0
BLOCK
  5
58
100
AcDbEntity
  8
0
100
AcDbBlockBegin
 62
0
370
13
  2
SUUS10
 70
0
 10
0
 20
0
 30
0
  3
SUUS10
  0
WIPEOUT
  5
72
100
AcDbEntity
  8
0
  6
CONTINUOUS
 62
0
370
18
100
AcDbWipeout
 90
0
 10
-0.5
 20
-0.5
 30
0.0
 11
1.0
 21
0.0
 31
0.0
 12
0.0
 22
1.0
 32
0.0
 13
1.0
 23
1.0
 70
7
280
1
281
100
282
100
283
0
 71
2
 91
13
 14
0.0
 24
0.5
 14
0.25
 24
0.433012701892
 14
0.433012701892
 24
0.25
 14
0.5
 24
0.0
 14
0.433012701892
 24
-0.25
 14
0.25
 24
-0.433012701892
 14
0.0
 24
-0.5
 14
-0.25
 24
-0.433012701892
 14
-0.433012701892
 24
-0.25
 14
-0.5
 24
0.0
 14
-0.433012701892
 24
0.25
 14
-0.25
 24
0.433012701892
 14
0.0
 24
0.5
  0
CIRCLE
  5
73
100
AcDbEntity
  8
0
  6
CONTINUOUS
 62
0
370
18
100
AcDbCircle
 10
0.0
 20
-0.0
 40
0.5
  0
POLYLINE
  5
74
100
AcDbEntity
  8
0
  6
CONTINUOUS
 62
0
370
18
100
AcDb2dPolyline
 66
1
 70
129
  0
VERTEX
  5
75
100
AcDbEntity
  8
0
100
AcDbVertex
100
AcDb2dVertex
 10
2.0
 20
-1.0
  0
VERTEX
  5
76
100
AcDbEntity
  8
0
100
AcDbVertex
100
AcDb2dVertex
 10
2.0
 20
1.0
  0
SEQEND
  5
77
100
AcDbEntity
  8
0
  0
POLYLINE
  5
78
100
AcDbEntity
  8
0
  6
CONTINUOUS
 62
0
370
18
100
AcDb2dPolyline
 66
1
 70
129
  0
VERTEX
  5
79
100
AcDbEntity
  8
0
100
AcDbVertex
100
AcDb2dVertex
 10
1.0
 20
2.0
  0
VERTEX
  5
7A
100
AcDbEntity
  8
0
100
AcDbVertex
100
AcDb2dVertex
 10
-1.0
 20
2.0
  0
SEQEND
  5
7B
100
AcDbEntity
  8
0
  0
POLYLINE
  5
7C
100
AcDbEntity
  8
0
  6
CONTINUOUS
 62
0
370
18
100
AcDb2dPolyline
 66
1
 70
129
  0
VERTEX
  5
7D
100
AcDbEntity
  8
0
100
AcDbVertex
100
AcDb2dVertex
 10
-2.0
 20
1.0
  0
VERTEX
  5
7E
100
AcDbEntity
  8
0
100
AcDbVertex
100
AcDb2dVertex
 10
-2.0
 20
-1.0
  0
SEQEND
  5
7F
100
AcDbEntity
  8
0
  0
POLYLINE
  5
80
100
AcDbEntity
  8
0
  6
CONTINUOUS
 62
0
370
18
100
AcDb2dPolyline
 66
1
 70
129
  0
VERTEX
  5
81
100
AcDbEntity
  8
0
100
AcDbVertex
100
AcDb2dVertex
 10
-1.0
 20
-2.0
  0
VERTEX
  5
82
100
AcDbEntity
  8
0
100
AcDbVertex
100
AcDb2dVertex
 10
1.0
 20
-2.0
  0
SEQEND
  5
83
100
AcDbEntity
  8
0
  0
ENDBLK
  5
84
100
AcDbEntity
  8
0
100
AcDbBlockEnd
  0
BLOCK
  5
5A
100
AcDbEntity
  8
0
100
AcDbBlockBegin
 62
0
370
13
  2
pikieta
 70
0
 10
0
 20
0
 30
0
  3
pikieta
  0
POINT
  5
85
100
AcDbEntity
  8
0
100
AcDbPoint
 62
0
 10
0.0
 20
0.0
 30
0.00
  0
ENDBLK
  5
86
100
AcDbEntity
  8
0
100
AcDbBlockEnd
  0
BLOCK
  5
5C
100
AcDbEntity
  8
0
100
AcDbBlockBegin
 62
0
370
13
  2
L_0_02_1
 70
0
 10
0
 20
0
 30
0
  3
L_0_02_1
  0
POINT
  5
87
100
AcDbEntity
  8
0
100
AcDbPoint
 62
0
 10
0.0
 20
0.0
 30
0.00
  0
ENDBLK
  5
88
100
AcDbEntity
  8
0
100
AcDbBlockEnd
  0
BLOCK
  5
5E
100
AcDbEntity
  8
0
100
AcDbBlockBegin
 62
0
370
13
  2
L_0_02_2
 70
0
 10
0
 20
0
 30
0
  3
L_0_02_2
  0
POINT
  5
89
100
AcDbEntity
  8
0
100
AcDbPoint
 62
0
 10
-0.0
 20
-0.0
 30
0.00
  0
ENDBLK
  5
8A
100
AcDbEntity
  8
0
100
AcDbBlockEnd
  0
ENDSEC
  0
SECTION
  2
ENTITIES
  0
INSERT
  5
8B
100
AcDbEntity
  8
Dzialki
  6
CONTINUOUS
 62
7
100
AcDbBlockReference
 66
0
  2
L_0_02_1
 10
7575599.95999999996
 20
5707769.53000000026
 41
0.50
 42
0.50
 43
0.50
 50
85.25
  0
INSERT
  5
8C
100
AcDbEntity
  8
Dzialki
  6
CONTINUOUS
 62
7
100
AcDbBlockReference
 66
0
  2
pikieta
 10
7575601.9450000003
 20
5707793.39499999955
 41
0.50
 42
0.50
 43
0.50
 50
85.25
  0
INSERT
  5
8D
100
AcDbEntity
  8
Dzialki
  6
CONTINUOUS
 62
7
100
AcDbBlockReference
 66
0
  2
L_0_02_2
 10
7575603.9299999997
 20
5707817.25999999978
 41
0.50
 42
0.50
 43
0.50
 50
265.25
  0
MLINE
  5
8E
100
AcDbEntity
  8
Dzialki
  6
L_0_02
 62
7
370
18
100
AcDbMline
  2
L_0_02
340
7
 40
1.0
 70
1
 71
1
 72
2
 73
1
 10
7575599.95999999996
 20
5707769.53000000026
210
0.0
220
0.0
230
1.0
 11
7575599.95999999996
 21
5707769.53000000026
 12
0.082889965657
 22
0.996558705543
 13
-0.996558705543
 23
0.082889965657
 74
3
 41
0.0
 41
0.25
 41
47.644820178718
 75
0
 11
7575603.9299999997
 21
5707817.25999999978
 12
0.082889965657
 22
0.996558705543
 13
-0.996558705543
 23
0.082889965657
 74
0
 75
0
  0
INSERT
  5
8F
100
AcDbEntity
  8
Dzialki
  6
CONTINUOUS
 62
7
100
AcDbBlockReference
 66
0
  2
L_0_02_1
 10
7575603.9299999997
 20
5707817.25999999978
 41
0.50
 42
0.50
 43
0.50
 50
170.00
  0
INSERT
  5
90
100
AcDbEntity
  8
Dzialki
  6
CONTINUOUS
 62
7
100
AcDbBlockReference
 66
0
  2
pikieta
 10
7575593.26499999966
 20
5707819.13999999873
 41
0.50
 42
0.50
 43
0.50
 50
170.00
  0
INSERT
  5
91
100
AcDbEntity
  8
Dzialki
  6
CONTINUOUS
 62
7
100
AcDbBlockReference
 66
0
  2
L_0_02_2
 10
7575582.59999999963
 20
5707821.01999999862
 41
0.50
 42
0.50
 43
0.50
 50
350.00
  0
MLINE
  5
92
100
AcDbEntity
  8
Dzialki
  6
L_0_02
 62
7
370
18
100
AcDbMline
  2
L_0_02
340
7
 40
1.0
 70
1
 71
1
 72
2
 73
1
 10
7575603.9299999997
 20
5707817.25999999978
210
0.0
220
0.0
230
1.0
 11
7575603.9299999997
 21
5707817.25999999978
 12
-0.984816077804
 22
0.173600958809
 13
-0.173600958809
 23
-0.984816077804
 74
3
 41
0.0
 41
0.25
 41
21.408866544547
 75
0
 11
7575582.59999999963
 21
5707821.01999999862
 12
-0.984816077804
 22
0.173600958809
 13
-0.173600958809
 23
-0.984816077804
 74
0
 75
0
  0
INSERT
  5
93
100
AcDbEntity
  8
Dzialki
  6
CONTINUOUS
 62
7
100
AcDbBlockReference
 66
0
  2
L_0_02_1
 10
7575638.58000000007
 20
5707811.20999999996
 41
0.50
 42
0.50
 43
0.50
 50
170.10
  0
INSERT
  5
94
100
AcDbEntity
  8
Dzialki
  6
CONTINUOUS
 62
7
100
AcDbBlockReference
 66
0
  2
pikieta
 10
7575621.25499999989
 20
5707814.2349999994
 41
0.50
 42
0.50
 43
0.50
 50
170.10
  0
INSERT
  5
95
100
AcDbEntity
  8
Dzialki
  6
CONTINUOUS
 62
7
100
AcDbBlockReference
 66
0
  2
L_0_02_2
 10
7575603.9299999997
 20
5707817.25999999978
 41
0.50
 42
0.50
 43
0.50
 50
350.10
  0
MLINE
  5
96
100
AcDbEntity
  8
Dzialki
  6
L_0_02
 62
7
370
18
100
AcDbMline
  2
L_0_02
340
7
 40
1.0
 70
1
 71
1
 72
2
 73
1
 10
7575638.58000000007
 20
5707811.20999999996
210
0.0
220
0.0
230
1.0
 11
7575638.58000000007
 21
5707811.20999999996
 12
-0.985096770842
 22
0.172001023473
 13
-0.172001023473
 23
-0.985096770842
 74
3
 41
0.0
 41
0.25
 41
34.924209302038
 75
0
 11
7575603.9299999997
 21
5707817.25999999978
 12
-0.985096770842
 22
0.172001023473
 13
-0.172001023473
 23
-0.985096770842
 74
0
 75
0
  0
INSERT
  5
97
100
AcDbEntity
  8
Dzialki
  6
CONTINUOUS
 62
7
100
AcDbBlockReference
 66
0
  2
L_0_02_1
 10
7575586.76999999955
 20
5707826.41999999993
 41
0.50
 42
0.50
 43
0.50
 50
349.07
  0
INSERT
  5
98
100
AcDbEntity
  8
Dzialki
  6
CONTINUOUS
 62
7
100
AcDbBlockReference
 66
0
  2
pikieta
 10
7575598.05999999959
 20
5707824.24000000022
 41
0.50
 42
0.50
 43
0.50
 50
349.07
  0
INSERT
  5
99
100
AcDbEntity
  8
Dzialki
  6
CONTINUOUS
 62
7
100
AcDbBlockReference
 66
0
  2
L_0_02_2
 10
7575609.34999999963
 20
5707822.05999999959
 41
0.50
 42
0.50
 43
0.50
 50
169.07
  0
MLINE
  5
9A
100
AcDbEntity
  8
Dzialki
  6
L_0_02
 62
7
370
18
100
AcDbMline
  2
L_0_02
340
7
 40
1.0
 70
1
 71
1
 72
2
 73
1
 10
7575586.76999999955
 20
5707826.41999999993
210
0.0
220
0.0
230
1.0
 11
7575586.76999999955
 21
5707826.41999999993
 12
0.981863495311
 22
-0.189589231172
 13
0.189589231172
 23
0.981863495311
 74
3
 41
0.0
 41
0.25
 41
22.747086772161
 75
0
 11
7575609.34999999963
 21
5707822.05999999959
 12
0.981863495311
 22
-0.189589231172
 13
0.189589231172
 23
0.981863495311
 74
0
 75
0
  0
INSERT
  5
9B
100
AcDbEntity
  8
Dzialki
  6
CONTINUOUS
 62
7
100
AcDbBlockReference
 66
0
  2
L_0_02_1
 10
7575609.34999999963
 20
5707822.05999999959
 41
0.50
 42
0.50
 43
0.50
 50
85.05
  0
INSERT
  5
9C
100
AcDbEntity
  8
Dzialki
  6
CONTINUOUS
 62
7
100
AcDbBlockReference
 66
0
  2
pikieta
 10
7575620.91000000015
 20
5707955.6099999994
 41
0.50
 42
0.50
 43
0.50
 50
85.05
  0
INSERT
  5
9D
100
AcDbEntity
  8
Dzialki
  6
CONTINUOUS
 62
7
100
AcDbBlockReference
 66
0
  2
L_0_02_2
 10
7575632.46999999974
 20
5708089.16000000015
 41
0.50
 42
0.50
 43
0.50
 50
265.05
  0
MLINE
  5
9E
100
AcDbEntity
  8
Dzialki
  6
L_0_02
 62
7
370
18
100
AcDbMline
  2
L_0_02
340
7
 40
1.0
 70
1
 71
1
 72
2
 73
1
 10
7575609.34999999963
 20
5707822.05999999959
210
0.0
220
0.0
230
1.0
 11
7575609.34999999963
 21
5707822.05999999959
 12
0.086236878212
 22
0.996274661344
 13
-0.996274661344
 23
0.086236878212
 74
3
 41
0.0
 41
0.25
 41
267.84875866983
 75
0
 11
7575632.46999999974
 21
5708089.16000000015
 12
0.086236878212
 22
0.996274661344
 13
-0.996274661344
 23
0.086236878212
 74
0
 75
0
  0
INSERT
  5
9F
100
AcDbEntity
  8
Dzialki
  6
CONTINUOUS
 62
7
100
AcDbBlockReference
 66
0
  2
L_0_02_1
 10
7575609.84999999963
 20
5708091.12999999989
 41
0.50
 42
0.50
 43
0.50
 50
265.02
  0
INSERT
  5
A0
100
AcDbEntity
  8
Dzialki
  6
CONTINUOUS
 62
7
100
AcDbBlockReference
 66
0
  2
pikieta
 10
7575598.30999999959
 20
5707958.77500000037
 41
0.50
 42
0.50
 43
0.50
 50
265.02
  0
INSERT
  5
A1
100
AcDbEntity
  8
Dzialki
  6
CONTINUOUS
 62
7
100
AcDbBlockReference
 66
0
  2
L_0_02_2
 10
7575586.76999999955
 20
5707826.41999999993
 41
0.50
 42
0.50
 43
0.50
 50
85.02
  0
MLINE
  5
A2
100
AcDbEntity
  8
Dzialki
  6
L_0_02
 62
7
370
18
100
AcDbMline
  2
L_0_02
340
7
 40
1.0
 70
1
 71
1
 72
2
 73
1
 10
7575609.84999999963
 20
5708091.12999999989
210
0.0
220
0.0
230
1.0
 11
7575609.84999999963
 21
5708091.12999999989
 12
-0.086860221902
 22
-0.996220508648
 13
0.996220508648
 23
-0.086860221902
 74
3
 41
0.0
 41
0.25
 41
265.464264765714
 75
0
 11
7575586.76999999955
 21
5707826.41999999993
 12
-0.086860221902
 22
-0.996220508648
 13
0.996220508648
 23
-0.086860221902
 74
0
 75
0
  0
INSERT
  5
A3
100
AcDbEntity
  8
Dzialki
  6
CONTINUOUS
 62
7
100
AcDbBlockReference
 66
0
  2
L_0_02_1
 10
7575609.34999999963
 20
5707822.05999999959
 41
0.50
 42
0.50
 43
0.50
 50
349.09
  0
INSERT
  5
A4
100
AcDbEntity
  8
Dzialki
  6
CONTINUOUS
 62
7
100
AcDbBlockReference
 66
0
  2
pikieta
 10
7575618.13999999966
 20
5707820.36500000022
 41
0.50
 42
0.50
 43
0.50
 50
349.09
  0
INSERT
  5
A5
100
AcDbEntity
  8
Dzialki
  6
CONTINUOUS
 62
7
100
AcDbBlockReference
 66
0
  2
L_0_02_2
 10
7575626.9299999997
 20
5707818.66999999993
 41
0.50
 42
0.50
 43
0.50
 50
169.09
  0
MLINE
  5
A6
100
AcDbEntity
  8
Dzialki
  6
L_0_02
 62
7
370
18
100
AcDbMline
  2
L_0_02
340
7
 40
1.0
 70
1
 71
1
 72
2
 73
1
 10
7575609.34999999963
 20
5707822.05999999959
210
0.0
220
0.0
230
1.0
 11
7575609.34999999963
 21
5707822.05999999959
 12
0.981910708252
 22
-0.18934455635
 13
0.18934455635
 23
0.981910708252
 74
3
 41
0.0
 41
0.25
 41
17.653868297112
 75
0
 11
7575626.9299999997
 21
5707818.66999999993
 12
0.981910708252
 22
-0.18934455635
 13
0.18934455635
 23
0.981910708252
 74
0
 75
0
  0
INSERT
  5
A7
100
AcDbEntity
  8
Dzialki
  6
CONTINUOUS
 62
7
100
AcDbBlockReference
 66
0
  2
L_0_02_1
 10
7575569.38999999966
 20
5707829.78000000026
 41
0.50
 42
0.50
 43
0.50
 50
349.06
  0
INSERT
  5
A8
100
AcDbEntity
  8
Dzialki
  6
CONTINUOUS
 62
7
100
AcDbBlockReference
 66
0
  2
pikieta
 10
7575578.08000000007
 20
5707828.09999999963
 41
0.50
 42
0.50
 43
0.50
 50
349.06
  0
INSERT
  5
A9
100
AcDbEntity
  8
Dzialki
  6
CONTINUOUS
 62
7
100
AcDbBlockReference
 66
0
  2
L_0_02_2
 10
7575586.76999999955
 20
5707826.41999999993
 41
0.50
 42
0.50
 43
0.50
 50
169.06
  0
MLINE
  5
AA
100
AcDbEntity
  8
Dzialki
  6
L_0_02
 62
7
370
18
100
AcDbMline
  2
L_0_02
340
7
 40
1.0
 70
1
 71
1
 72
2
 73
1
 10
7575569.38999999966
 20
5707829.78000000026
210
0.0
220
0.0
230
1.0
 11
7575569.38999999966
 21
5707829.78000000026
 12
0.981820624161
 22
-0.189811121837
 13
0.189811121837
 23
0.981820624161
 74
3
 41
0.0
 41
0.25
 41
17.451807817236
 75
0
 11
7575586.76999999955
 21
5707826.41999999993
 12
0.981820624161
 22
-0.189811121837
 13
0.189811121837
 23
0.981820624161
 74
0
 75
0
  0
POLYLINE
  5
AB
100
AcDbEntity
  8
EGBB_L_0
  6
CONTINUOUS
 62
7
370
18
100
AcDb2dPolyline
 66
1
 70
128
  0
VERTEX
  5
AC
100
AcDbEntity
  8
EGBB_L_0
100
AcDbVertex
100
AcDb2dVertex
 10
7575605.3200000003
 20
5707875.53000000026
  0
VERTEX
  5
AD
100
AcDbEntity
  8
EGBB_L_0
100
AcDbVertex
100
AcDb2dVertex
 10
7575595.45999999996
 20
5707876.4299999997
  0
SEQEND
  5
AE
100
AcDbEntity
  8
EGBB_L_0
  0
POLYLINE
  5
AF
100
AcDbEntity
  8
EGBB_L_0
  6
CONTINUOUS
 62
7
370
18
100
AcDb2dPolyline
 66
1
 70
128
  0
VERTEX
  5
B0
100
AcDbEntity
  8
EGBB_L_0
100
AcDbVertex
100
AcDb2dVertex
 10
7575595.45999999996
 20
5707876.4299999997
  0
VERTEX
  5
B1
100
AcDbEntity
  8
EGBB_L_0
100
AcDbVertex
100
AcDb2dVertex
 10
7575594.74000000022
 20
5707868.3200000003
  0
SEQEND
  5
B2
100
AcDbEntity
  8
EGBB_L_0
  0
POLYLINE
  5
B3
100
AcDbEntity
  8
EGBB_L_0
  6
CONTINUOUS
 62
7
370
18
100
AcDb2dPolyline
 66
1
 70
128
  0
VERTEX
  5
B4
100
AcDbEntity
  8
EGBB_L_0
100
AcDbVertex
100
AcDb2dVertex
 10
7575594.74000000022
 20
5707868.3200000003
  0
VERTEX
  5
B5
100
AcDbEntity
  8
EGBB_L_0
100
AcDbVertex
100
AcDb2dVertex
 10
7575604.61000000034
 20
5707867.45999999996
  0
SEQEND
  5
B6
100
AcDbEntity
  8
EGBB_L_0
  0
POLYLINE
  5
B7
100
AcDbEntity
  8
EGBB_L_0
  6
CONTINUOUS
 62
7
370
18
100
AcDb2dPolyline
 66
1
 70
128
  0
VERTEX
  5
B8
100
AcDbEntity
  8
EGBB_L_0
100
AcDbVertex
100
AcDb2dVertex
 10
7575604.61000000034
 20
5707867.45999999996
  0
VERTEX
  5
B9
100
AcDbEntity
  8
EGBB_L_0
100
AcDbVertex
100
AcDb2dVertex
 10
7575604.66999999993
 20
5707868.15000000037
  0
SEQEND
  5
BA
100
AcDbEntity
  8
EGBB_L_0
  0
POLYLINE
  5
BB
100
AcDbEntity
  8
EGBB_L_0
  6
CONTINUOUS
 62
7
370
18
100
AcDb2dPolyline
 66
1
 70
128
  0
VERTEX
  5
BC
100
AcDbEntity
  8
EGBB_L_0
100
AcDbVertex
100
AcDb2dVertex
 10
7575604.66999999993
 20
5707868.15000000037
  0
VERTEX
  5
BD
100
AcDbEntity
  8
EGBB_L_0
100
AcDbVertex
100
AcDb2dVertex
 10
7575608.23000000045
 20
5707867.83000000007
  0
SEQEND
  5
BE
100
AcDbEntity
  8
EGBB_L_0
  0
POLYLINE
  5
BF
100
AcDbEntity
  8
EGBB_L_0
  6
CONTINUOUS
 62
7
370
18
100
AcDb2dPolyline
 66
1
 70
128
  0
VERTEX
  5
C0
100
AcDbEntity
  8
EGBB_L_0
100
AcDbVertex
100
AcDb2dVertex
 10
7575608.23000000045
 20
5707867.83000000007
  0
VERTEX
  5
C1
100
AcDbEntity
  8
EGBB_L_0
100
AcDbVertex
100
AcDb2dVertex
 10
7575608.86000000034
 20
5707874.74000000022
  0
SEQEND
  5
C2
100
AcDbEntity
  8
EGBB_L_0
  0
POLYLINE
  5
C3
100
AcDbEntity
  8
EGBB_L_0
  6
CONTINUOUS
 62
7
370
18
100
AcDb2dPolyline
 66
1
 70
128
  0
VERTEX
  5
C4
100
AcDbEntity
  8
EGBB_L_0
100
AcDbVertex
100
AcDb2dVertex
 10
7575605.28000000026
 20
5707875.0700000003
  0
VERTEX
  5
C5
100
AcDbEntity
  8
EGBB_L_0
100
AcDbVertex
100
AcDb2dVertex
 10
7575605.3200000003
 20
5707875.53000000026
  0
SEQEND
  5
C6
100
AcDbEntity
  8
EGBB_L_0
  0
POLYLINE
  5
C7
100
AcDbEntity
  8
EGBB_L_0
  6
CONTINUOUS
 62
7
370
18
100
AcDb2dPolyline
 66
1
 70
128
  0
VERTEX
  5
C8
100
AcDbEntity
  8
EGBB_L_0
100
AcDbVertex
100
AcDb2dVertex
 10
7575608.86000000034
 20
5707874.74000000022
  0
VERTEX
  5
C9
100
AcDbEntity
  8
EGBB_L_0
100
AcDbVertex
100
AcDb2dVertex
 10
7575605.28000000026
 20
5707875.0700000003
  0
SEQEND
  5
CA
100
AcDbEntity
  8
EGBB_L_0
  0
POLYLINE
  5
CB
100
AcDbEntity
  8
Kontury
  6
L_0_06
 62
3
370
18
100
AcDb2dPolyline
 66
1
 70
128
  0
VERTEX
  5
CC
100
AcDbEntity
  8
Kontury
100
AcDbVertex
100
AcDb2dVertex
 10
7575638.58000000007
 20
5707811.20999999996
  0
VERTEX
  5
CD
100
AcDbEntity
  8
Kontury
100
AcDbVertex
100
AcDb2dVertex
 10
7575603.9299999997
 20
5707817.25999999978
  0
SEQEND
  5
CE
100
AcDbEntity
  8
Kontury
  0
POLYLINE
  5
CF
100
AcDbEntity
  8
Kontury
  6
L_0_06
 62
3
370
18
100
AcDb2dPolyline
 66
1
 70
128
  0
VERTEX
  5
D0
100
AcDbEntity
  8
Kontury
100
AcDbVertex
100
AcDb2dVertex
 10
7575603.9299999997
 20
5707817.25999999978
  0
VERTEX
  5
D1
100
AcDbEntity
  8
Kontury
100
AcDbVertex
100
AcDb2dVertex
 10
7575582.59999999963
 20
5707821.01999999862
  0
SEQEND
  5
D2
100
AcDbEntity
  8
Kontury
  0
POLYLINE
  5
D3
100
AcDbEntity
  8
Kontury
  6
L_0_06
 62
3
370
18
100
AcDb2dPolyline
 66
1
 70
128
  0
VERTEX
  5
D4
100
AcDbEntity
  8
Kontury
100
AcDbVertex
100
AcDb2dVertex
 10
7575569.38999999966
 20
5707829.78000000026
  0
VERTEX
  5
D5
100
AcDbEntity
  8
Kontury
100
AcDbVertex
100
AcDb2dVertex
 10
7575586.76999999955
 20
5707826.41999999993
  0
SEQEND
  5
D6
100
AcDbEntity
  8
Kontury
  0
POLYLINE
  5
D7
100
AcDbEntity
  8
Kontury
  6
L_0_06
 62
3
370
18
100
AcDb2dPolyline
 66
1
 70
128
  0
VERTEX
  5
D8
100
AcDbEntity
  8
Kontury
100
AcDbVertex
100
AcDb2dVertex
 10
7575586.76999999955
 20
5707826.41999999993
  0
VERTEX
  5
D9
100
AcDbEntity
  8
Kontury
100
AcDbVertex
100
AcDb2dVertex
 10
7575609.34999999963
 20
5707822.05999999959
  0
SEQEND
  5
DA
100
AcDbEntity
  8
Kontury
  0
POLYLINE
  5
DB
100
AcDbEntity
  8
Kontury
  6
L_0_06
 62
3
370
18
100
AcDb2dPolyline
 66
1
 70
128
  0
VERTEX
  5
DC
100
AcDbEntity
  8
Kontury
100
AcDbVertex
100
AcDb2dVertex
 10
7575609.34999999963
 20
5707822.05999999959
  0
VERTEX
  5
DD
100
AcDbEntity
  8
Kontury
100
AcDbVertex
100
AcDb2dVertex
 10
7575626.9299999997
 20
5707818.66999999993
  0
SEQEND
  5
DE
100
AcDbEntity
  8
Kontury
  0
POLYLINE
  5
DF
100
AcDbEntity
  8
KTJZ_L_0
  6
L_0_06
 62
7
370
18
100
AcDb2dPolyline
 66
1
 70
128
  0
VERTEX
  5
E0
100
AcDbEntity
  8
KTJZ_L_0
100
AcDbVertex
100
AcDb2dVertex
 10
7575570.28000000026
 20
5707828.75999999978
  0
VERTEX
  5
E1
100
AcDbEntity
  8
KTJZ_L_0
100
AcDbVertex
100
AcDb2dVertex
 10
7575626.73000000045
 20
5707818.15000000037
  0
SEQEND
  5
E2
100
AcDbEntity
  8
KTJZ_L_0
  0
POLYLINE
  5
E3
100
AcDbEntity
  8
KTJZ_L_0
  6
L_0_06
 62
7
370
18
100
AcDb2dPolyline
 66
1
 70
128
  0
VERTEX
  5
E4
100
AcDbEntity
  8
KTJZ_L_0
100
AcDbVertex
100
AcDb2dVertex
 10
7575676.12000000011
 20
5707805.28000000026
  0
VERTEX
  5
E5
100
AcDbEntity
  8
KTJZ_L_0
100
AcDbVertex
100
AcDb2dVertex
 10
7575569.75
 20
5707825.25999999978
  0
SEQEND
  5
E6
100
AcDbEntity
  8
KTJZ_L_0
  0
POLYLINE
  5
E7
100
AcDbEntity
  8
KTJZ_L_0
  6
L_0_06
 62
7
370
18
100
AcDb2dPolyline
 66
1
 70
128
  0
VERTEX
  5
E8
100
AcDbEntity
  8
KTJZ_L_0
100
AcDbVertex
100
AcDb2dVertex
 10
7575598.13370326441
 20
5707823.60089833662
  0
VERTEX
  5
E9
100
AcDbEntity
  8
KTJZ_L_0
100
AcDbVertex
100
AcDb2dVertex
 10
7575599.74370327126
 20
5707833.17089830339
  0
SEQEND
  5
EA
100
AcDbEntity
  8
KTJZ_L_0
  0
POLYLINE
  5
EB
100
AcDbEntity
  8
KTJZ_L_0
  6
L_0_06
 62
7
370
18
100
AcDb2dPolyline
 66
1
 70
128
  0
VERTEX
  5
EC
100
AcDbEntity
  8
KTJZ_L_0
100
AcDbVertex
100
AcDb2dVertex
 10
7575599.74370327126
 20
5707833.17089830339
  0
VERTEX
  5
ED
100
AcDbEntity
  8
KTJZ_L_0
100
AcDbVertex
100
AcDb2dVertex
 10
7575601.63370328862
 20
5707856.07089822274
  0
SEQEND
  5
EE
100
AcDbEntity
  8
KTJZ_L_0
  0
POLYLINE
  5
EF
100
AcDbEntity
  8
KTJZ_L_0
  6
L_0_06
 62
7
370
18
100
AcDb2dPolyline
 66
1
 70
128
  0
VERTEX
  5
F0
100
AcDbEntity
  8
KTJZ_L_0
100
AcDbVertex
100
AcDb2dVertex
 10
7575601.63370328862
 20
5707856.07089822274
  0
VERTEX
  5
F1
100
AcDbEntity
  8
KTJZ_L_0
100
AcDbVertex
100
AcDb2dVertex
 10
7575607.76370329689
 20
5707855.25089821778
  0
SEQEND
  5
F2
100
AcDbEntity
  8
KTJZ_L_0
  0
POLYLINE
  5
F3
100
AcDbEntity
  8
KTJZ_L_0
  6
L_0_06
 62
7
370
18
100
AcDb2dPolyline
 66
1
 70
128
  0
VERTEX
  5
F4
100
AcDbEntity
  8
KTJZ_L_0
100
AcDbVertex
100
AcDb2dVertex
 10
7575607.76370329689
 20
5707855.25089821778
  0
VERTEX
  5
F5
100
AcDbEntity
  8
KTJZ_L_0
100
AcDbVertex
100
AcDb2dVertex
 10
7575606.31370328087
 20
5707838.14089828823
  0
SEQEND
  5
F6
100
AcDbEntity
  8
KTJZ_L_0
  0
POLYLINE
  5
F7
100
AcDbEntity
  8
KTJZ_L_0
  6
L_0_06
 62
7
370
18
100
AcDb2dPolyline
 66
1
 70
128
  0
VERTEX
  5
F8
100
AcDbEntity
  8
KTJZ_L_0
100
AcDbVertex
100
AcDb2dVertex
 10
7575606.31370328087
 20
5707838.14089828823
  0
VERTEX
  5
F9
100
AcDbEntity
  8
KTJZ_L_0
100
AcDbVertex
100
AcDb2dVertex
 10
7575606.58370327856
 20
5707832.06089830585
  0
SEQEND
  5
FA
100
AcDbEntity
  8
KTJZ_L_0
  0
POLYLINE
  5
FB
100
AcDbEntity
  8
KTJZ_L_0
  6
L_0_06
 62
7
370
18
100
AcDb2dPolyline
 66
1
 70
128
  0
VERTEX
  5
FC
100
AcDbEntity
  8
KTJZ_L_0
100
AcDbVertex
100
AcDb2dVertex
 10
7575606.58370327856
 20
5707832.06089830585
  0
VERTEX
  5
FD
100
AcDbEntity
  8
KTJZ_L_0
100
AcDbVertex
100
AcDb2dVertex
 10
7575607.47370327823
 20
5707821.83089833986
  0
SEQEND
  5
FE
100
AcDbEntity
  8
KTJZ_L_0
  0
POLYLINE
  5
FF
100
AcDbEntity
  8
KTJZ_L_0
  6
L_0_06
 62
7
370
18
100
AcDb2dPolyline
 66
1
 70
128
  0
VERTEX
  5
100
100
AcDbEntity
  8
KTJZ_L_0
100
AcDbVertex
100
AcDb2dVertex
 10
7575607.47370327823
 20
5707821.83089833986
  0
VERTEX
  5
101
100
AcDbEntity
  8
KTJZ_L_0
100
AcDbVertex
100
AcDb2dVertex
 10
7575598.13370326441
 20
5707823.60089833662
  0
SEQEND
  5
102
100
AcDbEntity
  8
KTJZ_L_0
  0
ARC
  5
103
100
AcDbEntity
  8
KTOK_L_1
  6
L_0_03
 62
7
370
18
100
AcDbCircle
 10
7575592.7658357872
 20
5707817.0208861288
 30
0
 40
1.9999999916
100
AcDbArc
 50
177.7514799300
 51
221.8258523591
  0
ARC
  5
104
100
AcDbEntity
  8
KTOK_L_1
  6
L_0_03
 62
7
370
18
100
AcDbCircle
 10
7575588.8667505225
 20
5707817.7219486442
 30
0
 40
1.9999999911
100
AcDbArc
 50
297.7882011788
 51
341.8625736101
  0
ARC
  5
105
100
AcDbEntity
  8
KTOK_L_1
  6
L_0_03
 62
7
370
18
100
AcDbCircle
 10
7575601.1038371725
 20
5707832.7228600504
 30
0
 40
1.9999999992
100
AcDbArc
 50
358.3266324430
 51
42.4010046922
  0
ARC
  5
106
100
AcDbEntity
  8
KTOK_L_1
  6
L_0_03
 62
7
370
18
100
AcDbCircle
 10
7575605.0097633731
 20
5707832.0609723907
 30
0
 40
2.0000000104
100
AcDbArc
 50
118.3633538376
 51
162.4377258191
  0
CIRCLE
  5
107
100
AcDbEntity
  8
KTOK_L_1
  6
L_0_03
 62
7
370
18
100
AcDbCircle
 10
7575592.87969107926
 20
5707816.71955605131
 40
0.169999999925
  0
CIRCLE
  5
108
100
AcDbEntity
  8
KTOK_L_1
  6
L_0_03
 62
7
370
18
100
AcDbCircle
 10
7575588.40900598094
 20
5707817.52339323983
 40
0.169999999925
  0
CIRCLE
  5
109
100
AcDbEntity
  8
KTOK_L_1
  6
L_0_03
 62
7
370
18
100
AcDbCircle
 10
7575599.78245454095
 20
5707833.22714476008
 40
0.169999999925
  0
CIRCLE
  5
10A
100
AcDbEntity
  8
KTOK_L_1
  6
L_0_03
 62
7
370
18
100
AcDbCircle
 10
7575606.66999999993
 20
5707832.05999999959
 40
0.169999999925
  0
POLYLINE
  5
10B
100
AcDbEntity
  8
KTOK_L_1
  6
L_0_03
 62
7
370
18
100
AcDb2dPolyline
 66
1
 70
128
  0
VERTEX
  5
10C
100
AcDbEntity
  8
KTOK_L_1
100
AcDbVertex
100
AcDb2dVertex
 10
7575591.50553868618
 20
5707816.96663111262
  0
VERTEX
  5
10D
100
AcDbEntity
  8
KTOK_L_1
100
AcDbVertex
100
AcDb2dVertex
 10
7575590.02921270765
 20
5707817.2320771683
  0
SEQEND
  5
10E
100
AcDbEntity
  8
KTOK_L_1
  0
POLYLINE
  5
10F
100
AcDbEntity
  8
KTOK_L_1
  6
L_0_03
 62
7
370
18
100
AcDb2dPolyline
 66
1
 70
128
  0
VERTEX
  5
110
100
AcDbEntity
  8
KTOK_L_1
100
AcDbVertex
100
AcDb2dVertex
 10
7575592.87969107926
 20
5707816.71955605131
  0
VERTEX
  5
111
100
AcDbEntity
  8
KTOK_L_1
100
AcDbVertex
100
AcDb2dVertex
 10
7575591.25948435441
 20
5707817.0108721219
  0
SEQEND
  5
112
100
AcDbEntity
  8
KTOK_L_1
  0
POLYLINE
  5
113
100
AcDbEntity
  8
KTOK_L_1
  6
L_0_03
 62
7
370
18
100
AcDb2dPolyline
 66
1
 70
128
  0
VERTEX
  5
114
100
AcDbEntity
  8
KTOK_L_1
100
AcDbVertex
100
AcDb2dVertex
 10
7575590.02921270579
 20
5707817.2320771683
  0
VERTEX
  5
115
100
AcDbEntity
  8
KTOK_L_1
100
AcDbVertex
100
AcDb2dVertex
 10
7575588.40900598094
 20
5707817.52339323983
  0
SEQEND
  5
116
100
AcDbEntity
  8
KTOK_L_1
  0
POLYLINE
  5
117
100
AcDbEntity
  8
KTOK_L_1
  6
L_0_03
 62
7
370
18
100
AcDb2dPolyline
 66
1
 70
128
  0
VERTEX
  5
118
100
AcDbEntity
  8
KTOK_L_1
100
AcDbVertex
100
AcDb2dVertex
 10
7575602.36352616735
 20
5707832.78976336774
  0
VERTEX
  5
119
100
AcDbEntity
  8
KTOK_L_1
100
AcDbVertex
100
AcDb2dVertex
 10
7575603.84244234674
 20
5707832.53915024735
  0
SEQEND
  5
11A
100
AcDbEntity
  8
KTOK_L_1
  0
POLYLINE
  5
11B
100
AcDbEntity
  8
KTOK_L_1
  6
L_0_03
 62
7
370
18
100
AcDb2dPolyline
 66
1
 70
128
  0
VERTEX
  5
11C
100
AcDbEntity
  8
KTOK_L_1
100
AcDbVertex
100
AcDb2dVertex
 10
7575599.78245454095
 20
5707833.22714476008
  0
VERTEX
  5
11D
100
AcDbEntity
  8
KTOK_L_1
100
AcDbVertex
100
AcDb2dVertex
 10
7575602.610012196
 20
5707832.74799451418
  0
SEQEND
  5
11E
100
AcDbEntity
  8
KTOK_L_1
  0
POLYLINE
  5
11F
100
AcDbEntity
  8
KTOK_L_1
  6
L_0_03
 62
7
370
18
100
AcDb2dPolyline
 66
1
 70
128
  0
VERTEX
  5
120
100
AcDbEntity
  8
KTOK_L_1
100
AcDbVertex
100
AcDb2dVertex
 10
7575603.84244234301
 20
5707832.53915024549
  0
VERTEX
  5
121
100
AcDbEntity
  8
KTOK_L_1
100
AcDbVertex
100
AcDb2dVertex
 10
7575606.66999999993
 20
5707832.05999999959
  0
SEQEND
  5
122
100
AcDbEntity
  8
KTOK_L_1
  0
CIRCLE
  5
123
100
AcDbEntity
  8
KTOK_L_4
  6
CONTINUOUS
 62
7
370
35
100
AcDbCircle
 10
7575599.93769228552
 20
5707974.01782407612
 40
0.169999999925
  0
CIRCLE
  5
124
100
AcDbEntity
  8
KTOK_L_4
  6
CONTINUOUS
 62
7
370
35
100
AcDbCircle
 10
7575599.29469227884
 20
5707966.71532409918
 40
0.169999999925
  0
CIRCLE
  5
125
100
AcDbEntity
  8
KTOK_L_4
  6
CONTINUOUS
 62
7
370
35
100
AcDbCircle
 10
7575598.65169227403
 20
5707959.4128241241
 40
0.169999999925
  0
CIRCLE
  5
126
100
AcDbEntity
  8
KTOK_L_4
  6
CONTINUOUS
 62
7
370
35
100
AcDbCircle
 10
7575598.00869226921
 20
5707952.11032414995
 40
0.169999999925
  0
CIRCLE
  5
127
100
AcDbEntity
  8
KTOK_L_4
  6
CONTINUOUS
 62
7
370
35
100
AcDbCircle
 10
7575597.36569226254
 20
5707944.80782417487
 40
0.169999999925
  0
CIRCLE
  5
128
100
AcDbEntity
  8
KTOK_L_4
  6
CONTINUOUS
 62
7
370
35
100
AcDbCircle
 10
7575596.72269225586
 20
5707937.5053241998
 40
0.169999999925
  0
CIRCLE
  5
129
100
AcDbEntity
  8
KTOK_L_4
  6
CONTINUOUS
 62
7
370
35
100
AcDbCircle
 10
7575596.07969225105
 20
5707930.20282422472
 40
0.169999999925
  0
CIRCLE
  5
12A
100
AcDbEntity
  8
KTOK_L_4
  6
CONTINUOUS
 62
7
370
35
100
AcDbCircle
 10
7575595.43669224717
 20
5707922.90032424964
 40
0.169999999925
  0
CIRCLE
  5
12B
100
AcDbEntity
  8
KTOK_L_4
  6
CONTINUOUS
 62
7
370
35
100
AcDbCircle
 10
7575594.79369224049
 20
5707915.59782427456
 40
0.169999999925
  0
CIRCLE
  5
12C
100
AcDbEntity
  8
KTOK_L_4
  6
CONTINUOUS
 62
7
370
35
100
AcDbCircle
 10
7575594.15069223568
 20
5707908.29532429948
 40
0.169999999925
  0
CIRCLE
  5
12D
100
AcDbEntity
  8
KTOK_L_4
  6
CONTINUOUS
 62
7
370
35
100
AcDbCircle
 10
7575593.50769222993
 20
5707900.99282432627
 40
0.169999999925
  0
CIRCLE
  5
12E
100
AcDbEntity
  8
KTOK_L_4
  6
CONTINUOUS
 62
7
370
35
100
AcDbCircle
 10
7575592.86469222419
 20
5707893.69032435026
 40
0.169999999925
  0
CIRCLE
  5
12F
100
AcDbEntity
  8
KTOK_L_4
  6
CONTINUOUS
 62
7
370
35
100
AcDbCircle
 10
7575592.22169221751
 20
5707886.38782437518
 40
0.169999999925
  0
CIRCLE
  5
130
100
AcDbEntity
  8
KTOK_L_4
  6
CONTINUOUS
 62
7
370
35
100
AcDbCircle
 10
7575591.5786922127
 20
5707879.08532439917
 40
0.169999999925
  0
CIRCLE
  5
131
100
AcDbEntity
  8
KTOK_L_4
  6
CONTINUOUS
 62
7
370
35
100
AcDbCircle
 10
7575590.93569220882
 20
5707871.78282442503
 40
0.169999999925
  0
CIRCLE
  5
132
100
AcDbEntity
  8
KTOK_L_4
  6
CONTINUOUS
 62
7
370
35
100
AcDbCircle
 10
7575590.29269220214
 20
5707864.48032444995
 40
0.169999999925
  0
CIRCLE
  5
133
100
AcDbEntity
  8
KTOK_L_4
  6
CONTINUOUS
 62
7
370
35
100
AcDbCircle
 10
7575589.6496921964
 20
5707857.17782447487
 40
0.169999999925
  0
CIRCLE
  5
134
100
AcDbEntity
  8
KTOK_L_4
  6
CONTINUOUS
 62
7
370
35
100
AcDbCircle
 10
7575589.00669219159
 20
5707849.87532449979
 40
0.169999999925
  0
CIRCLE
  5
135
100
AcDbEntity
  8
KTOK_L_4
  6
CONTINUOUS
 62
7
370
35
100
AcDbCircle
 10
7575588.36369218584
 20
5707842.57282452472
 40
0.169999999925
  0
CIRCLE
  5
136
100
AcDbEntity
  8
KTOK_L_4
  6
CONTINUOUS
 62
7
370
35
100
AcDbCircle
 10
7575610.99569223542
 20
5707840.97332452517
 40
0.169999999925
  0
CIRCLE
  5
137
100
AcDbEntity
  8
KTOK_L_4
  6
CONTINUOUS
 62
7
370
35
100
AcDbCircle
 10
7575611.6506922422
 20
5707848.33632449992
 40
0.169999999925
  0
CIRCLE
  5
138
100
AcDbEntity
  8
KTOK_L_4
  6
CONTINUOUS
 62
7
370
35
100
AcDbCircle
 10
7575612.30569224712
 20
5707855.69932447374
 40
0.169999999925
  0
CIRCLE
  5
139
100
AcDbEntity
  8
KTOK_L_4
  6
CONTINUOUS
 62
7
370
35
100
AcDbCircle
 10
7575612.9606922539
 20
5707863.06232444849
 40
0.169999999925
  0
CIRCLE
  5
13A
100
AcDbEntity
  8
KTOK_L_4
  6
CONTINUOUS
 62
7
370
35
100
AcDbCircle
 10
7575613.61569225695
 20
5707870.42532442324
 40
0.169999999925
  0
CIRCLE
  5
13B
100
AcDbEntity
  8
KTOK_L_4
  6
CONTINUOUS
 62
7
370
35
100
AcDbCircle
 10
7575614.2706922628
 20
5707877.78832439706
 40
0.169999999925
  0
CIRCLE
  5
13C
100
AcDbEntity
  8
KTOK_L_4
  6
CONTINUOUS
 62
7
370
35
100
AcDbCircle
 10
7575614.92569226865
 20
5707885.15132437181
 40
0.169999999925
  0
CIRCLE
  5
13D
100
AcDbEntity
  8
KTOK_L_4
  6
CONTINUOUS
 62
7
370
35
100
AcDbCircle
 10
7575615.58069227543
 20
5707892.51432434563
 40
0.169999999925
  0
CIRCLE
  5
13E
100
AcDbEntity
  8
KTOK_L_4
  6
CONTINUOUS
 62
7
370
35
100
AcDbCircle
 10
7575616.23569228128
 20
5707899.87732432224
 40
0.169999999925
  0
CIRCLE
  5
13F
100
AcDbEntity
  8
KTOK_L_4
  6
CONTINUOUS
 62
7
370
35
100
AcDbCircle
 10
7575616.89069228526
 20
5707907.24032429419
 40
0.169999999925
  0
CIRCLE
  5
140
100
AcDbEntity
  8
KTOK_L_4
  6
CONTINUOUS
 62
7
370
35
100
AcDbCircle
 10
7575617.54569229204
 20
5707914.60332426988
 40
0.169999999925
  0
CIRCLE
  5
141
100
AcDbEntity
  8
KTOK_L_4
  6
CONTINUOUS
 62
7
370
35
100
AcDbCircle
 10
7575618.20069229603
 20
5707921.96632424556
 40
0.169999999925
  0
CIRCLE
  5
142
100
AcDbEntity
  8
KTOK_L_4
  6
CONTINUOUS
 62
7
370
35
100
AcDbCircle
 10
7575618.85569230188
 20
5707929.32932421844
 40
0.169999999925
  0
CIRCLE
  5
143
100
AcDbEntity
  8
KTOK_L_4
  6
CONTINUOUS
 62
7
370
35
100
AcDbCircle
 10
7575619.51069230679
 20
5707936.69232419226
 40
0.169999999925
  0
CIRCLE
  5
144
100
AcDbEntity
  8
KTOK_L_4
  6
CONTINUOUS
 62
7
370
35
100
AcDbCircle
 10
7575620.16569231264
 20
5707944.05532416794
 40
0.169999999925
  0
CIRCLE
  5
145
100
AcDbEntity
  8
KTOK_L_4
  6
CONTINUOUS
 62
7
370
35
100
AcDbCircle
 10
7575620.82069231942
 20
5707951.41832414269
 40
0.169999999925
  0
CIRCLE
  5
146
100
AcDbEntity
  8
KTOK_L_4
  6
CONTINUOUS
 62
7
370
35
100
AcDbCircle
 10
7575621.47569232341
 20
5707958.78132411744
 40
0.169999999925
  0
CIRCLE
  5
147
100
AcDbEntity
  8
KTOK_L_4
  6
CONTINUOUS
 62
7
370
35
100
AcDbCircle
 10
7575622.13069233019
 20
5707966.14432409219
 40
0.169999999925
  0
CIRCLE
  5
148
100
AcDbEntity
  8
KTOK_L_4
  6
CONTINUOUS
 62
7
370
35
100
AcDbCircle
 10
7575622.78569233418
 20
5707973.50732406601
 40
0.169999999925
  0
CIRCLE
  5
149
100
AcDbEntity
  8
KTOK_L_4
  6
CONTINUOUS
 62
7
370
35
100
AcDbCircle
 10
7575598.29984553996
 20
5707815.74477802496
 40
0.169999999925
  0
CIRCLE
  5
14A
100
AcDbEntity
  8
KTOK_L_4
  6
CONTINUOUS
 62
7
370
35
100
AcDbCircle
 10
7575603.0933333328
 20
5707807.22999999858
 40
0.169999999925
  0
CIRCLE
  5
14B
100
AcDbEntity
  8
KTOK_L_4
  6
CONTINUOUS
 62
7
370
35
100
AcDbCircle
 10
7575602.46666666586
 20
5707799.68999999855
 40
0.169999999925
  0
CIRCLE
  5
14C
100
AcDbEntity
  8
KTOK_L_4
  6
CONTINUOUS
 62
7
370
35
100
AcDbCircle
 10
7575601.83999999985
 20
5707792.14999999944
 40
0.169999999925
  0
CIRCLE
  5
14D
100
AcDbEntity
  8
KTOK_L_4
  6
CONTINUOUS
 62
7
370
35
100
AcDbCircle
 10
7575601.21333333291
 20
5707784.6099999994
 40
0.169999999925
  0
CIRCLE
  5
14E
100
AcDbEntity
  8
KTOK_L_4
  6
CONTINUOUS
 62
7
370
35
100
AcDbCircle
 10
7575600.58666666597
 20
5707777.0700000003
 40
0.169999999925
  0
CIRCLE
  5
14F
100
AcDbEntity
  8
KTOK_L_4
  6
CONTINUOUS
 62
7
370
35
100
AcDbCircle
 10
7575599.1588794943
 20
5707818.07586725988
 40
0.169999999925
  0
CIRCLE
  5
150
100
AcDbEntity
  8
KTOK_L_4
  6
CONTINUOUS
 62
7
370
35
100
AcDbCircle
 10
7575593.75157336052
 20
5707834.24873465486
 40
0.169999999925
  0
CIRCLE
  5
151
100
AcDbEntity
  8
KTOK_L_4
  6
CONTINUOUS
 62
7
370
35
100
AcDbCircle
 10
7575620.00086027663
 20
5707814.45490360633
 40
0.169999999925
  0
CIRCLE
  5
152
100
AcDbEntity
  8
KTOK_L_4
  6
CONTINUOUS
 62
7
370
35
100
AcDbCircle
 10
7575611.96430963371
 20
5707815.85831906274
 40
0.169999999925
  0
POLYLINE
  5
153
100
AcDbEntity
  8
KTOK_L_4
  6
CONTINUOUS
 62
7
370
35
100
AcDb2dPolyline
 66
1
 70
128
  0
VERTEX
  5
154
100
AcDbEntity
  8
KTOK_L_4
100
AcDbVertex
100
AcDb2dVertex
 10
7575599.93769228552
 20
5707974.01782407612
  0
VERTEX
  5
155
100
AcDbEntity
  8
KTOK_L_4
100
AcDbVertex
100
AcDb2dVertex
 10
7575599.29469227884
 20
5707966.71532409918
  0
SEQEND
  5
156
100
AcDbEntity
  8
KTOK_L_4
  0
POLYLINE
  5
157
100
AcDbEntity
  8
KTOK_L_4
  6
CONTINUOUS
 62
7
370
35
100
AcDb2dPolyline
 66
1
 70
128
  0
VERTEX
  5
158
100
AcDbEntity
  8
KTOK_L_4
100
AcDbVertex
100
AcDb2dVertex
 10
7575599.29469227884
 20
5707966.71532409918
  0
VERTEX
  5
159
100
AcDbEntity
  8
KTOK_L_4
100
AcDbVertex
100
AcDb2dVertex
 10
7575598.65169227403
 20
5707959.4128241241
  0
SEQEND
  5
15A
100
AcDbEntity
  8
KTOK_L_4
  0
POLYLINE
  5
15B
100
AcDbEntity
  8
KTOK_L_4
  6
CONTINUOUS
 62
7
370
35
100
AcDb2dPolyline
 66
1
 70
128
  0
VERTEX
  5
15C
100
AcDbEntity
  8
KTOK_L_4
100
AcDbVertex
100
AcDb2dVertex
 10
7575598.65169227403
 20
5707959.4128241241
  0
VERTEX
  5
15D
100
AcDbEntity
  8
KTOK_L_4
100
AcDbVertex
100
AcDb2dVertex
 10
7575598.00869226828
 20
5707952.11032414995
  0
SEQEND
  5
15E
100
AcDbEntity
  8
KTOK_L_4
  0
POLYLINE
  5
15F
100
AcDbEntity
  8
KTOK_L_4
  6
CONTINUOUS
 62
7
370
35
100
AcDb2dPolyline
 66
1
 70
128
  0
VERTEX
  5
160
100
AcDbEntity
  8
KTOK_L_4
100
AcDbVertex
100
AcDb2dVertex
 10
7575598.00869226921
 20
5707952.11032414995
  0
VERTEX
  5
161
100
AcDbEntity
  8
KTOK_L_4
100
AcDbVertex
100
AcDb2dVertex
 10
7575597.36569226254
 20
5707944.80782417487
  0
SEQEND
  5
162
100
AcDbEntity
  8
KTOK_L_4
  0
POLYLINE
  5
163
100
AcDbEntity
  8
KTOK_L_4
  6
CONTINUOUS
 62
7
370
35
100
AcDb2dPolyline
 66
1
 70
128
  0
VERTEX
  5
164
100
AcDbEntity
  8
KTOK_L_4
100
AcDbVertex
100
AcDb2dVertex
 10
7575597.36569226254
 20
5707944.80782417487
  0
VERTEX
  5
165
100
AcDbEntity
  8
KTOK_L_4
100
AcDbVertex
100
AcDb2dVertex
 10
7575596.72269225586
 20
5707937.5053241998
  0
SEQEND
  5
166
100
AcDbEntity
  8
KTOK_L_4
  0
POLYLINE
  5
167
100
AcDbEntity
  8
KTOK_L_4
  6
CONTINUOUS
 62
7
370
35
100
AcDb2dPolyline
 66
1
 70
128
  0
VERTEX
  5
168
100
AcDbEntity
  8
KTOK_L_4
100
AcDbVertex
100
AcDb2dVertex
 10
7575596.72269225586
 20
5707937.5053241998
  0
VERTEX
  5
169
100
AcDbEntity
  8
KTOK_L_4
100
AcDbVertex
100
AcDb2dVertex
 10
7575596.07969225105
 20
5707930.20282422472
  0
SEQEND
  5
16A
100
AcDbEntity
  8
KTOK_L_4
  0
POLYLINE
  5
16B
100
AcDbEntity
  8
KTOK_L_4
  6
CONTINUOUS
 62
7
370
35
100
AcDb2dPolyline
 66
1
 70
128
  0
VERTEX
  5
16C
100
AcDbEntity
  8
KTOK_L_4
100
AcDbVertex
100
AcDb2dVertex
 10
7575596.07969225105
 20
5707930.20282422472
  0
VERTEX
  5
16D
100
AcDbEntity
  8
KTOK_L_4
100
AcDbVertex
100
AcDb2dVertex
 10
7575595.43669224717
 20
5707922.90032424964
  0
SEQEND
  5
16E
100
AcDbEntity
  8
KTOK_L_4
  0
POLYLINE
  5
16F
100
AcDbEntity
  8
KTOK_L_4
  6
CONTINUOUS
 62
7
370
35
100
AcDb2dPolyline
 66
1
 70
128
  0
VERTEX
  5
170
100
AcDbEntity
  8
KTOK_L_4
100
AcDbVertex
100
AcDb2dVertex
 10
7575595.43669224717
 20
5707922.90032424964
  0
VERTEX
  5
171
100
AcDbEntity
  8
KTOK_L_4
100
AcDbVertex
100
AcDb2dVertex
 10
7575594.79369224049
 20
5707915.59782427456
  0
SEQEND
  5
172
100
AcDbEntity
  8
KTOK_L_4
  0
POLYLINE
  5
173
100
AcDbEntity
  8
KTOK_L_4
  6
CONTINUOUS
 62
7
370
35
100
AcDb2dPolyline
 66
1
 70
128
  0
VERTEX
  5
174
100
AcDbEntity
  8
KTOK_L_4
100
AcDbVertex
100
AcDb2dVertex
 10
7575594.79369224049
 20
5707915.59782427456
  0
VERTEX
  5
175
100
AcDbEntity
  8
KTOK_L_4
100
AcDbVertex
100
AcDb2dVertex
 10
7575594.15069223568
 20
5707908.29532429948
  0
SEQEND
  5
176
100
AcDbEntity
  8
KTOK_L_4
  0
POLYLINE
  5
177
100
AcDbEntity
  8
KTOK_L_4
  6
CONTINUOUS
 62
7
370
35
100
AcDb2dPolyline
 66
1
 70
128
  0
VERTEX
  5
178
100
AcDbEntity
  8
KTOK_L_4
100
AcDbVertex
100
AcDb2dVertex
 10
7575594.15069223568
 20
5707908.29532429948
  0
VERTEX
  5
179
100
AcDbEntity
  8
KTOK_L_4
100
AcDbVertex
100
AcDb2dVertex
 10
7575593.50769222993
 20
5707900.99282432534
  0
SEQEND
  5
17A
100
AcDbEntity
  8
KTOK_L_4
  0
POLYLINE
  5
17B
100
AcDbEntity
  8
KTOK_L_4
  6
CONTINUOUS
 62
7
370
35
100
AcDb2dPolyline
 66
1
 70
128
  0
VERTEX
  5
17C
100
AcDbEntity
  8
KTOK_L_4
100
AcDbVertex
100
AcDb2dVertex
 10
7575593.50769222993
 20
5707900.99282432627
  0
VERTEX
  5
17D
100
AcDbEntity
  8
KTOK_L_4
100
AcDbVertex
100
AcDb2dVertex
 10
7575592.86469222419
 20
5707893.69032435026
  0
SEQEND
  5
17E
100
AcDbEntity
  8
KTOK_L_4
  0
POLYLINE
  5
17F
100
AcDbEntity
  8
KTOK_L_4
  6
CONTINUOUS
 62
7
370
35
100
AcDb2dPolyline
 66
1
 70
128
  0
VERTEX
  5
180
100
AcDbEntity
  8
KTOK_L_4
100
AcDbVertex
100
AcDb2dVertex
 10
7575592.86469222419
 20
5707893.69032435026
  0
VERTEX
  5
181
100
AcDbEntity
  8
KTOK_L_4
100
AcDbVertex
100
AcDb2dVertex
 10
7575592.22169221751
 20
5707886.38782437518
  0
SEQEND
  5
182
100
AcDbEntity
  8
KTOK_L_4
  0
POLYLINE
  5
183
100
AcDbEntity
  8
KTOK_L_4
  6
CONTINUOUS
 62
7
370
35
100
AcDb2dPolyline
 66
1
 70
128
  0
VERTEX
  5
184
100
AcDbEntity
  8
KTOK_L_4
100
AcDbVertex
100
AcDb2dVertex
 10
7575592.22169221751
 20
5707886.38782437518
  0
VERTEX
  5
185
100
AcDbEntity
  8
KTOK_L_4
100
AcDbVertex
100
AcDb2dVertex
 10
7575591.5786922127
 20
5707879.08532439917
  0
SEQEND
  5
186
100
AcDbEntity
  8
KTOK_L_4
  0
POLYLINE
  5
187
100
AcDbEntity
  8
KTOK_L_4
  6
CONTINUOUS
 62
7
370
35
100
AcDb2dPolyline
 66
1
 70
128
  0
VERTEX
  5
188
100
AcDbEntity
  8
KTOK_L_4
100
AcDbVertex
100
AcDb2dVertex
 10
7575591.5786922127
 20
5707879.08532439917
  0
VERTEX
  5
189
100
AcDbEntity
  8
KTOK_L_4
100
AcDbVertex
100
AcDb2dVertex
 10
7575590.93569220602
 20
5707871.78282442503
  0
SEQEND
  5
18A
100
AcDbEntity
  8
KTOK_L_4
  0
POLYLINE
  5
18B
100
AcDbEntity
  8
KTOK_L_4
  6
CONTINUOUS
 62
7
370
35
100
AcDb2dPolyline
 66
1
 70
128
  0
VERTEX
  5
18C
100
AcDbEntity
  8
KTOK_L_4
100
AcDbVertex
100
AcDb2dVertex
 10
7575590.93569220882
 20
5707871.78282442503
  0
VERTEX
  5
18D
100
AcDbEntity
  8
KTOK_L_4
100
AcDbVertex
100
AcDb2dVertex
 10
7575590.29269220214
 20
5707864.48032444995
  0
SEQEND
  5
18E
100
AcDbEntity
  8
KTOK_L_4
  0
POLYLINE
  5
18F
100
AcDbEntity
  8
KTOK_L_4
  6
CONTINUOUS
 62
7
370
35
100
AcDb2dPolyline
 66
1
 70
128
  0
VERTEX
  5
190
100
AcDbEntity
  8
KTOK_L_4
100
AcDbVertex
100
AcDb2dVertex
 10
7575590.29269220214
 20
5707864.48032444995
  0
VERTEX
  5
191
100
AcDbEntity
  8
KTOK_L_4
100
AcDbVertex
100
AcDb2dVertex
 10
7575589.6496921964
 20
5707857.17782447487
  0
SEQEND
  5
192
100
AcDbEntity
  8
KTOK_L_4
  0
POLYLINE
  5
193
100
AcDbEntity
  8
KTOK_L_4
  6
CONTINUOUS
 62
7
370
35
100
AcDb2dPolyline
 66
1
 70
128
  0
VERTEX
  5
194
100
AcDbEntity
  8
KTOK_L_4
100
AcDbVertex
100
AcDb2dVertex
 10
7575589.6496921964
 20
5707857.17782447487
  0
VERTEX
  5
195
100
AcDbEntity
  8
KTOK_L_4
100
AcDbVertex
100
AcDb2dVertex
 10
7575589.00669219159
 20
5707849.87532449979
  0
SEQEND
  5
196
100
AcDbEntity
  8
KTOK_L_4
  0
POLYLINE
  5
197
100
AcDbEntity
  8
KTOK_L_4
  6
CONTINUOUS
 62
7
370
35
100
AcDb2dPolyline
 66
1
 70
128
  0
VERTEX
  5
198
100
AcDbEntity
  8
KTOK_L_4
100
AcDbVertex
100
AcDb2dVertex
 10
7575589.00669219159
 20
5707849.87532449979
  0
VERTEX
  5
199
100
AcDbEntity
  8
KTOK_L_4
100
AcDbVertex
100
AcDb2dVertex
 10
7575588.36369218584
 20
5707842.57282452472
  0
SEQEND
  5
19A
100
AcDbEntity
  8
KTOK_L_4
  0
POLYLINE
  5
19B
100
AcDbEntity
  8
KTOK_L_4
  6
CONTINUOUS
 62
7
370
35
100
AcDb2dPolyline
 66
1
 70
128
  0
VERTEX
  5
19C
100
AcDbEntity
  8
KTOK_L_4
100
AcDbVertex
100
AcDb2dVertex
 10
7575588.36369218584
 20
5707842.57282452472
  0
VERTEX
  5
19D
100
AcDbEntity
  8
KTOK_L_4
100
AcDbVertex
100
AcDb2dVertex
 10
7575587.72069217917
 20
5707835.27032454964
  0
SEQEND
  5
19E
100
AcDbEntity
  8
KTOK_L_4
  0
POLYLINE
  5
19F
100
AcDbEntity
  8
KTOK_L_4
  6
CONTINUOUS
 62
7
370
35
100
AcDb2dPolyline
 66
1
 70
128
  0
VERTEX
  5
1A0
100
AcDbEntity
  8
KTOK_L_4
100
AcDbVertex
100
AcDb2dVertex
 10
7575600.5806922894
 20
5707981.32032405119
  0
VERTEX
  5
1A1
100
AcDbEntity
  8
KTOK_L_4
100
AcDbVertex
100
AcDb2dVertex
 10
7575599.93769228552
 20
5707974.01782407612
  0
SEQEND
  5
1A2
100
AcDbEntity
  8
KTOK_L_4
  0
POLYLINE
  5
1A3
100
AcDbEntity
  8
KTOK_L_4
  6
CONTINUOUS
 62
7
370
35
100
AcDb2dPolyline
 66
1
 70
128
  0
VERTEX
  5
1A4
100
AcDbEntity
  8
KTOK_L_4
100
AcDbVertex
100
AcDb2dVertex
 10
7575606.67069222126
 20
5707832.06032454967
  0
VERTEX
  5
1A5
100
AcDbEntity
  8
KTOK_L_4
100
AcDbVertex
100
AcDb2dVertex
 10
7575610.34069222957
 20
5707833.61032455042
  0
SEQEND
  5
1A6
100
AcDbEntity
  8
KTOK_L_4
  0
POLYLINE
  5
1A7
100
AcDbEntity
  8
KTOK_L_4
  6
CONTINUOUS
 62
7
370
35
100
AcDb2dPolyline
 66
1
 70
128
  0
VERTEX
  5
1A8
100
AcDbEntity
  8
KTOK_L_4
100
AcDbVertex
100
AcDb2dVertex
 10
7575610.99569223542
 20
5707840.97332452517
  0
VERTEX
  5
1A9
100
AcDbEntity
  8
KTOK_L_4
100
AcDbVertex
100
AcDb2dVertex
 10
7575611.6506922422
 20
5707848.33632449992
  0
SEQEND
  5
1AA
100
AcDbEntity
  8
KTOK_L_4
  0
POLYLINE
  5
1AB
100
AcDbEntity
  8
KTOK_L_4
  6
CONTINUOUS
 62
7
370
35
100
AcDb2dPolyline
 66
1
 70
128
  0
VERTEX
  5
1AC
100
AcDbEntity
  8
KTOK_L_4
100
AcDbVertex
100
AcDb2dVertex
 10
7575611.6506922422
 20
5707848.33632449992
  0
VERTEX
  5
1AD
100
AcDbEntity
  8
KTOK_L_4
100
AcDbVertex
100
AcDb2dVertex
 10
7575612.30569224712
 20
5707855.69932447467
  0
SEQEND
  5
1AE
100
AcDbEntity
  8
KTOK_L_4
  0
POLYLINE
  5
1AF
100
AcDbEntity
  8
KTOK_L_4
  6
CONTINUOUS
 62
7
370
35
100
AcDb2dPolyline
 66
1
 70
128
  0
VERTEX
  5
1B0
100
AcDbEntity
  8
KTOK_L_4
100
AcDbVertex
100
AcDb2dVertex
 10
7575612.30569224712
 20
5707855.69932447374
  0
VERTEX
  5
1B1
100
AcDbEntity
  8
KTOK_L_4
100
AcDbVertex
100
AcDb2dVertex
 10
7575612.9606922539
 20
5707863.06232444849
  0
SEQEND
  5
1B2
100
AcDbEntity
  8
KTOK_L_4
  0
POLYLINE
  5
1B3
100
AcDbEntity
  8
KTOK_L_4
  6
CONTINUOUS
 62
7
370
35
100
AcDb2dPolyline
 66
1
 70
128
  0
VERTEX
  5
1B4
100
AcDbEntity
  8
KTOK_L_4
100
AcDbVertex
100
AcDb2dVertex
 10
7575612.9606922539
 20
5707863.06232444849
  0
VERTEX
  5
1B5
100
AcDbEntity
  8
KTOK_L_4
100
AcDbVertex
100
AcDb2dVertex
 10
7575613.61569225695
 20
5707870.42532442324
  0
SEQEND
  5
1B6
100
AcDbEntity
  8
KTOK_L_4
  0
POLYLINE
  5
1B7
100
AcDbEntity
  8
KTOK_L_4
  6
CONTINUOUS
 62
7
370
35
100
AcDb2dPolyline
 66
1
 70
128
  0
VERTEX
  5
1B8
100
AcDbEntity
  8
KTOK_L_4
100
AcDbVertex
100
AcDb2dVertex
 10
7575613.61569225695
 20
5707870.42532442324
  0
VERTEX
  5
1B9
100
AcDbEntity
  8
KTOK_L_4
100
AcDbVertex
100
AcDb2dVertex
 10
7575614.27069226373
 20
5707877.78832439706
  0
SEQEND
  5
1BA
100
AcDbEntity
  8
KTOK_L_4
  0
POLYLINE
  5
1BB
100
AcDbEntity
  8
KTOK_L_4
  6
CONTINUOUS
 62
7
370
35
100
AcDb2dPolyline
 66
1
 70
128
  0
VERTEX
  5
1BC
100
AcDbEntity
  8
KTOK_L_4
100
AcDbVertex
100
AcDb2dVertex
 10
7575614.2706922628
 20
5707877.78832439706
  0
VERTEX
  5
1BD
100
AcDbEntity
  8
KTOK_L_4
100
AcDbVertex
100
AcDb2dVertex
 10
7575614.92569226865
 20
5707885.15132437181
  0
SEQEND
  5
1BE
100
AcDbEntity
  8
KTOK_L_4
  0
POLYLINE
  5
1BF
100
AcDbEntity
  8
KTOK_L_4
  6
CONTINUOUS
 62
7
370
35
100
AcDb2dPolyline
 66
1
 70
128
  0
VERTEX
  5
1C0
100
AcDbEntity
  8
KTOK_L_4
100
AcDbVertex
100
AcDb2dVertex
 10
7575614.92569226865
 20
5707885.15132437181
  0
VERTEX
  5
1C1
100
AcDbEntity
  8
KTOK_L_4
100
AcDbVertex
100
AcDb2dVertex
 10
7575615.58069227543
 20
5707892.51432434563
  0
SEQEND
  5
1C2
100
AcDbEntity
  8
KTOK_L_4
  0
POLYLINE
  5
1C3
100
AcDbEntity
  8
KTOK_L_4
  6
CONTINUOUS
 62
7
370
35
100
AcDb2dPolyline
 66
1
 70
128
  0
VERTEX
  5
1C4
100
AcDbEntity
  8
KTOK_L_4
100
AcDbVertex
100
AcDb2dVertex
 10
7575615.58069227543
 20
5707892.51432434563
  0
VERTEX
  5
1C5
100
AcDbEntity
  8
KTOK_L_4
100
AcDbVertex
100
AcDb2dVertex
 10
7575616.23569228128
 20
5707899.87732432224
  0
SEQEND
  5
1C6
100
AcDbEntity
  8
KTOK_L_4
  0
POLYLINE
  5
1C7
100
AcDbEntity
  8
KTOK_L_4
  6
CONTINUOUS
 62
7
370
35
100
AcDb2dPolyline
 66
1
 70
128
  0
VERTEX
  5
1C8
100
AcDbEntity
  8
KTOK_L_4
100
AcDbVertex
100
AcDb2dVertex
 10
7575616.23569228128
 20
5707899.87732432224
  0
VERTEX
  5
1C9
100
AcDbEntity
  8
KTOK_L_4
100
AcDbVertex
100
AcDb2dVertex
 10
7575616.89069228526
 20
5707907.24032429699
  0
SEQEND
  5
1CA
100
AcDbEntity
  8
KTOK_L_4
  0
POLYLINE
  5
1CB
100
AcDbEntity
  8
KTOK_L_4
  6
CONTINUOUS
 62
7
370
35
100
AcDb2dPolyline
 66
1
 70
128
  0
VERTEX
  5
1CC
100
AcDbEntity
  8
KTOK_L_4
100
AcDbVertex
100
AcDb2dVertex
 10
7575616.89069228526
 20
5707907.24032429419
  0
VERTEX
  5
1CD
100
AcDbEntity
  8
KTOK_L_4
100
AcDbVertex
100
AcDb2dVertex
 10
7575617.54569229204
 20
5707914.60332426988
  0
SEQEND
  5
1CE
100
AcDbEntity
  8
KTOK_L_4
  0
POLYLINE
  5
1CF
100
AcDbEntity
  8
KTOK_L_4
  6
CONTINUOUS
 62
7
370
35
100
AcDb2dPolyline
 66
1
 70
128
  0
VERTEX
  5
1D0
100
AcDbEntity
  8
KTOK_L_4
100
AcDbVertex
100
AcDb2dVertex
 10
7575617.54569229204
 20
5707914.60332426988
  0
VERTEX
  5
1D1
100
AcDbEntity
  8
KTOK_L_4
100
AcDbVertex
100
AcDb2dVertex
 10
7575618.20069229789
 20
5707921.96632424556
  0
SEQEND
  5
1D2
100
AcDbEntity
  8
KTOK_L_4
  0
POLYLINE
  5
1D3
100
AcDbEntity
  8
KTOK_L_4
  6
CONTINUOUS
 62
7
370
35
100
AcDb2dPolyline
 66
1
 70
128
  0
VERTEX
  5
1D4
100
AcDbEntity
  8
KTOK_L_4
100
AcDbVertex
100
AcDb2dVertex
 10
7575618.20069229603
 20
5707921.96632424556
  0
VERTEX
  5
1D5
100
AcDbEntity
  8
KTOK_L_4
100
AcDbVertex
100
AcDb2dVertex
 10
7575618.85569230188
 20
5707929.32932421938
  0
SEQEND
  5
1D6
100
AcDbEntity
  8
KTOK_L_4
  0
POLYLINE
  5
1D7
100
AcDbEntity
  8
KTOK_L_4
  6
CONTINUOUS
 62
7
370
35
100
AcDb2dPolyline
 66
1
 70
128
  0
VERTEX
  5
1D8
100
AcDbEntity
  8
KTOK_L_4
100
AcDbVertex
100
AcDb2dVertex
 10
7575618.85569230188
 20
5707929.32932421844
  0
VERTEX
  5
1D9
100
AcDbEntity
  8
KTOK_L_4
100
AcDbVertex
100
AcDb2dVertex
 10
7575619.51069230679
 20
5707936.69232419226
  0
SEQEND
  5
1DA
100
AcDbEntity
  8
KTOK_L_4
  0
POLYLINE
  5
1DB
100
AcDbEntity
  8
KTOK_L_4
  6
CONTINUOUS
 62
7
370
35
100
AcDb2dPolyline
 66
1
 70
128
  0
VERTEX
  5
1DC
100
AcDbEntity
  8
KTOK_L_4
100
AcDbVertex
100
AcDb2dVertex
 10
7575619.51069230679
 20
5707936.69232419226
  0
VERTEX
  5
1DD
100
AcDbEntity
  8
KTOK_L_4
100
AcDbVertex
100
AcDb2dVertex
 10
7575620.16569231264
 20
5707944.05532416794
  0
SEQEND
  5
1DE
100
AcDbEntity
  8
KTOK_L_4
  0
POLYLINE
  5
1DF
100
AcDbEntity
  8
KTOK_L_4
  6
CONTINUOUS
 62
7
370
35
100
AcDb2dPolyline
 66
1
 70
128
  0
VERTEX
  5
1E0
100
AcDbEntity
  8
KTOK_L_4
100
AcDbVertex
100
AcDb2dVertex
 10
7575620.16569231264
 20
5707944.05532416794
  0
VERTEX
  5
1E1
100
AcDbEntity
  8
KTOK_L_4
100
AcDbVertex
100
AcDb2dVertex
 10
7575620.82069231942
 20
5707951.41832414269
  0
SEQEND
  5
1E2
100
AcDbEntity
  8
KTOK_L_4
  0
POLYLINE
  5
1E3
100
AcDbEntity
  8
KTOK_L_4
  6
CONTINUOUS
 62
7
370
35
100
AcDb2dPolyline
 66
1
 70
128
  0
VERTEX
  5
1E4
100
AcDbEntity
  8
KTOK_L_4
100
AcDbVertex
100
AcDb2dVertex
 10
7575620.82069231942
 20
5707951.41832414269
  0
VERTEX
  5
1E5
100
AcDbEntity
  8
KTOK_L_4
100
AcDbVertex
100
AcDb2dVertex
 10
7575621.47569232527
 20
5707958.78132411838
  0
SEQEND
  5
1E6
100
AcDbEntity
  8
KTOK_L_4
  0
POLYLINE
  5
1E7
100
AcDbEntity
  8
KTOK_L_4
  6
CONTINUOUS
 62
7
370
35
100
AcDb2dPolyline
 66
1
 70
128
  0
VERTEX
  5
1E8
100
AcDbEntity
  8
KTOK_L_4
100
AcDbVertex
100
AcDb2dVertex
 10
7575621.47569232341
 20
5707958.78132411744
  0
VERTEX
  5
1E9
100
AcDbEntity
  8
KTOK_L_4
100
AcDbVertex
100
AcDb2dVertex
 10
7575622.13069233019
 20
5707966.14432409219
  0
SEQEND
  5
1EA
100
AcDbEntity
  8
KTOK_L_4
  0
POLYLINE
  5
1EB
100
AcDbEntity
  8
KTOK_L_4
  6
CONTINUOUS
 62
7
370
35
100
AcDb2dPolyline
 66
1
 70
128
  0
VERTEX
  5
1EC
100
AcDbEntity
  8
KTOK_L_4
100
AcDbVertex
100
AcDb2dVertex
 10
7575622.13069233019
 20
5707966.14432409219
  0
VERTEX
  5
1ED
100
AcDbEntity
  8
KTOK_L_4
100
AcDbVertex
100
AcDb2dVertex
 10
7575622.78569233418
 20
5707973.50732406601
  0
SEQEND
  5
1EE
100
AcDbEntity
  8
KTOK_L_4
  0
POLYLINE
  5
1EF
100
AcDbEntity
  8
KTOK_L_4
  6
CONTINUOUS
 62
7
370
35
100
AcDb2dPolyline
 66
1
 70
128
  0
VERTEX
  5
1F0
100
AcDbEntity
  8
KTOK_L_4
100
AcDbVertex
100
AcDb2dVertex
 10
7575622.78569233418
 20
5707973.50732406601
  0
VERTEX
  5
1F1
100
AcDbEntity
  8
KTOK_L_4
100
AcDbVertex
100
AcDb2dVertex
 10
7575623.44069234096
 20
5707980.87032404076
  0
SEQEND
  5
1F2
100
AcDbEntity
  8
KTOK_L_4
  0
POLYLINE
  5
1F3
100
AcDbEntity
  8
KTOK_L_4
  6
CONTINUOUS
 62
7
370
35
100
AcDb2dPolyline
 66
1
 70
128
  0
VERTEX
  5
1F4
100
AcDbEntity
  8
KTOK_L_4
100
AcDbVertex
100
AcDb2dVertex
 10
7575610.34069222957
 20
5707833.61032455042
  0
VERTEX
  5
1F5
100
AcDbEntity
  8
KTOK_L_4
100
AcDbVertex
100
AcDb2dVertex
 10
7575610.99569223542
 20
5707840.97332452517
  0
SEQEND
  5
1F6
100
AcDbEntity
  8
KTOK_L_4
  0
POLYLINE
  5
1F7
100
AcDbEntity
  8
KTOK_L_4
  6
CONTINUOUS
 62
7
370
35
100
AcDb2dPolyline
 66
1
 70
128
  0
VERTEX
  5
1F8
100
AcDbEntity
  8
KTOK_L_4
100
AcDbVertex
100
AcDb2dVertex
 10
7575582.53000000026
 20
5707818.58000000007
  0
VERTEX
  5
1F9
100
AcDbEntity
  8
KTOK_L_4
100
AcDbVertex
100
AcDb2dVertex
 10
7575588.40900935046
 20
5707817.52339264005
  0
SEQEND
  5
1FA
100
AcDbEntity
  8
KTOK_L_4
  0
POLYLINE
  5
1FB
100
AcDbEntity
  8
KTOK_L_4
  6
CONTINUOUS
 62
7
370
35
100
AcDb2dPolyline
 66
1
 70
128
  0
VERTEX
  5
1FC
100
AcDbEntity
  8
KTOK_L_4
100
AcDbVertex
100
AcDb2dVertex
 10
7575598.29984553996
 20
5707815.74477802496
  0
VERTEX
  5
1FD
100
AcDbEntity
  8
KTOK_L_4
100
AcDbVertex
100
AcDb2dVertex
 10
7575603.71999999974
 20
5707814.76999999862
  0
SEQEND
  5
1FE
100
AcDbEntity
  8
KTOK_L_4
  0
POLYLINE
  5
1FF
100
AcDbEntity
  8
KTOK_L_4
  6
CONTINUOUS
 62
7
370
35
100
AcDb2dPolyline
 66
1
 70
128
  0
VERTEX
  5
200
100
AcDbEntity
  8
KTOK_L_4
100
AcDbVertex
100
AcDb2dVertex
 10
7575592.87969107926
 20
5707816.71955605131
  0
VERTEX
  5
201
100
AcDbEntity
  8
KTOK_L_4
100
AcDbVertex
100
AcDb2dVertex
 10
7575598.29984553996
 20
5707815.74477802496
  0
SEQEND
  5
202
100
AcDbEntity
  8
KTOK_L_4
  0
POLYLINE
  5
203
100
AcDbEntity
  8
KTOK_L_4
  6
CONTINUOUS
 62
7
370
35
100
AcDb2dPolyline
 66
1
 70
128
  0
VERTEX
  5
204
100
AcDbEntity
  8
KTOK_L_4
100
AcDbVertex
100
AcDb2dVertex
 10
7575603.0933333328
 20
5707807.22999999858
  0
VERTEX
  5
205
100
AcDbEntity
  8
KTOK_L_4
100
AcDbVertex
100
AcDb2dVertex
 10
7575602.46666666586
 20
5707799.68999999855
  0
SEQEND
  5
206
100
AcDbEntity
  8
KTOK_L_4
  0
POLYLINE
  5
207
100
AcDbEntity
  8
KTOK_L_4
  6
CONTINUOUS
 62
7
370
35
100
AcDb2dPolyline
 66
1
 70
128
  0
VERTEX
  5
208
100
AcDbEntity
  8
KTOK_L_4
100
AcDbVertex
100
AcDb2dVertex
 10
7575602.46666666586
 20
5707799.68999999855
  0
VERTEX
  5
209
100
AcDbEntity
  8
KTOK_L_4
100
AcDbVertex
100
AcDb2dVertex
 10
7575601.83999999892
 20
5707792.14999999944
  0
SEQEND
  5
20A
100
AcDbEntity
  8
KTOK_L_4
  0
POLYLINE
  5
20B
100
AcDbEntity
  8
KTOK_L_4
  6
CONTINUOUS
 62
7
370
35
100
AcDb2dPolyline
 66
1
 70
128
  0
VERTEX
  5
20C
100
AcDbEntity
  8
KTOK_L_4
100
AcDbVertex
100
AcDb2dVertex
 10
7575601.83999999985
 20
5707792.14999999944
  0
VERTEX
  5
20D
100
AcDbEntity
  8
KTOK_L_4
100
AcDbVertex
100
AcDb2dVertex
 10
7575601.21333333291
 20
5707784.6099999994
  0
SEQEND
  5
20E
100
AcDbEntity
  8
KTOK_L_4
  0
POLYLINE
  5
20F
100
AcDbEntity
  8
KTOK_L_4
  6
CONTINUOUS
 62
7
370
35
100
AcDb2dPolyline
 66
1
 70
128
  0
VERTEX
  5
210
100
AcDbEntity
  8
KTOK_L_4
100
AcDbVertex
100
AcDb2dVertex
 10
7575601.21333333291
 20
5707784.6099999994
  0
VERTEX
  5
211
100
AcDbEntity
  8
KTOK_L_4
100
AcDbVertex
100
AcDb2dVertex
 10
7575600.58666666597
 20
5707777.06999999937
  0
SEQEND
  5
212
100
AcDbEntity
  8
KTOK_L_4
  0
POLYLINE
  5
213
100
AcDbEntity
  8
KTOK_L_4
  6
CONTINUOUS
 62
7
370
35
100
AcDb2dPolyline
 66
1
 70
128
  0
VERTEX
  5
214
100
AcDbEntity
  8
KTOK_L_4
100
AcDbVertex
100
AcDb2dVertex
 10
7575600.58666666597
 20
5707777.0700000003
  0
VERTEX
  5
215
100
AcDbEntity
  8
KTOK_L_4
100
AcDbVertex
100
AcDb2dVertex
 10
7575599.95999999903
 20
5707769.53000000026
  0
SEQEND
  5
216
100
AcDbEntity
  8
KTOK_L_4
  0
POLYLINE
  5
217
100
AcDbEntity
  8
KTOK_L_4
  6
CONTINUOUS
 62
7
370
35
100
AcDb2dPolyline
 66
1
 70
128
  0
VERTEX
  5
218
100
AcDbEntity
  8
KTOK_L_4
100
AcDbVertex
100
AcDb2dVertex
 10
7575603.71999999974
 20
5707814.76999999862
  0
VERTEX
  5
219
100
AcDbEntity
  8
KTOK_L_4
100
AcDbVertex
100
AcDb2dVertex
 10
7575603.0933333328
 20
5707807.22999999858
  0
SEQEND
  5
21A
100
AcDbEntity
  8
KTOK_L_4
  0
POLYLINE
  5
21B
100
AcDbEntity
  8
KTOK_L_4
  6
CONTINUOUS
 62
7
370
35
100
AcDb2dPolyline
 66
1
 70
128
  0
VERTEX
  5
21C
100
AcDbEntity
  8
KTOK_L_4
100
AcDbVertex
100
AcDb2dVertex
 10
7575603.92775899079
 20
5707817.26173452102
  0
VERTEX
  5
21D
100
AcDbEntity
  8
KTOK_L_4
100
AcDbVertex
100
AcDb2dVertex
 10
7575603.71999999974
 20
5707814.76999999862
  0
SEQEND
  5
21E
100
AcDbEntity
  8
KTOK_L_4
  0
POLYLINE
  5
21F
100
AcDbEntity
  8
KTOK_L_4
  6
CONTINUOUS
 62
7
370
35
100
AcDb2dPolyline
 66
1
 70
128
  0
VERTEX
  5
220
100
AcDbEntity
  8
KTOK_L_4
100
AcDbVertex
100
AcDb2dVertex
 10
7575582.59999999963
 20
5707821.01999999862
  0
VERTEX
  5
221
100
AcDbEntity
  8
KTOK_L_4
100
AcDbVertex
100
AcDb2dVertex
 10
7575587.6799999997
 20
5707820.01999999862
  0
SEQEND
  5
222
100
AcDbEntity
  8
KTOK_L_4
  0
POLYLINE
  5
223
100
AcDbEntity
  8
KTOK_L_4
  6
CONTINUOUS
 62
7
370
35
100
AcDb2dPolyline
 66
1
 70
128
  0
VERTEX
  5
224
100
AcDbEntity
  8
KTOK_L_4
100
AcDbVertex
100
AcDb2dVertex
 10
7575587.6799999997
 20
5707820.01999999862
  0
VERTEX
  5
225
100
AcDbEntity
  8
KTOK_L_4
100
AcDbVertex
100
AcDb2dVertex
 10
7575588.40900935046
 20
5707817.52339264005
  0
SEQEND
  5
226
100
AcDbEntity
  8
KTOK_L_4
  0
POLYLINE
  5
227
100
AcDbEntity
  8
KTOK_L_4
  6
CONTINUOUS
 62
7
370
35
100
AcDb2dPolyline
 66
1
 70
128
  0
VERTEX
  5
228
100
AcDbEntity
  8
KTOK_L_4
100
AcDbVertex
100
AcDb2dVertex
 10
7575592.87969107926
 20
5707816.71955605131
  0
VERTEX
  5
229
100
AcDbEntity
  8
KTOK_L_4
100
AcDbVertex
100
AcDb2dVertex
 10
7575594.38999999966
 20
5707818.88999999966
  0
SEQEND
  5
22A
100
AcDbEntity
  8
KTOK_L_4
  0
POLYLINE
  5
22B
100
AcDbEntity
  8
KTOK_L_4
  6
CONTINUOUS
 62
7
370
35
100
AcDb2dPolyline
 66
1
 70
128
  0
VERTEX
  5
22C
100
AcDbEntity
  8
KTOK_L_4
100
AcDbVertex
100
AcDb2dVertex
 10
7575599.1588794943
 20
5707818.07586725988
  0
VERTEX
  5
22D
100
AcDbEntity
  8
KTOK_L_4
100
AcDbVertex
100
AcDb2dVertex
 10
7575603.92775899079
 20
5707817.26173452102
  0
SEQEND
  5
22E
100
AcDbEntity
  8
KTOK_L_4
  0
POLYLINE
  5
22F
100
AcDbEntity
  8
KTOK_L_4
  6
CONTINUOUS
 62
7
370
35
100
AcDb2dPolyline
 66
1
 70
128
  0
VERTEX
  5
230
100
AcDbEntity
  8
KTOK_L_4
100
AcDbVertex
100
AcDb2dVertex
 10
7575594.38999999966
 20
5707818.88999999966
  0
VERTEX
  5
231
100
AcDbEntity
  8
KTOK_L_4
100
AcDbVertex
100
AcDb2dVertex
 10
7575599.1588794943
 20
5707818.07586725988
  0
SEQEND
  5
232
100
AcDbEntity
  8
KTOK_L_4
  0
POLYLINE
  5
233
100
AcDbEntity
  8
KTOK_L_4
  6
CONTINUOUS
 62
7
370
35
100
AcDb2dPolyline
 66
1
 70
128
  0
VERTEX
  5
234
100
AcDbEntity
  8
KTOK_L_4
100
AcDbVertex
100
AcDb2dVertex
 10
7575593.75157336052
 20
5707834.24873465486
  0
VERTEX
  5
235
100
AcDbEntity
  8
KTOK_L_4
100
AcDbVertex
100
AcDb2dVertex
 10
7575599.78245453909
 20
5707833.22714476008
  0
SEQEND
  5
236
100
AcDbEntity
  8
KTOK_L_4
  0
POLYLINE
  5
237
100
AcDbEntity
  8
KTOK_L_4
  6
CONTINUOUS
 62
7
370
35
100
AcDb2dPolyline
 66
1
 70
128
  0
VERTEX
  5
238
100
AcDbEntity
  8
KTOK_L_4
100
AcDbVertex
100
AcDb2dVertex
 10
7575587.72069217917
 20
5707835.27032454964
  0
VERTEX
  5
239
100
AcDbEntity
  8
KTOK_L_4
100
AcDbVertex
100
AcDb2dVertex
 10
7575593.75157336052
 20
5707834.24873465486
  0
SEQEND
  5
23A
100
AcDbEntity
  8
KTOK_L_4
  0
POLYLINE
  5
23B
100
AcDbEntity
  8
KTOK_L_4
  6
CONTINUOUS
 62
7
370
35
100
AcDb2dPolyline
 66
1
 70
128
  0
VERTEX
  5
23C
100
AcDbEntity
  8
KTOK_L_4
100
AcDbVertex
100
AcDb2dVertex
 10
7575620.00086027663
 20
5707814.45490360633
  0
VERTEX
  5
23D
100
AcDbEntity
  8
KTOK_L_4
100
AcDbVertex
100
AcDb2dVertex
 10
7575611.96430963371
 20
5707815.85831906274
  0
SEQEND
  5
23E
100
AcDbEntity
  8
KTOK_L_4
  0
POLYLINE
  5
23F
100
AcDbEntity
  8
KTOK_L_4
  6
CONTINUOUS
 62
7
370
35
100
AcDb2dPolyline
 66
1
 70
128
  0
VERTEX
  5
240
100
AcDbEntity
  8
KTOK_L_4
100
AcDbVertex
100
AcDb2dVertex
 10
7575611.96430963371
 20
5707815.85831906274
  0
VERTEX
  5
241
100
AcDbEntity
  8
KTOK_L_4
100
AcDbVertex
100
AcDb2dVertex
 10
7575603.92775899079
 20
5707817.26173451915
  0
SEQEND
  5
242
100
AcDbEntity
  8
KTOK_L_4
  0
POLYLINE
  5
243
100
AcDbEntity
  8
KTOK_L_4
  6
CONTINUOUS
 62
7
370
35
100
AcDb2dPolyline
 66
1
 70
128
  0
VERTEX
  5
244
100
AcDbEntity
  8
KTOK_L_4
100
AcDbVertex
100
AcDb2dVertex
 10
7575628.03741091955
 20
5707813.05148814991
  0
VERTEX
  5
245
100
AcDbEntity
  8
KTOK_L_4
100
AcDbVertex
100
AcDb2dVertex
 10
7575620.00086027663
 20
5707814.45490360633
  0
SEQEND
  5
246
100
AcDbEntity
  8
KTOK_L_4
  0
POLYLINE
  5
247
100
AcDbEntity
  8
SUPE_L_2
  6
CONTINUOUS
 62
1
370
18
100
AcDb2dPolyline
 66
1
 70
128
  0
VERTEX
  5
248
100
AcDbEntity
  8
SUPE_L_2
100
AcDbVertex
100
AcDb2dVertex
 10
7575609.87999999989
 20
5707831.45999999996
  0
VERTEX
  5
249
100
AcDbEntity
  8
SUPE_L_2
100
AcDbVertex
100
AcDb2dVertex
 10
7575611.70999999996
 20
5707833.70000000019
  0
SEQEND
  5
24A
100
AcDbEntity
  8
SUPE_L_2
  0
POLYLINE
  5
24B
100
AcDbEntity
  8
SUPE_L_2
  6
CONTINUOUS
 62
1
370
18
100
AcDb2dPolyline
 66
1
 70
128
  0
VERTEX
  5
24C
100
AcDbEntity
  8
SUPE_L_2
100
AcDbVertex
100
AcDb2dVertex
 10
7575611.70999999996
 20
5707833.70000000019
  0
VERTEX
  5
24D
100
AcDbEntity
  8
SUPE_L_2
100
AcDbVertex
100
AcDb2dVertex
 10
7575613.51999999955
 20
5707855.34999999963
  0
SEQEND
  5
24E
100
AcDbEntity
  8
SUPE_L_2
  0
POLYLINE
  5
24F
100
AcDbEntity
  8
SUPE_L_2
  6
CONTINUOUS
 62
1
370
18
100
AcDb2dPolyline
 66
1
 70
128
  0
VERTEX
  5
250
100
AcDbEntity
  8
SUPE_L_2
100
AcDbVertex
100
AcDb2dVertex
 10
7575613.51999999955
 20
5707855.34999999963
  0
VERTEX
  5
251
100
AcDbEntity
  8
SUPE_L_2
100
AcDbVertex
100
AcDb2dVertex
 10
7575615.70000000019
 20
5707881.36000000034
  0
SEQEND
  5
252
100
AcDbEntity
  8
SUPE_L_2
  0
POLYLINE
  5
253
100
AcDbEntity
  8
SUPE_L_2
  6
CONTINUOUS
 62
1
370
18
100
AcDb2dPolyline
 66
1
 70
128
  0
VERTEX
  5
254
100
AcDbEntity
  8
SUPE_L_2
100
AcDbVertex
100
AcDb2dVertex
 10
7575609.49000000022
 20
5707825.03000000026
  0
VERTEX
  5
255
100
AcDbEntity
  8
SUPE_L_2
100
AcDbVertex
100
AcDb2dVertex
 10
7575609.5
 20
5707825.36000000034
  0
SEQEND
  5
256
100
AcDbEntity
  8
SUPE_L_2
  0
POLYLINE
  5
257
100
AcDbEntity
  8
SUPE_L_2
  6
CONTINUOUS
 62
1
370
18
100
AcDb2dPolyline
 66
1
 70
128
  0
VERTEX
  5
258
100
AcDbEntity
  8
SUPE_L_2
100
AcDbVertex
100
AcDb2dVertex
 10
7575609.5
 20
5707825.36000000034
  0
VERTEX
  5
259
100
AcDbEntity
  8
SUPE_L_2
100
AcDbVertex
100
AcDb2dVertex
 10
7575609.87999999989
 20
5707831.45999999996
  0
SEQEND
  5
25A
100
AcDbEntity
  8
SUPE_L_2
  0
POLYLINE
  5
25B
100
AcDbEntity
  8
SUPE_L_2
  6
CONTINUOUS
 62
1
370
18
100
AcDb2dPolyline
 66
1
 70
128
  0
VERTEX
  5
25C
100
AcDbEntity
  8
SUPE_L_2
100
AcDbVertex
100
AcDb2dVertex
 10
7575616.67864778358
 20
5707898.29155749455
  0
VERTEX
  5
25D
100
AcDbEntity
  8
SUPE_L_2
100
AcDbVertex
100
AcDb2dVertex
 10
7575616.19037744775
 20
5707893.31545539852
  0
SEQEND
  5
25E
100
AcDbEntity
  8
SUPE_L_2
  0
POLYLINE
  5
25F
100
AcDbEntity
  8
SUPE_L_2
  6
CONTINUOUS
 62
1
370
18
100
AcDb2dPolyline
 66
1
 70
128
  0
VERTEX
  5
260
100
AcDbEntity
  8
SUPE_L_2
100
AcDbVertex
100
AcDb2dVertex
 10
7575616.81982064713
 20
5707894.61017593183
  0
VERTEX
  5
261
100
AcDbEntity
  8
SUPE_L_2
100
AcDbVertex
100
AcDb2dVertex
 10
7575616.22455637064
 20
5707893.6637825463
  0
SEQEND
  5
262
100
AcDbEntity
  8
SUPE_L_2
  0
POLYLINE
  5
263
100
AcDbEntity
  8
SUPE_L_2
  6
CONTINUOUS
 62
1
370
18
100
AcDb2dPolyline
 66
1
 70
128
  0
VERTEX
  5
264
100
AcDbEntity
  8
SUPE_L_2
100
AcDbVertex
100
AcDb2dVertex
 10
7575615.82460022904
 20
5707894.70782999788
  0
VERTEX
  5
265
100
AcDbEntity
  8
SUPE_L_2
100
AcDbVertex
100
AcDb2dVertex
 10
7575616.22455637064
 20
5707893.6637825463
  0
SEQEND
  5
266
100
AcDbEntity
  8
SUPE_L_2
  0
POLYLINE
  5
267
100
AcDbEntity
  8
SUPE_L_2
  6
CONTINUOUS
 62
1
370
18
100
AcDb2dPolyline
 66
1
 70
128
  0
VERTEX
  5
268
100
AcDbEntity
  8
SUPE_L_2
100
AcDbVertex
100
AcDb2dVertex
 10
7575616.91747471504
 20
5707895.60539635085
  0
VERTEX
  5
269
100
AcDbEntity
  8
SUPE_L_2
100
AcDbVertex
100
AcDb2dVertex
 10
7575616.32221043855
 20
5707894.65900296438
  0
SEQEND
  5
26A
100
AcDbEntity
  8
SUPE_L_2
  0
POLYLINE
  5
26B
100
AcDbEntity
  8
SUPE_L_2
  6
CONTINUOUS
 62
1
370
18
100
AcDb2dPolyline
 66
1
 70
128
  0
VERTEX
  5
26C
100
AcDbEntity
  8
SUPE_L_2
100
AcDbVertex
100
AcDb2dVertex
 10
7575615.92225429602
 20
5707895.70305041783
  0
VERTEX
  5
26D
100
AcDbEntity
  8
SUPE_L_2
100
AcDbVertex
100
AcDb2dVertex
 10
7575616.32221043855
 20
5707894.65900296438
  0
SEQEND
  5
26E
100
AcDbEntity
  8
SUPE_L_2
  0
POLYLINE
  5
26F
100
AcDbEntity
  8
SUPE_L_2
  6
CONTINUOUS
 62
1
370
18
100
AcDb2dPolyline
 66
1
 70
128
  0
VERTEX
  5
270
100
AcDbEntity
  8
SUPE_L_2
100
AcDbVertex
100
AcDb2dVertex
 10
7575610.0026838528
 20
5707830.25490720198
  0
VERTEX
  5
271
100
AcDbEntity
  8
SUPE_L_2
100
AcDbVertex
100
AcDb2dVertex
 10
7575609.51441351697
 20
5707825.27880510502
  0
SEQEND
  5
272
100
AcDbEntity
  8
SUPE_L_2
  0
POLYLINE
  5
273
100
AcDbEntity
  8
SUPE_L_2
  6
CONTINUOUS
 62
1
370
18
100
AcDb2dPolyline
 66
1
 70
128
  0
VERTEX
  5
274
100
AcDbEntity
  8
SUPE_L_2
100
AcDbVertex
100
AcDb2dVertex
 10
7575609.96850492898
 20
5707829.90658005513
  0
VERTEX
  5
275
100
AcDbEntity
  8
SUPE_L_2
100
AcDbVertex
100
AcDb2dVertex
 10
7575610.36846107244
 20
5707828.86253260169
  0
SEQEND
  5
276
100
AcDbEntity
  8
SUPE_L_2
  0
POLYLINE
  5
277
100
AcDbEntity
  8
SUPE_L_2
  6
CONTINUOUS
 62
1
370
18
100
AcDb2dPolyline
 66
1
 70
128
  0
VERTEX
  5
278
100
AcDbEntity
  8
SUPE_L_2
100
AcDbVertex
100
AcDb2dVertex
 10
7575609.96850492898
 20
5707829.90658005513
  0
VERTEX
  5
279
100
AcDbEntity
  8
SUPE_L_2
100
AcDbVertex
100
AcDb2dVertex
 10
7575609.37324065249
 20
5707828.96018666867
  0
SEQEND
  5
27A
100
AcDbEntity
  8
SUPE_L_2
  0
POLYLINE
  5
27B
100
AcDbEntity
  8
SUPE_L_2
  6
CONTINUOUS
 62
1
370
18
100
AcDb2dPolyline
 66
1
 70
128
  0
VERTEX
  5
27C
100
AcDbEntity
  8
SUPE_L_2
100
AcDbVertex
100
AcDb2dVertex
 10
7575609.870850862
 20
5707828.91135963518
  0
VERTEX
  5
27D
100
AcDbEntity
  8
SUPE_L_2
100
AcDbVertex
100
AcDb2dVertex
 10
7575610.27080700546
 20
5707827.86731218267
  0
SEQEND
  5
27E
100
AcDbEntity
  8
SUPE_L_2
  0
POLYLINE
  5
27F
100
AcDbEntity
  8
SUPE_L_2
  6
CONTINUOUS
 62
1
370
18
100
AcDb2dPolyline
 66
1
 70
128
  0
VERTEX
  5
280
100
AcDbEntity
  8
SUPE_L_2
100
AcDbVertex
100
AcDb2dVertex
 10
7575609.870850862
 20
5707828.91135963518
  0
VERTEX
  5
281
100
AcDbEntity
  8
SUPE_L_2
100
AcDbVertex
100
AcDb2dVertex
 10
7575609.27558658551
 20
5707827.96496624965
  0
SEQEND
  5
282
100
AcDbEntity
  8
SUPE_L_2
  0
POLYLINE
  5
283
100
AcDbEntity
  8
SUPE_L_3
  6
CONTINUOUS
 62
1
370
18
100
AcDb2dPolyline
 66
1
 70
128
  0
VERTEX
  5
284
100
AcDbEntity
  8
SUPE_L_3
100
AcDbVertex
100
AcDb2dVertex
 10
7575604.5336489398
 20
5707863.55535135046
  0
VERTEX
  5
285
100
AcDbEntity
  8
SUPE_L_3
100
AcDbVertex
100
AcDb2dVertex
 10
7575592.4299999997
 20
5707864.53000000026
  0
SEQEND
  5
286
100
AcDbEntity
  8
SUPE_L_3
  0
POLYLINE
  5
287
100
AcDbEntity
  8
SUPE_L_3
  6
CONTINUOUS
 62
1
370
18
100
AcDb2dPolyline
 66
1
 70
128
  0
VERTEX
  5
288
100
AcDbEntity
  8
SUPE_L_3
100
AcDbVertex
100
AcDb2dVertex
 10
7575592.4299999997
 20
5707864.53000000026
  0
VERTEX
  5
289
100
AcDbEntity
  8
SUPE_L_3
100
AcDbVertex
100
AcDb2dVertex
 10
7575589.02772583999
 20
5707834.46357632894
  0
SEQEND
  5
28A
100
AcDbEntity
  8
SUPE_L_3
  0
POLYLINE
  5
28B
100
AcDbEntity
  8
SUPE_L_3
  6
CONTINUOUS
 62
1
370
18
100
AcDb2dPolyline
 66
1
 70
128
  0
VERTEX
  5
28C
100
AcDbEntity
  8
SUPE_L_3
100
AcDbVertex
100
AcDb2dVertex
 10
7575598.06357095018
 20
5707823.46981090028
  0
VERTEX
  5
28D
100
AcDbEntity
  8
SUPE_L_3
100
AcDbVertex
100
AcDb2dVertex
 10
7575598.58999999985
 20
5707824.58999999985
  0
SEQEND
  5
28E
100
AcDbEntity
  8
SUPE_L_3
  0
POLYLINE
  5
28F
100
AcDbEntity
  8
SUPE_L_3
  6
CONTINUOUS
 62
1
370
18
100
AcDb2dPolyline
 66
1
 70
128
  0
VERTEX
  5
290
100
AcDbEntity
  8
SUPE_L_3
100
AcDbVertex
100
AcDb2dVertex
 10
7575598.58999999985
 20
5707824.58999999985
  0
VERTEX
  5
291
100
AcDbEntity
  8
SUPE_L_3
100
AcDbVertex
100
AcDb2dVertex
 10
7575599.71097804885
 20
5707824.55566971097
  0
SEQEND
  5
292
100
AcDbEntity
  8
SUPE_L_3
  0
POLYLINE
  5
293
100
AcDbEntity
  8
SUPE_L_3
  6
CONTINUOUS
 62
1
370
18
100
AcDb2dPolyline
 66
1
 70
128
  0
VERTEX
  5
294
100
AcDbEntity
  8
SUPE_L_3
100
AcDbVertex
100
AcDb2dVertex
 10
7575599.71097804885
 20
5707824.55566971097
  0
VERTEX
  5
295
100
AcDbEntity
  8
SUPE_L_3
100
AcDbVertex
100
AcDb2dVertex
 10
7575599.16956167109
 20
5707825.66511583049
  0
SEQEND
  5
296
100
AcDbEntity
  8
SUPE_L_3
  0
POLYLINE
  5
297
100
AcDbEntity
  8
SUPE_L_3
  6
CONTINUOUS
 62
1
370
18
100
AcDb2dPolyline
 66
1
 70
128
  0
VERTEX
  5
298
100
AcDbEntity
  8
SUPE_L_3
100
AcDbVertex
100
AcDb2dVertex
 10
7575599.16956167109
 20
5707825.66511583049
  0
VERTEX
  5
299
100
AcDbEntity
  8
SUPE_L_3
100
AcDbVertex
100
AcDb2dVertex
 10
7575598.90797751118
 20
5707826.93491951004
  0
SEQEND
  5
29A
100
AcDbEntity
  8
SUPE_L_3
  0
POLYLINE
  5
29B
100
AcDbEntity
  8
SUPE_L_3
  6
CONTINUOUS
 62
1
370
18
100
AcDb2dPolyline
 66
1
 70
128
  0
VERTEX
  5
29C
100
AcDbEntity
  8
SUPE_L_3
100
AcDbVertex
100
AcDb2dVertex
 10
7575598.90797751118
 20
5707826.93491951004
  0
VERTEX
  5
29D
100
AcDbEntity
  8
SUPE_L_3
100
AcDbVertex
100
AcDb2dVertex
 10
7575588.58413173072
 20
5707829.20252322964
  0
SEQEND
  5
29E
100
AcDbEntity
  8
SUPE_L_3
  0
POLYLINE
  5
29F
100
AcDbEntity
  8
SUPE_L_3
  6
CONTINUOUS
 62
1
370
18
100
AcDb2dPolyline
 66
1
 70
128
  0
VERTEX
  5
2A0
100
AcDbEntity
  8
SUPE_L_3
100
AcDbVertex
100
AcDb2dVertex
 10
7575588.58413173072
 20
5707829.20252322964
  0
VERTEX
  5
2A1
100
AcDbEntity
  8
SUPE_L_3
100
AcDbVertex
100
AcDb2dVertex
 10
7575589.02772583999
 20
5707834.46357632894
  0
SEQEND
  5
2A2
100
AcDbEntity
  8
SUPE_L_3
  0
POLYLINE
  5
2A3
100
AcDbEntity
  8
SUPE_L_3
  6
CONTINUOUS
 62
1
370
18
100
AcDb2dPolyline
 66
1
 70
128
  0
VERTEX
  5
2A4
100
AcDbEntity
  8
SUPE_L_3
100
AcDbVertex
100
AcDb2dVertex
 10
7575631.922863991
 20
5707816.28683407046
  0
VERTEX
  5
2A5
100
AcDbEntity
  8
SUPE_L_3
100
AcDbVertex
100
AcDb2dVertex
 10
7575597.93416028935
 20
5707822.78180885874
  0
SEQEND
  5
2A6
100
AcDbEntity
  8
SUPE_L_3
  0
POLYLINE
  5
2A7
100
AcDbEntity
  8
SUPE_L_3
  6
CONTINUOUS
 62
1
370
18
100
AcDb2dPolyline
 66
1
 70
128
  0
VERTEX
  5
2A8
100
AcDbEntity
  8
SUPE_L_3
100
AcDbVertex
100
AcDb2dVertex
 10
7575597.93416028935
 20
5707822.78180885874
  0
VERTEX
  5
2A9
100
AcDbEntity
  8
SUPE_L_3
100
AcDbVertex
100
AcDb2dVertex
 10
7575598.06357095018
 20
5707823.46981090028
  0
SEQEND
  5
2AA
100
AcDbEntity
  8
SUPE_L_3
  0
POLYLINE
  5
2AB
100
AcDbEntity
  8
SUPE_L_3
  6
CONTINUOUS
 62
1
370
18
100
AcDb2dPolyline
 66
1
 70
128
  0
VERTEX
  5
2AC
100
AcDbEntity
  8
SUPE_L_3
100
AcDbVertex
100
AcDb2dVertex
 10
7575570.25999999978
 20
5707829.29999999981
  0
VERTEX
  5
2AD
100
AcDbEntity
  8
SUPE_L_3
100
AcDbVertex
100
AcDb2dVertex
 10
7575587.20000000019
 20
5707825.95000000019
  0
SEQEND
  5
2AE
100
AcDbEntity
  8
SUPE_L_3
  0
POLYLINE
  5
2AF
100
AcDbEntity
  8
SUPE_L_3
  6
CONTINUOUS
 62
1
370
18
100
AcDb2dPolyline
 66
1
 70
128
  0
VERTEX
  5
2B0
100
AcDbEntity
  8
SUPE_L_3
100
AcDbVertex
100
AcDb2dVertex
 10
7575587.20000000019
 20
5707825.95000000019
  0
VERTEX
  5
2B1
100
AcDbEntity
  8
SUPE_L_3
100
AcDbVertex
100
AcDb2dVertex
 10
7575607.11000000034
 20
5707822.26999999862
  0
SEQEND
  5
2B2
100
AcDbEntity
  8
SUPE_L_3
  0
POLYLINE
  5
2B3
100
AcDbEntity
  8
SUPE_L_3
  6
CONTINUOUS
 62
1
370
18
100
AcDb2dPolyline
 66
1
 70
128
  0
VERTEX
  5
2B4
100
AcDbEntity
  8
SUPE_L_3
100
AcDbVertex
100
AcDb2dVertex
 10
7575607.11000000034
 20
5707822.26999999862
  0
VERTEX
  5
2B5
100
AcDbEntity
  8
SUPE_L_3
100
AcDbVertex
100
AcDb2dVertex
 10
7575608.21999999974
 20
5707823.78000000026
  0
SEQEND
  5
2B6
100
AcDbEntity
  8
SUPE_L_3
  0
POLYLINE
  5
2B7
100
AcDbEntity
  8
SUPE_L_3
  6
CONTINUOUS
 62
1
370
18
100
AcDb2dPolyline
 66
1
 70
128
  0
VERTEX
  5
2B8
100
AcDbEntity
  8
SUPE_L_3
100
AcDbVertex
100
AcDb2dVertex
 10
7575608.21999999974
 20
5707823.78000000026
  0
VERTEX
  5
2B9
100
AcDbEntity
  8
SUPE_L_3
100
AcDbVertex
100
AcDb2dVertex
 10
7575608.96999999974
 20
5707823.95000000019
  0
SEQEND
  5
2BA
100
AcDbEntity
  8
SUPE_L_3
  0
POLYLINE
  5
2BB
100
AcDbEntity
  8
SUPE_L_3
  6
CONTINUOUS
 62
1
370
18
100
AcDb2dPolyline
 66
1
 70
128
  0
VERTEX
  5
2BC
100
AcDbEntity
  8
SUPE_L_3
100
AcDbVertex
100
AcDb2dVertex
 10
7575608.96999999974
 20
5707823.95000000019
  0
VERTEX
  5
2BD
100
AcDbEntity
  8
SUPE_L_3
100
AcDbVertex
100
AcDb2dVertex
 10
7575608.91000000015
 20
5707824.44000000041
  0
SEQEND
  5
2BE
100
AcDbEntity
  8
SUPE_L_3
  0
POLYLINE
  5
2BF
100
AcDbEntity
  8
SUPE_L_3
  6
CONTINUOUS
 62
1
370
18
100
AcDb2dPolyline
 66
1
 70
128
  0
VERTEX
  5
2C0
100
AcDbEntity
  8
SUPE_L_3
100
AcDbVertex
100
AcDb2dVertex
 10
7575608.91000000015
 20
5707824.44000000041
  0
VERTEX
  5
2C1
100
AcDbEntity
  8
SUPE_L_3
100
AcDbVertex
100
AcDb2dVertex
 10
7575609.23000000045
 20
5707825.11000000034
  0
SEQEND
  5
2C2
100
AcDbEntity
  8
SUPE_L_3
  0
POLYLINE
  5
2C3
100
AcDbEntity
  8
SUPE_L_3
  6
CONTINUOUS
 62
1
370
18
100
AcDb2dPolyline
 66
1
 70
128
  0
VERTEX
  5
2C4
100
AcDbEntity
  8
SUPE_L_3
100
AcDbVertex
100
AcDb2dVertex
 10
7575609.23000000045
 20
5707825.11000000034
  0
VERTEX
  5
2C5
100
AcDbEntity
  8
SUPE_L_3
100
AcDbVertex
100
AcDb2dVertex
 10
7575609.49000000022
 20
5707825.03000000026
  0
SEQEND
  5
2C6
100
AcDbEntity
  8
SUPE_L_3
  0
POLYLINE
  5
2C7
100
AcDbEntity
  8
SUPE_L_3
  6
CONTINUOUS
 62
1
370
18
100
AcDb2dPolyline
 66
1
 70
128
  0
VERTEX
  5
2C8
100
AcDbEntity
  8
SUPE_L_3
100
AcDbVertex
100
AcDb2dVertex
 10
7575587.20000000019
 20
5707825.95000000019
  0
VERTEX
  5
2C9
100
AcDbEntity
  8
SUPE_L_3
100
AcDbVertex
100
AcDb2dVertex
 10
7575587.34999999963
 20
5707828.24000000022
  0
SEQEND
  5
2CA
100
AcDbEntity
  8
SUPE_L_3
  0
POLYLINE
  5
2CB
100
AcDbEntity
  8
SUPE_L_3
  6
CONTINUOUS
 62
1
370
18
100
AcDb2dPolyline
 66
1
 70
128
  0
VERTEX
  5
2CC
100
AcDbEntity
  8
SUPE_L_3
100
AcDbVertex
100
AcDb2dVertex
 10
7575587.34999999963
 20
5707828.24000000022
  0
VERTEX
  5
2CD
100
AcDbEntity
  8
SUPE_L_3
100
AcDbVertex
100
AcDb2dVertex
 10
7575588.01587195974
 20
5707834.67676222976
  0
SEQEND
  5
2CE
100
AcDbEntity
  8
SUPE_L_3
  0
POLYLINE
  5
2CF
100
AcDbEntity
  8
SUPE_L_3
  6
CONTINUOUS
 62
1
370
18
100
AcDb2dPolyline
 66
1
 70
128
  0
VERTEX
  5
2D0
100
AcDbEntity
  8
SUPE_L_3
100
AcDbVertex
100
AcDb2dVertex
 10
7575608.96999999974
 20
5707823.95000000019
  0
VERTEX
  5
2D1
100
AcDbEntity
  8
SUPE_L_3
100
AcDbVertex
100
AcDb2dVertex
 10
7575609.08999999985
 20
5707823.25
  0
SEQEND
  5
2D2
100
AcDbEntity
  8
SUPE_L_3
  0
POLYLINE
  5
2D3
100
AcDbEntity
  8
SUPE_L_3
  6
CONTINUOUS
 62
1
370
18
100
AcDb2dPolyline
 66
1
 70
128
  0
VERTEX
  5
2D4
100
AcDbEntity
  8
SUPE_L_3
100
AcDbVertex
100
AcDb2dVertex
 10
7575609.08999999985
 20
5707823.25
  0
VERTEX
  5
2D5
100
AcDbEntity
  8
SUPE_L_3
100
AcDbVertex
100
AcDb2dVertex
 10
7575608.21999999974
 20
5707823.78000000026
  0
SEQEND
  5
2D6
100
AcDbEntity
  8
SUPE_L_3
  0
POLYLINE
  5
2D7
100
AcDbEntity
  8
SUPE_L_3
  6
CONTINUOUS
 62
1
370
18
100
AcDb2dPolyline
 66
1
 70
128
  0
VERTEX
  5
2D8
100
AcDbEntity
  8
SUPE_L_3
100
AcDbVertex
100
AcDb2dVertex
 10
7575608.21999999974
 20
5707823.78000000026
  0
VERTEX
  5
2D9
100
AcDbEntity
  8
SUPE_L_3
100
AcDbVertex
100
AcDb2dVertex
 10
7575607.25999999978
 20
5707817.70000000019
  0
SEQEND
  5
2DA
100
AcDbEntity
  8
SUPE_L_3
  0
POLYLINE
  5
2DB
100
AcDbEntity
  8
SUPE_L_3
  6
CONTINUOUS
 62
1
370
18
100
AcDb2dPolyline
 66
1
 70
128
  0
VERTEX
  5
2DC
100
AcDbEntity
  8
SUPE_L_3
100
AcDbVertex
100
AcDb2dVertex
 10
7575607.25999999978
 20
5707817.70000000019
  0
VERTEX
  5
2DD
100
AcDbEntity
  8
SUPE_L_3
100
AcDbVertex
100
AcDb2dVertex
 10
7575608.4299999997
 20
5707817.33000000007
  0
SEQEND
  5
2DE
100
AcDbEntity
  8
SUPE_L_3
  0
POLYLINE
  5
2DF
100
AcDbEntity
  8
SUPE_L_3
  6
CONTINUOUS
 62
1
370
18
100
AcDb2dPolyline
 66
1
 70
128
  0
VERTEX
  5
2E0
100
AcDbEntity
  8
SUPE_L_3
100
AcDbVertex
100
AcDb2dVertex
 10
7575608.4299999997
 20
5707817.33000000007
  0
VERTEX
  5
2E1
100
AcDbEntity
  8
SUPE_L_3
100
AcDbVertex
100
AcDb2dVertex
 10
7575628.09999999963
 20
5707813.83999999985
  0
SEQEND
  5
2E2
100
AcDbEntity
  8
SUPE_L_3
  0
POLYLINE
  5
2E3
100
AcDbEntity
  8
SUPE_L_3
  6
CONTINUOUS
 62
1
370
18
100
AcDb2dPolyline
 66
1
 70
128
  0
VERTEX
  5
2E4
100
AcDbEntity
  8
SUPE_L_3
100
AcDbVertex
100
AcDb2dVertex
 10
7575606.99000000022
 20
5707817.00999999978
  0
VERTEX
  5
2E5
100
AcDbEntity
  8
SUPE_L_3
100
AcDbVertex
100
AcDb2dVertex
 10
7575607.25999999978
 20
5707817.70000000019
  0
SEQEND
  5
2E6
100
AcDbEntity
  8
SUPE_L_3
  0
POLYLINE
  5
2E7
100
AcDbEntity
  8
SUPE_L_3
  6
CONTINUOUS
 62
1
370
18
100
AcDb2dPolyline
 66
1
 70
128
  0
VERTEX
  5
2E8
100
AcDbEntity
  8
SUPE_L_3
100
AcDbVertex
100
AcDb2dVertex
 10
7575604.96725380234
 20
5707868.12328055687
  0
VERTEX
  5
2E9
100
AcDbEntity
  8
SUPE_L_3
100
AcDbVertex
100
AcDb2dVertex
 10
7575604.5336489398
 20
5707863.55535135046
  0
SEQEND
  5
2EA
100
AcDbEntity
  8
SUPE_L_3
  0
POLYLINE
  5
2EB
100
AcDbEntity
  8
SUPG_L_2
  6
CONTINUOUS
 62
52
370
18
100
AcDb2dPolyline
 66
1
 70
128
  0
VERTEX
  5
2EC
100
AcDbEntity
  8
SUPG_L_2
100
AcDbVertex
100
AcDb2dVertex
 10
7575640.13999999966
 20
5707815.63999999966
  0
VERTEX
  5
2ED
100
AcDbEntity
  8
SUPG_L_2
100
AcDbVertex
100
AcDb2dVertex
 10
7575609.54999999981
 20
5707821.33999999985
  0
SEQEND
  5
2EE
100
AcDbEntity
  8
SUPG_L_2
  0
POLYLINE
  5
2EF
100
AcDbEntity
  8
SUPG_L_2
  6
CONTINUOUS
 62
52
370
18
100
AcDb2dPolyline
 66
1
 70
128
  0
VERTEX
  5
2F0
100
AcDbEntity
  8
SUPG_L_2
100
AcDbVertex
100
AcDb2dVertex
 10
7575609.54999999981
 20
5707821.33999999985
  0
VERTEX
  5
2F1
100
AcDbEntity
  8
SUPG_L_2
100
AcDbVertex
100
AcDb2dVertex
 10
7575599.15000000037
 20
5707823.45999999996
  0
SEQEND
  5
2F2
100
AcDbEntity
  8
SUPG_L_2
  0
POLYLINE
  5
2F3
100
AcDbEntity
  8
SUPG_L_2
  6
CONTINUOUS
 62
52
370
18
100
AcDb2dPolyline
 66
1
 70
128
  0
VERTEX
  5
2F4
100
AcDbEntity
  8
SUPG_L_2
100
AcDbVertex
100
AcDb2dVertex
 10
7575599.15000000037
 20
5707823.45999999996
  0
VERTEX
  5
2F5
100
AcDbEntity
  8
SUPG_L_2
100
AcDbVertex
100
AcDb2dVertex
 10
7575588.95000000019
 20
5707825.29999999981
  0
SEQEND
  5
2F6
100
AcDbEntity
  8
SUPG_L_2
  0
POLYLINE
  5
2F7
100
AcDbEntity
  8
SUPG_L_2
  6
CONTINUOUS
 62
52
370
18
100
AcDb2dPolyline
 66
1
 70
128
  0
VERTEX
  5
2F8
100
AcDbEntity
  8
SUPG_L_2
100
AcDbVertex
100
AcDb2dVertex
 10
7575588.95000000019
 20
5707825.29999999981
  0
VERTEX
  5
2F9
100
AcDbEntity
  8
SUPG_L_2
100
AcDbVertex
100
AcDb2dVertex
 10
7575570.45000000019
 20
5707828.5
  0
SEQEND
  5
2FA
100
AcDbEntity
  8
SUPG_L_2
  0
POLYLINE
  5
2FB
100
AcDbEntity
  8
SUPG_L_2
  6
CONTINUOUS
 62
52
370
18
100
AcDb2dPolyline
 66
1
 70
128
  0
VERTEX
  5
2FC
100
AcDbEntity
  8
SUPG_L_2
100
AcDbVertex
100
AcDb2dVertex
 10
7575588.95000000019
 20
5707825.29999999981
  0
VERTEX
  5
2FD
100
AcDbEntity
  8
SUPG_L_2
100
AcDbVertex
100
AcDb2dVertex
 10
7575590.33000000007
 20
5707834.3200000003
  0
SEQEND
  5
2FE
100
AcDbEntity
  8
SUPG_L_2
  0
POLYLINE
  5
2FF
100
AcDbEntity
  8
SUPG_L_2
  6
CONTINUOUS
 62
52
370
18
100
AcDb2dPolyline
 66
1
 70
128
  0
VERTEX
  5
300
100
AcDbEntity
  8
SUPG_L_2
100
AcDbVertex
100
AcDb2dVertex
 10
7575588.95000000019
 20
5707825.29999999981
  0
VERTEX
  5
301
100
AcDbEntity
  8
SUPG_L_2
100
AcDbVertex
100
AcDb2dVertex
 10
7575590.33000000007
 20
5707834.3200000003
  0
SEQEND
  5
302
100
AcDbEntity
  8
SUPG_L_2
  0
POLYLINE
  5
303
100
AcDbEntity
  8
SUPG_L_2
  6
CONTINUOUS
 62
52
370
18
100
AcDb2dPolyline
 66
1
 70
128
  0
VERTEX
  5
304
100
AcDbEntity
  8
SUPG_L_2
100
AcDbVertex
100
AcDb2dVertex
 10
7575463.4272123389
 20
5707850.83840110991
  0
VERTEX
  5
305
100
AcDbEntity
  8
SUPG_L_2
100
AcDbVertex
100
AcDb2dVertex
 10
7575481.44000000041
 20
5707848.08999999985
  0
SEQEND
  5
306
100
AcDbEntity
  8
SUPG_L_2
  0
POLYLINE
  5
307
100
AcDbEntity
  8
SUPG_L_2
  6
CONTINUOUS
 62
52
370
18
100
AcDb2dPolyline
 66
1
 70
128
  0
VERTEX
  5
308
100
AcDbEntity
  8
SUPG_L_2
100
AcDbVertex
100
AcDb2dVertex
 10
7575481.44000000041
 20
5707848.08999999985
  0
VERTEX
  5
309
100
AcDbEntity
  8
SUPG_L_2
100
AcDbVertex
100
AcDb2dVertex
 10
7575482.54000000004
 20
5707847.24000000022
  0
SEQEND
  5
30A
100
AcDbEntity
  8
SUPG_L_2
  0
POLYLINE
  5
30B
100
AcDbEntity
  8
SUPG_L_2
  6
CONTINUOUS
 62
52
370
18
100
AcDb2dPolyline
 66
1
 70
128
  0
VERTEX
  5
30C
100
AcDbEntity
  8
SUPG_L_2
100
AcDbVertex
100
AcDb2dVertex
 10
7575482.54000000004
 20
5707847.24000000022
  0
VERTEX
  5
30D
100
AcDbEntity
  8
SUPG_L_2
100
AcDbVertex
100
AcDb2dVertex
 10
7575483.9299999997
 20
5707846.79000000004
  0
SEQEND
  5
30E
100
AcDbEntity
  8
SUPG_L_2
  0
POLYLINE
  5
30F
100
AcDbEntity
  8
SUPG_L_2
  6
CONTINUOUS
 62
52
370
18
100
AcDb2dPolyline
 66
1
 70
128
  0
VERTEX
  5
310
100
AcDbEntity
  8
SUPG_L_2
100
AcDbVertex
100
AcDb2dVertex
 10
7575483.9299999997
 20
5707846.79000000004
  0
VERTEX
  5
311
100
AcDbEntity
  8
SUPG_L_2
100
AcDbVertex
100
AcDb2dVertex
 10
7575499.08600000013
 20
5707843.96300000045
  0
SEQEND
  5
312
100
AcDbEntity
  8
SUPG_L_2
  0
POLYLINE
  5
313
100
AcDbEntity
  8
SUPG_L_2
  6
CONTINUOUS
 62
52
370
18
100
AcDb2dPolyline
 66
1
 70
128
  0
VERTEX
  5
314
100
AcDbEntity
  8
SUPG_L_2
100
AcDbVertex
100
AcDb2dVertex
 10
7575499.08600000013
 20
5707843.96300000045
  0
VERTEX
  5
315
100
AcDbEntity
  8
SUPG_L_2
100
AcDbVertex
100
AcDb2dVertex
 10
7575529.95000000019
 20
5707838.20999999996
  0
SEQEND
  5
316
100
AcDbEntity
  8
SUPG_L_2
  0
POLYLINE
  5
317
100
AcDbEntity
  8
SUPG_L_2
  6
CONTINUOUS
 62
52
370
18
100
AcDb2dPolyline
 66
1
 70
128
  0
VERTEX
  5
318
100
AcDbEntity
  8
SUPG_L_2
100
AcDbVertex
100
AcDb2dVertex
 10
7575529.95000000019
 20
5707838.20999999996
  0
VERTEX
  5
319
100
AcDbEntity
  8
SUPG_L_2
100
AcDbVertex
100
AcDb2dVertex
 10
7575554.73000000045
 20
5707833.48000000045
  0
SEQEND
  5
31A
100
AcDbEntity
  8
SUPG_L_2
  0
POLYLINE
  5
31B
100
AcDbEntity
  8
SUPG_L_2
  6
CONTINUOUS
 62
52
370
18
100
AcDb2dPolyline
 66
1
 70
128
  0
VERTEX
  5
31C
100
AcDbEntity
  8
SUPG_L_2
100
AcDbVertex
100
AcDb2dVertex
 10
7575554.73000000045
 20
5707833.48000000045
  0
VERTEX
  5
31D
100
AcDbEntity
  8
SUPG_L_2
100
AcDbVertex
100
AcDb2dVertex
 10
7575565.46999999974
 20
5707831.51999999862
  0
SEQEND
  5
31E
100
AcDbEntity
  8
SUPG_L_2
  0
POLYLINE
  5
31F
100
AcDbEntity
  8
SUPG_L_2
  6
CONTINUOUS
 62
52
370
18
100
AcDb2dPolyline
 66
1
 70
128
  0
VERTEX
  5
320
100
AcDbEntity
  8
SUPG_L_2
100
AcDbVertex
100
AcDb2dVertex
 10
7575565.46999999974
 20
5707831.51999999862
  0
VERTEX
  5
321
100
AcDbEntity
  8
SUPG_L_2
100
AcDbVertex
100
AcDb2dVertex
 10
7575566.37000000011
 20
5707829.46999999974
  0
SEQEND
  5
322
100
AcDbEntity
  8
SUPG_L_2
  0
POLYLINE
  5
323
100
AcDbEntity
  8
SUPG_L_2
  6
CONTINUOUS
 62
52
370
18
100
AcDb2dPolyline
 66
1
 70
128
  0
VERTEX
  5
324
100
AcDbEntity
  8
SUPG_L_2
100
AcDbVertex
100
AcDb2dVertex
 10
7575566.37000000011
 20
5707829.46999999974
  0
VERTEX
  5
325
100
AcDbEntity
  8
SUPG_L_2
100
AcDbVertex
100
AcDb2dVertex
 10
7575570.45000000019
 20
5707828.5
  0
SEQEND
  5
326
100
AcDbEntity
  8
SUPG_L_2
  0
POLYLINE
  5
327
100
AcDbEntity
  8
SUPG_L_2
  6
CONTINUOUS
 62
52
370
18
100
AcDb2dPolyline
 66
1
 70
128
  0
VERTEX
  5
328
100
AcDbEntity
  8
SUPG_L_2
100
AcDbVertex
100
AcDb2dVertex
 10
7575570.45000000019
 20
5707828.5
  0
VERTEX
  5
329
100
AcDbEntity
  8
SUPG_L_2
100
AcDbVertex
100
AcDb2dVertex
 10
7575588.95000000019
 20
5707825.29999999981
  0
SEQEND
  5
32A
100
AcDbEntity
  8
SUPG_L_2
  0
POLYLINE
  5
32B
100
AcDbEntity
  8
SUPG_L_2
  6
CONTINUOUS
 62
52
370
18
100
AcDb2dPolyline
 66
1
 70
128
  0
VERTEX
  5
32C
100
AcDbEntity
  8
SUPG_L_2
100
AcDbVertex
100
AcDb2dVertex
 10
7575588.95000000019
 20
5707825.29999999981
  0
VERTEX
  5
32D
100
AcDbEntity
  8
SUPG_L_2
100
AcDbVertex
100
AcDb2dVertex
 10
7575599.15000000037
 20
5707823.45999999996
  0
SEQEND
  5
32E
100
AcDbEntity
  8
SUPG_L_2
  0
POLYLINE
  5
32F
100
AcDbEntity
  8
SUPG_L_2
  6
CONTINUOUS
 62
52
370
18
100
AcDb2dPolyline
 66
1
 70
128
  0
VERTEX
  5
330
100
AcDbEntity
  8
SUPG_L_2
100
AcDbVertex
100
AcDb2dVertex
 10
7575599.15000000037
 20
5707823.45999999996
  0
VERTEX
  5
331
100
AcDbEntity
  8
SUPG_L_2
100
AcDbVertex
100
AcDb2dVertex
 10
7575609.54999999981
 20
5707821.33999999985
  0
SEQEND
  5
332
100
AcDbEntity
  8
SUPG_L_2
  0
POLYLINE
  5
333
100
AcDbEntity
  8
SUPG_L_2
  6
CONTINUOUS
 62
52
370
18
100
AcDb2dPolyline
 66
1
 70
128
  0
VERTEX
  5
334
100
AcDbEntity
  8
SUPG_L_2
100
AcDbVertex
100
AcDb2dVertex
 10
7575609.54999999981
 20
5707821.33999999985
  0
VERTEX
  5
335
100
AcDbEntity
  8
SUPG_L_2
100
AcDbVertex
100
AcDb2dVertex
 10
7575640.13999999966
 20
5707815.63999999966
  0
SEQEND
  5
336
100
AcDbEntity
  8
SUPG_L_2
  0
POLYLINE
  5
337
100
AcDbEntity
  8
SUPG_L_2
  6
CONTINUOUS
 62
52
370
18
100
AcDb2dPolyline
 66
1
 70
128
  0
VERTEX
  5
338
100
AcDbEntity
  8
SUPG_L_2
100
AcDbVertex
100
AcDb2dVertex
 10
7575640.13999999966
 20
5707815.63999999966
  0
VERTEX
  5
339
100
AcDbEntity
  8
SUPG_L_2
100
AcDbVertex
100
AcDb2dVertex
 10
7575656.50999999978
 20
5707812.80999999959
  0
SEQEND
  5
33A
100
AcDbEntity
  8
SUPG_L_2
  0
POLYLINE
  5
33B
100
AcDbEntity
  8
SUPG_L_2
  6
CONTINUOUS
 62
52
370
18
100
AcDb2dPolyline
 66
1
 70
128
  0
VERTEX
  5
33C
100
AcDbEntity
  8
SUPG_L_2
100
AcDbVertex
100
AcDb2dVertex
 10
7575656.50999999978
 20
5707812.80999999959
  0
VERTEX
  5
33D
100
AcDbEntity
  8
SUPG_L_2
100
AcDbVertex
100
AcDb2dVertex
 10
7575657.5700000003
 20
5707813.48000000045
  0
SEQEND
  5
33E
100
AcDbEntity
  8
SUPG_L_2
  0
POLYLINE
  5
33F
100
AcDbEntity
  8
SUPG_L_2
  6
CONTINUOUS
 62
52
370
18
100
AcDb2dPolyline
 66
1
 70
128
  0
VERTEX
  5
340
100
AcDbEntity
  8
SUPG_L_2
100
AcDbVertex
100
AcDb2dVertex
 10
7575657.5700000003
 20
5707813.48000000045
  0
VERTEX
  5
341
100
AcDbEntity
  8
SUPG_L_2
100
AcDbVertex
100
AcDb2dVertex
 10
7575676.44000000041
 20
5707810.12000000011
  0
SEQEND
  5
342
100
AcDbEntity
  8
SUPG_L_2
  0
POLYLINE
  5
343
100
AcDbEntity
  8
SUPG_L_2
  6
CONTINUOUS
 62
52
370
18
100
AcDb2dPolyline
 66
1
 70
128
  0
VERTEX
  5
344
100
AcDbEntity
  8
SUPG_L_2
100
AcDbVertex
100
AcDb2dVertex
 10
7575676.44000000041
 20
5707810.12000000011
  0
VERTEX
  5
345
100
AcDbEntity
  8
SUPG_L_2
100
AcDbVertex
100
AcDb2dVertex
 10
7575685.90000000037
 20
5707808.44000000041
  0
SEQEND
  5
346
100
AcDbEntity
  8
SUPG_L_2
  0
POLYLINE
  5
347
100
AcDbEntity
  8
SUPG_L_2
  6
CONTINUOUS
 62
52
370
18
100
AcDb2dPolyline
 66
1
 70
128
  0
VERTEX
  5
348
100
AcDbEntity
  8
SUPG_L_2
100
AcDbVertex
100
AcDb2dVertex
 10
7575685.90000000037
 20
5707808.44000000041
  0
VERTEX
  5
349
100
AcDbEntity
  8
SUPG_L_2
100
AcDbVertex
100
AcDb2dVertex
 10
7575698.91999999993
 20
5707805.99000000022
  0
SEQEND
  5
34A
100
AcDbEntity
  8
SUPG_L_2
  0
POLYLINE
  5
34B
100
AcDbEntity
  8
SUPG_L_2
  6
CONTINUOUS
 62
52
370
18
100
AcDb2dPolyline
 66
1
 70
128
  0
VERTEX
  5
34C
100
AcDbEntity
  8
SUPG_L_2
100
AcDbVertex
100
AcDb2dVertex
 10
7575698.91999999993
 20
5707805.99000000022
  0
VERTEX
  5
34D
100
AcDbEntity
  8
SUPG_L_2
100
AcDbVertex
100
AcDb2dVertex
 10
7575699.90000000037
 20
5707804.84999999963
  0
SEQEND
  5
34E
100
AcDbEntity
  8
SUPG_L_2
  0
POLYLINE
  5
34F
100
AcDbEntity
  8
SUPG_L_2
  6
CONTINUOUS
 62
52
370
18
100
AcDb2dPolyline
 66
1
 70
128
  0
VERTEX
  5
350
100
AcDbEntity
  8
SUPG_L_2
100
AcDbVertex
100
AcDb2dVertex
 10
7575699.90000000037
 20
5707804.84999999963
  0
VERTEX
  5
351
100
AcDbEntity
  8
SUPG_L_2
100
AcDbVertex
100
AcDb2dVertex
 10
7575715.38999999966
 20
5707802.09999999963
  0
SEQEND
  5
352
100
AcDbEntity
  8
SUPG_L_2
  0
POLYLINE
  5
353
100
AcDbEntity
  8
SUPG_L_2
  6
CONTINUOUS
 62
52
370
18
100
AcDb2dPolyline
 66
1
 70
128
  0
VERTEX
  5
354
100
AcDbEntity
  8
SUPG_L_2
100
AcDbVertex
100
AcDb2dVertex
 10
7575715.38999999966
 20
5707802.09999999963
  0
VERTEX
  5
355
100
AcDbEntity
  8
SUPG_L_2
100
AcDbVertex
100
AcDb2dVertex
 10
7575765.37999999989
 20
5707792.98000000045
  0
SEQEND
  5
356
100
AcDbEntity
  8
SUPG_L_2
  0
POLYLINE
  5
357
100
AcDbEntity
  8
SUPG_L_2
  6
CONTINUOUS
 62
52
370
18
100
AcDb2dPolyline
 66
1
 70
128
  0
VERTEX
  5
358
100
AcDbEntity
  8
SUPG_L_2
100
AcDbVertex
100
AcDb2dVertex
 10
7575765.37999999989
 20
5707792.98000000045
  0
VERTEX
  5
359
100
AcDbEntity
  8
SUPG_L_2
100
AcDbVertex
100
AcDb2dVertex
 10
7575767.45999999996
 20
5707791.98000000045
  0
SEQEND
  5
35A
100
AcDbEntity
  8
SUPG_L_2
  0
POLYLINE
  5
35B
100
AcDbEntity
  8
SUPG_L_3
  6
CONTINUOUS
 62
52
370
18
100
AcDb2dPolyline
 66
1
 70
128
  0
VERTEX
  5
35C
100
AcDbEntity
  8
SUPG_L_3
100
AcDbVertex
100
AcDb2dVertex
 10
7575590.5150000006
 20
5707834.25
  0
VERTEX
  5
35D
100
AcDbEntity
  8
SUPG_L_3
100
AcDbVertex
100
AcDb2dVertex
 10
7575590.63999999966
 20
5707834.84999999963
  0
SEQEND
  5
35E
100
AcDbEntity
  8
SUPG_L_3
  0
POLYLINE
  5
35F
100
AcDbEntity
  8
SUPG_L_3
  6
CONTINUOUS
 62
52
370
18
100
AcDb2dPolyline
 66
1
 70
128
  0
VERTEX
  5
360
100
AcDbEntity
  8
SUPG_L_3
100
AcDbVertex
100
AcDb2dVertex
 10
7575590.63999999966
 20
5707834.84999999963
  0
VERTEX
  5
361
100
AcDbEntity
  8
SUPG_L_3
100
AcDbVertex
100
AcDb2dVertex
 10
7575592.08000000007
 20
5707852.61000000034
  0
SEQEND
  5
362
100
AcDbEntity
  8
SUPG_L_3
  0
POLYLINE
  5
363
100
AcDbEntity
  8
SUPG_L_3
  6
CONTINUOUS
 62
52
370
18
100
AcDb2dPolyline
 66
1
 70
128
  0
VERTEX
  5
364
100
AcDbEntity
  8
SUPG_L_3
100
AcDbVertex
100
AcDb2dVertex
 10
7575592.08000000007
 20
5707852.61000000034
  0
VERTEX
  5
365
100
AcDbEntity
  8
SUPG_L_3
100
AcDbVertex
100
AcDb2dVertex
 10
7575593.33000000007
 20
5707868.41999999993
  0
SEQEND
  5
366
100
AcDbEntity
  8
SUPG_L_3
  0
POLYLINE
  5
367
100
AcDbEntity
  8
SUPG_L_3
  6
CONTINUOUS
 62
52
370
18
100
AcDb2dPolyline
 66
1
 70
128
  0
VERTEX
  5
368
100
AcDbEntity
  8
SUPG_L_3
100
AcDbVertex
100
AcDb2dVertex
 10
7575593.33000000007
 20
5707868.41999999993
  0
VERTEX
  5
369
100
AcDbEntity
  8
SUPG_L_3
100
AcDbVertex
100
AcDb2dVertex
 10
7575594.20999999996
 20
5707877.29000000004
  0
SEQEND
  5
36A
100
AcDbEntity
  8
SUPG_L_3
  0
POLYLINE
  5
36B
100
AcDbEntity
  8
SUPG_L_3
  6
CONTINUOUS
 62
52
370
18
100
AcDb2dPolyline
 66
1
 70
128
  0
VERTEX
  5
36C
100
AcDbEntity
  8
SUPG_L_3
100
AcDbVertex
100
AcDb2dVertex
 10
7575594.20999999996
 20
5707877.29000000004
  0
VERTEX
  5
36D
100
AcDbEntity
  8
SUPG_L_3
100
AcDbVertex
100
AcDb2dVertex
 10
7575595.13999999966
 20
5707877.91000000015
  0
SEQEND
  5
36E
100
AcDbEntity
  8
SUPG_L_3
  0
POLYLINE
  5
36F
100
AcDbEntity
  8
SUPG_L_3
  6
CONTINUOUS
 62
52
370
18
100
AcDb2dPolyline
 66
1
 70
128
  0
VERTEX
  5
370
100
AcDbEntity
  8
SUPG_L_3
100
AcDbVertex
100
AcDb2dVertex
 10
7575595.13999999966
 20
5707877.91000000015
  0
VERTEX
  5
371
100
AcDbEntity
  8
SUPG_L_3
100
AcDbVertex
100
AcDb2dVertex
 10
7575602.90642965958
 20
5707876.60068089981
  0
SEQEND
  5
372
100
AcDbEntity
  8
SUPG_L_3
  0
POLYLINE
  5
373
100
AcDbEntity
  8
SUPG_L_3
  6
CONTINUOUS
 62
52
370
18
100
AcDb2dPolyline
 66
1
 70
128
  0
VERTEX
  5
374
100
AcDbEntity
  8
SUPG_L_3
100
AcDbVertex
100
AcDb2dVertex
 10
7575602.90642965958
 20
5707876.60068089981
  0
VERTEX
  5
375
100
AcDbEntity
  8
SUPG_L_3
100
AcDbVertex
100
AcDb2dVertex
 10
7575602.82963366155
 20
5707875.75731538516
  0
SEQEND
  5
376
100
AcDbEntity
  8
SUPG_L_3
  0
POLYLINE
  5
377
100
AcDbEntity
  8
SUPG_L_3
  6
CONTINUOUS
 62
52
370
18
100
AcDb2dPolyline
 66
1
 70
128
  0
VERTEX
  5
378
100
AcDbEntity
  8
SUPG_L_3
100
AcDbVertex
100
AcDb2dVertex
 10
7575590.5150000006
 20
5707834.25
  0
VERTEX
  5
379
100
AcDbEntity
  8
SUPG_L_3
100
AcDbVertex
100
AcDb2dVertex
 10
7575590.63999999966
 20
5707834.84999999963
  0
SEQEND
  5
37A
100
AcDbEntity
  8
SUPG_L_3
  0
POLYLINE
  5
37B
100
AcDbEntity
  8
SUPG_L_3
  6
CONTINUOUS
 62
52
370
18
100
AcDb2dPolyline
 66
1
 70
128
  0
VERTEX
  5
37C
100
AcDbEntity
  8
SUPG_L_3
100
AcDbVertex
100
AcDb2dVertex
 10
7575590.63999999966
 20
5707834.84999999963
  0
VERTEX
  5
37D
100
AcDbEntity
  8
SUPG_L_3
100
AcDbVertex
100
AcDb2dVertex
 10
7575592.08000000007
 20
5707852.61000000034
  0
SEQEND
  5
37E
100
AcDbEntity
  8
SUPG_L_3
  0
POLYLINE
  5
37F
100
AcDbEntity
  8
SUPG_L_3
  6
CONTINUOUS
 62
52
370
18
100
AcDb2dPolyline
 66
1
 70
128
  0
VERTEX
  5
380
100
AcDbEntity
  8
SUPG_L_3
100
AcDbVertex
100
AcDb2dVertex
 10
7575592.08000000007
 20
5707852.61000000034
  0
VERTEX
  5
381
100
AcDbEntity
  8
SUPG_L_3
100
AcDbVertex
100
AcDb2dVertex
 10
7575593.33000000007
 20
5707868.41999999993
  0
SEQEND
  5
382
100
AcDbEntity
  8
SUPG_L_3
  0
POLYLINE
  5
383
100
AcDbEntity
  8
SUPG_L_3
  6
CONTINUOUS
 62
52
370
18
100
AcDb2dPolyline
 66
1
 70
128
  0
VERTEX
  5
384
100
AcDbEntity
  8
SUPG_L_3
100
AcDbVertex
100
AcDb2dVertex
 10
7575593.33000000007
 20
5707868.41999999993
  0
VERTEX
  5
385
100
AcDbEntity
  8
SUPG_L_3
100
AcDbVertex
100
AcDb2dVertex
 10
7575594.20999999996
 20
5707877.29000000004
  0
SEQEND
  5
386
100
AcDbEntity
  8
SUPG_L_3
  0
POLYLINE
  5
387
100
AcDbEntity
  8
SUPG_L_3
  6
CONTINUOUS
 62
52
370
18
100
AcDb2dPolyline
 66
1
 70
128
  0
VERTEX
  5
388
100
AcDbEntity
  8
SUPG_L_3
100
AcDbVertex
100
AcDb2dVertex
 10
7575594.20999999996
 20
5707877.29000000004
  0
VERTEX
  5
389
100
AcDbEntity
  8
SUPG_L_3
100
AcDbVertex
100
AcDb2dVertex
 10
7575595.13999999966
 20
5707877.91000000015
  0
SEQEND
  5
38A
100
AcDbEntity
  8
SUPG_L_3
  0
POLYLINE
  5
38B
100
AcDbEntity
  8
SUPG_L_3
  6
CONTINUOUS
 62
52
370
18
100
AcDb2dPolyline
 66
1
 70
128
  0
VERTEX
  5
38C
100
AcDbEntity
  8
SUPG_L_3
100
AcDbVertex
100
AcDb2dVertex
 10
7575595.13999999966
 20
5707877.91000000015
  0
VERTEX
  5
38D
100
AcDbEntity
  8
SUPG_L_3
100
AcDbVertex
100
AcDb2dVertex
 10
7575602.90642965958
 20
5707876.60068089981
  0
SEQEND
  5
38E
100
AcDbEntity
  8
SUPG_L_3
  0
POLYLINE
  5
38F
100
AcDbEntity
  8
SUPG_L_3
  6
CONTINUOUS
 62
52
370
18
100
AcDb2dPolyline
 66
1
 70
128
  0
VERTEX
  5
390
100
AcDbEntity
  8
SUPG_L_3
100
AcDbVertex
100
AcDb2dVertex
 10
7575602.90642965958
 20
5707876.60068089981
  0
VERTEX
  5
391
100
AcDbEntity
  8
SUPG_L_3
100
AcDbVertex
100
AcDb2dVertex
 10
7575602.82963366155
 20
5707875.75731538516
  0
SEQEND
  5
392
100
AcDbEntity
  8
SUPG_L_3
  0
POLYLINE
  5
393
100
AcDbEntity
  8
SUPK_L_1
  6
CONTINUOUS
 62
34
370
18
100
AcDb2dPolyline
 66
1
 70
128
  0
VERTEX
  5
394
100
AcDbEntity
  8
SUPK_L_1
100
AcDbVertex
100
AcDb2dVertex
 10
7575609.10794463102
 20
5707868.59143074881
  0
VERTEX
  5
395
100
AcDbEntity
  8
SUPK_L_1
100
AcDbVertex
100
AcDb2dVertex
 10
7575609.86356593017
 20
5707859.13998990133
  0
SEQEND
  5
396
100
AcDbEntity
  8
SUPK_L_1
  0
POLYLINE
  5
397
100
AcDbEntity
  8
SUPK_L_1
  6
CONTINUOUS
 62
34
370
18
100
AcDb2dPolyline
 66
1
 70
128
  0
VERTEX
  5
398
100
AcDbEntity
  8
SUPK_L_1
100
AcDbVertex
100
AcDb2dVertex
 10
7575608.32080117147
 20
5707868.82593030948
  0
VERTEX
  5
399
100
AcDbEntity
  8
SUPK_L_1
100
AcDbVertex
100
AcDb2dVertex
 10
7575609.10794463102
 20
5707868.59143074881
  0
SEQEND
  5
39A
100
AcDbEntity
  8
SUPK_L_1
  0
POLYLINE
  5
39B
100
AcDbEntity
  8
SUPK_L_1
  6
CONTINUOUS
 62
34
370
18
100
AcDb2dPolyline
 66
1
 70
128
  0
VERTEX
  5
39C
100
AcDbEntity
  8
SUPK_L_1
100
AcDbVertex
100
AcDb2dVertex
 10
7575609.86356593017
 20
5707859.13998990133
  0
VERTEX
  5
39D
100
AcDbEntity
  8
SUPK_L_1
100
AcDbVertex
100
AcDb2dVertex
 10
7575609.10794463102
 20
5707868.59143074881
  0
SEQEND
  5
39E
100
AcDbEntity
  8
SUPK_L_1
  0
POLYLINE
  5
39F
100
AcDbEntity
  8
SUPK_L_1
  6
CONTINUOUS
 62
34
370
18
100
AcDb2dPolyline
 66
1
 70
128
  0
VERTEX
  5
3A0
100
AcDbEntity
  8
SUPK_L_1
100
AcDbVertex
100
AcDb2dVertex
 10
7575609.10794463102
 20
5707868.59143074881
  0
VERTEX
  5
3A1
100
AcDbEntity
  8
SUPK_L_1
100
AcDbVertex
100
AcDb2dVertex
 10
7575608.32080117147
 20
5707868.82593030948
  0
SEQEND
  5
3A2
100
AcDbEntity
  8
SUPK_L_1
  0
POLYLINE
  5
3A3
100
AcDbEntity
  8
SUPK_L_4
  6
CONTINUOUS
 62
34
370
18
100
AcDb2dPolyline
 66
1
 70
128
  0
VERTEX
  5
3A4
100
AcDbEntity
  8
SUPK_L_4
100
AcDbVertex
100
AcDb2dVertex
 10
7575645.46029027086
 20
5707816.35511043947
  0
VERTEX
  5
3A5
100
AcDbEntity
  8
SUPK_L_4
100
AcDbVertex
100
AcDb2dVertex
 10
7575608.09999999963
 20
5707823.25999999978
  0
SEQEND
  5
3A6
100
AcDbEntity
  8
SUPK_L_4
  0
POLYLINE
  5
3A7
100
AcDbEntity
  8
SUPP_L_2
  6
CONTINUOUS
 62
1
370
18
100
AcDb2dPolyline
 66
1
 70
128
  0
VERTEX
  5
3A8
100
AcDbEntity
  8
SUPP_L_2
100
AcDbVertex
100
AcDb2dVertex
 10
7575585.81195708923
 20
5707803.33295451012
  0
VERTEX
  5
3A9
100
AcDbEntity
  8
SUPP_L_2
100
AcDbVertex
100
AcDb2dVertex
 10
7575587.22942459024
 20
5707820.7076386502
  0
SEQEND
  5
3AA
100
AcDbEntity
  8
SUPP_L_2
  0
POLYLINE
  5
3AB
100
AcDbEntity
  8
SUPP_L_2
  6
CONTINUOUS
 62
1
370
18
100
AcDb2dPolyline
 66
1
 70
128
  0
VERTEX
  5
3AC
100
AcDbEntity
  8
SUPP_L_2
100
AcDbVertex
100
AcDb2dVertex
 10
7575587.22942459024
 20
5707820.7076386502
  0
VERTEX
  5
3AD
100
AcDbEntity
  8
SUPP_L_2
100
AcDbVertex
100
AcDb2dVertex
 10
7575601.69120131992
 20
5707818.16416482907
  0
SEQEND
  5
3AE
100
AcDbEntity
  8
SUPP_L_2
  0
POLYLINE
  5
3AF
100
AcDbEntity
  8
SUPP_L_2
  6
CONTINUOUS
 62
1
370
18
100
AcDb2dPolyline
 66
1
 70
128
  0
VERTEX
  5
3B0
100
AcDbEntity
  8
SUPP_L_2
100
AcDbVertex
100
AcDb2dVertex
 10
7575601.69120131992
 20
5707818.16416482907
  0
VERTEX
  5
3B1
100
AcDbEntity
  8
SUPP_L_2
100
AcDbVertex
100
AcDb2dVertex
 10
7575602.71850288007
 20
5707823.08168806974
  0
SEQEND
  5
3B2
100
AcDbEntity
  8
SUPP_L_2
  0
POLYLINE
  5
3B3
100
AcDbEntity
  8
SUPP_L_4
  6
CONTINUOUS
 62
34
370
18
100
AcDb2dPolyline
 66
1
 70
128
  0
VERTEX
  5
3B4
100
AcDbEntity
  8
SUPP_L_4
100
AcDbVertex
100
AcDb2dVertex
 10
7575604.90933808684
 20
5707823.75633450598
  0
VERTEX
  5
3B5
100
AcDbEntity
  8
SUPP_L_4
100
AcDbVertex
100
AcDb2dVertex
 10
7575606.2552091945
 20
5707834.16605177056
  0
SEQEND
  5
3B6
100
AcDbEntity
  8
SUPP_L_4
  0
POLYLINE
  5
3B7
100
AcDbEntity
  8
SUPP_L_4
  6
CONTINUOUS
 62
34
370
18
100
AcDb2dPolyline
 66
1
 70
128
  0
VERTEX
  5
3B8
100
AcDbEntity
  8
SUPP_L_4
100
AcDbVertex
100
AcDb2dVertex
 10
7575606.2552091945
 20
5707834.16605177056
  0
VERTEX
  5
3B9
100
AcDbEntity
  8
SUPP_L_4
100
AcDbVertex
100
AcDb2dVertex
 10
7575608.40109603107
 20
5707850.76353660505
  0
SEQEND
  5
3BA
100
AcDbEntity
  8
SUPP_L_4
  0
POLYLINE
  5
3BB
100
AcDbEntity
  8
SUPP_L_4
  6
CONTINUOUS
 62
34
370
18
100
AcDb2dPolyline
 66
1
 70
128
  0
VERTEX
  5
3BC
100
AcDbEntity
  8
SUPP_L_4
100
AcDbVertex
100
AcDb2dVertex
 10
7575608.06741608214
 20
5707823.17885791603
  0
VERTEX
  5
3BD
100
AcDbEntity
  8
SUPP_L_4
100
AcDbVertex
100
AcDb2dVertex
 10
7575604.90933808684
 20
5707823.75633450598
  0
SEQEND
  5
3BE
100
AcDbEntity
  8
SUPP_L_4
  0
POLYLINE
  5
3BF
100
AcDbEntity
  8
SUPP_L_4
  6
CONTINUOUS
 62
34
370
18
100
AcDb2dPolyline
 66
1
 70
128
  0
VERTEX
  5
3C0
100
AcDbEntity
  8
SUPP_L_4
100
AcDbVertex
100
AcDb2dVertex
 10
7575608.40109603107
 20
5707850.76353660505
  0
VERTEX
  5
3C1
100
AcDbEntity
  8
SUPP_L_4
100
AcDbVertex
100
AcDb2dVertex
 10
7575606.2552091945
 20
5707834.16605177056
  0
SEQEND
  5
3C2
100
AcDbEntity
  8
SUPP_L_4
  0
POLYLINE
  5
3C3
100
AcDbEntity
  8
SUPP_L_4
  6
CONTINUOUS
 62
34
370
18
100
AcDb2dPolyline
 66
1
 70
128
  0
VERTEX
  5
3C4
100
AcDbEntity
  8
SUPP_L_4
100
AcDbVertex
100
AcDb2dVertex
 10
7575606.2552091945
 20
5707834.16605177056
  0
VERTEX
  5
3C5
100
AcDbEntity
  8
SUPP_L_4
100
AcDbVertex
100
AcDb2dVertex
 10
7575604.90933808684
 20
5707823.75633450598
  0
SEQEND
  5
3C6
100
AcDbEntity
  8
SUPP_L_4
  0
POLYLINE
  5
3C7
100
AcDbEntity
  8
SUPT_L_0
  6
CONTINUOUS
 62
30
370
18
100
AcDb2dPolyline
 66
1
 70
128
  0
VERTEX
  5
3C8
100
AcDbEntity
  8
SUPT_L_0
100
AcDbVertex
100
AcDb2dVertex
 10
7575564.9310000008
 20
5707825.29700000025
  0
VERTEX
  5
3C9
100
AcDbEntity
  8
SUPT_L_0
100
AcDbVertex
100
AcDb2dVertex
 10
7575595.86400000006
 20
5707819.5700000003
  0
SEQEND
  5
3CA
100
AcDbEntity
  8
SUPT_L_0
  0
POLYLINE
  5
3CB
100
AcDbEntity
  8
SUPT_L_0
  6
CONTINUOUS
 62
30
370
18
100
AcDb2dPolyline
 66
1
 70
128
  0
VERTEX
  5
3CC
100
AcDbEntity
  8
SUPT_L_0
100
AcDbVertex
100
AcDb2dVertex
 10
7575595.86400000006
 20
5707819.5700000003
  0
VERTEX
  5
3CD
100
AcDbEntity
  8
SUPT_L_0
100
AcDbVertex
100
AcDb2dVertex
 10
7575605.07100000046
 20
5707817.99399999995
  0
SEQEND
  5
3CE
100
AcDbEntity
  8
SUPT_L_0
  0
POLYLINE
  5
3CF
100
AcDbEntity
  8
SUPT_L_0
  6
CONTINUOUS
 62
30
370
18
100
AcDb2dPolyline
 66
1
 70
128
  0
VERTEX
  5
3D0
100
AcDbEntity
  8
SUPT_L_0
100
AcDbVertex
100
AcDb2dVertex
 10
7575605.07100000046
 20
5707817.99399999995
  0
VERTEX
  5
3D1
100
AcDbEntity
  8
SUPT_L_0
100
AcDbVertex
100
AcDb2dVertex
 10
7575606.53100000042
 20
5707817.95399999991
  0
SEQEND
  5
3D2
100
AcDbEntity
  8
SUPT_L_0
  0
POLYLINE
  5
3D3
100
AcDbEntity
  8
SUPT_L_0
  6
CONTINUOUS
 62
30
370
18
100
AcDb2dPolyline
 66
1
 70
128
  0
VERTEX
  5
3D4
100
AcDbEntity
  8
SUPT_L_0
100
AcDbVertex
100
AcDb2dVertex
 10
7575606.53100000042
 20
5707817.95399999991
  0
VERTEX
  5
3D5
100
AcDbEntity
  8
SUPT_L_0
100
AcDbVertex
100
AcDb2dVertex
 10
7575609.24300000072
 20
5707817.50600000005
  0
SEQEND
  5
3D6
100
AcDbEntity
  8
SUPT_L_0
  0
POLYLINE
  5
3D7
100
AcDbEntity
  8
SUPT_L_0
  6
CONTINUOUS
 62
30
370
18
100
AcDb2dPolyline
 66
1
 70
128
  0
VERTEX
  5
3D8
100
AcDbEntity
  8
SUPT_L_0
100
AcDbVertex
100
AcDb2dVertex
 10
7575609.24300000072
 20
5707817.50600000005
  0
VERTEX
  5
3D9
100
AcDbEntity
  8
SUPT_L_0
100
AcDbVertex
100
AcDb2dVertex
 10
7575609.73000000045
 20
5707816.95000000019
  0
SEQEND
  5
3DA
100
AcDbEntity
  8
SUPT_L_0
  0
POLYLINE
  5
3DB
100
AcDbEntity
  8
SUPT_L_0
  6
CONTINUOUS
 62
30
370
18
100
AcDb2dPolyline
 66
1
 70
128
  0
VERTEX
  5
3DC
100
AcDbEntity
  8
SUPT_L_0
100
AcDbVertex
100
AcDb2dVertex
 10
7575609.73000000045
 20
5707816.95000000019
  0
VERTEX
  5
3DD
100
AcDbEntity
  8
SUPT_L_0
100
AcDbVertex
100
AcDb2dVertex
 10
7575610.125
 20
5707816.80999999959
  0
SEQEND
  5
3DE
100
AcDbEntity
  8
SUPT_L_0
  0
POLYLINE
  5
3DF
100
AcDbEntity
  8
SUPT_L_0
  6
CONTINUOUS
 62
30
370
18
100
AcDb2dPolyline
 66
1
 70
128
  0
VERTEX
  5
3E0
100
AcDbEntity
  8
SUPT_L_0
100
AcDbVertex
100
AcDb2dVertex
 10
7575610.125
 20
5707816.80999999959
  0
VERTEX
  5
3E1
100
AcDbEntity
  8
SUPT_L_0
100
AcDbVertex
100
AcDb2dVertex
 10
7575639.93599999975
 20
5707811.41500000097
  0
SEQEND
  5
3E2
100
AcDbEntity
  8
SUPT_L_0
  0
POLYLINE
  5
3E3
100
AcDbEntity
  8
SUPT_L_0
  6
CONTINUOUS
 62
30
370
18
100
AcDb2dPolyline
 66
1
 70
128
  0
VERTEX
  5
3E4
100
AcDbEntity
  8
SUPT_L_0
100
AcDbVertex
100
AcDb2dVertex
 10
7575595.86300000083
 20
5707818.80700000003
  0
VERTEX
  5
3E5
100
AcDbEntity
  8
SUPT_L_0
100
AcDbVertex
100
AcDb2dVertex
 10
7575595.86400000006
 20
5707819.5700000003
  0
SEQEND
  5
3E6
100
AcDbEntity
  8
SUPT_L_0
  0
POLYLINE
  5
3E7
100
AcDbEntity
  8
SUPT_L_0
  6
CONTINUOUS
 62
30
370
18
100
AcDb2dPolyline
 66
1
 70
128
  0
VERTEX
  5
3E8
100
AcDbEntity
  8
SUPT_L_0
100
AcDbVertex
100
AcDb2dVertex
 10
7575595.86400000006
 20
5707819.5700000003
  0
VERTEX
  5
3E9
100
AcDbEntity
  8
SUPT_L_0
100
AcDbVertex
100
AcDb2dVertex
 10
7575596.60599999968
 20
5707825.08100000024
  0
SEQEND
  5
3EA
100
AcDbEntity
  8
SUPT_L_0
  0
POLYLINE
  5
3EB
100
AcDbEntity
  8
SUPT_L_0
  6
CONTINUOUS
 62
30
370
18
100
AcDb2dPolyline
 66
1
 70
128
  0
VERTEX
  5
3EC
100
AcDbEntity
  8
SUPT_L_0
100
AcDbVertex
100
AcDb2dVertex
 10
7575610.18300000019
 20
5707816.37799999956
  0
VERTEX
  5
3ED
100
AcDbEntity
  8
SUPT_L_0
100
AcDbVertex
100
AcDb2dVertex
 10
7575610.125
 20
5707816.80999999959
  0
SEQEND
  5
3EE
100
AcDbEntity
  8
SUPT_L_0
  0
POLYLINE
  5
3EF
100
AcDbEntity
  8
SUPW_L_0
  6
CONTINUOUS
 62
5
370
18
100
AcDb2dPolyline
 66
1
 70
128
  0
VERTEX
  5
3F0
100
AcDbEntity
  8
SUPW_L_0
100
AcDbVertex
100
AcDb2dVertex
 10
7575588.54512581974
 20
5707836.54318853002
  0
VERTEX
  5
3F1
100
AcDbEntity
  8
SUPW_L_0
100
AcDbVertex
100
AcDb2dVertex
 10
7575592.77440031059
 20
5707878.26240796037
  0
SEQEND
  5
3F2
100
AcDbEntity
  8
SUPW_L_0
  0
POLYLINE
  5
3F3
100
AcDbEntity
  8
SUPW_L_0
  6
CONTINUOUS
 62
5
370
18
100
AcDb2dPolyline
 66
1
 70
128
  0
VERTEX
  5
3F4
100
AcDbEntity
  8
SUPW_L_0
100
AcDbVertex
100
AcDb2dVertex
 10
7575592.77440031059
 20
5707878.26240796037
  0
VERTEX
  5
3F5
100
AcDbEntity
  8
SUPW_L_0
100
AcDbVertex
100
AcDb2dVertex
 10
7575603.13266205974
 20
5707877.4337609997
  0
SEQEND
  5
3F6
100
AcDbEntity
  8
SUPW_L_0
  0
POLYLINE
  5
3F7
100
AcDbEntity
  8
SUPW_L_0
  6
CONTINUOUS
 62
5
370
18
100
AcDb2dPolyline
 66
1
 70
128
  0
VERTEX
  5
3F8
100
AcDbEntity
  8
SUPW_L_0
100
AcDbVertex
100
AcDb2dVertex
 10
7575603.13266205974
 20
5707877.4337609997
  0
VERTEX
  5
3F9
100
AcDbEntity
  8
SUPW_L_0
100
AcDbVertex
100
AcDb2dVertex
 10
7575602.97877228353
 20
5707875.7437023269
  0
SEQEND
  5
3FA
100
AcDbEntity
  8
SUPW_L_0
  0
POLYLINE
  5
3FB
100
AcDbEntity
  8
SUPW_L_0
  6
CONTINUOUS
 62
5
370
18
100
AcDb2dPolyline
 66
1
 70
128
  0
VERTEX
  5
3FC
100
AcDbEntity
  8
SUPW_L_0
100
AcDbVertex
100
AcDb2dVertex
 10
7575602.97877228353
 20
5707875.7437023269
  0
VERTEX
  5
3FD
100
AcDbEntity
  8
SUPW_L_0
100
AcDbVertex
100
AcDb2dVertex
 10
7575603.13266205974
 20
5707877.4337609997
  0
SEQEND
  5
3FE
100
AcDbEntity
  8
SUPW_L_0
  0
POLYLINE
  5
3FF
100
AcDbEntity
  8
SUPW_L_0
  6
CONTINUOUS
 62
5
370
18
100
AcDb2dPolyline
 66
1
 70
128
  0
VERTEX
  5
400
100
AcDbEntity
  8
SUPW_L_0
100
AcDbVertex
100
AcDb2dVertex
 10
7575603.13266205974
 20
5707877.4337609997
  0
VERTEX
  5
401
100
AcDbEntity
  8
SUPW_L_0
100
AcDbVertex
100
AcDb2dVertex
 10
7575592.77440031059
 20
5707878.26240796037
  0
SEQEND
  5
402
100
AcDbEntity
  8
SUPW_L_0
  0
POLYLINE
  5
403
100
AcDbEntity
  8
SUPW_L_0
  6
CONTINUOUS
 62
5
370
18
100
AcDb2dPolyline
 66
1
 70
128
  0
VERTEX
  5
404
100
AcDbEntity
  8
SUPW_L_0
100
AcDbVertex
100
AcDb2dVertex
 10
7575592.77440031059
 20
5707878.26240796037
  0
VERTEX
  5
405
100
AcDbEntity
  8
SUPW_L_0
100
AcDbVertex
100
AcDb2dVertex
 10
7575588.54512581974
 20
5707836.54318853002
  0
SEQEND
  5
406
100
AcDbEntity
  8
SUPW_L_0
  0
POLYLINE
  5
407
100
AcDbEntity
  8
SUPW_L_1
  6
CONTINUOUS
 62
5
370
18
100
AcDb2dPolyline
 66
1
 70
128
  0
VERTEX
  5
408
100
AcDbEntity
  8
SUPW_L_1
100
AcDbVertex
100
AcDb2dVertex
 10
7575495.63492446113
 20
5707853.36128256004
  0
VERTEX
  5
409
100
AcDbEntity
  8
SUPW_L_1
100
AcDbVertex
100
AcDb2dVertex
 10
7575588.55531082116
 20
5707836.39318640903
  0
SEQEND
  5
40A
100
AcDbEntity
  8
SUPW_L_1
  0
POLYLINE
  5
40B
100
AcDbEntity
  8
SUPW_L_1
  6
CONTINUOUS
 62
5
370
18
100
AcDb2dPolyline
 66
1
 70
128
  0
VERTEX
  5
40C
100
AcDbEntity
  8
SUPW_L_1
100
AcDbVertex
100
AcDb2dVertex
 10
7575588.55531082116
 20
5707836.39318640903
  0
VERTEX
  5
40D
100
AcDbEntity
  8
SUPW_L_1
100
AcDbVertex
100
AcDb2dVertex
 10
7575588.54512581974
 20
5707836.54318853002
  0
SEQEND
  5
40E
100
AcDbEntity
  8
SUPW_L_1
  0
POLYLINE
  5
40F
100
AcDbEntity
  8
SUPW_L_1
  6
CONTINUOUS
 62
5
370
18
100
AcDb2dPolyline
 66
1
 70
128
  0
VERTEX
  5
410
100
AcDbEntity
  8
SUPW_L_1
100
AcDbVertex
100
AcDb2dVertex
 10
7575482.34066835046
 20
5707855.71526584961
  0
VERTEX
  5
411
100
AcDbEntity
  8
SUPW_L_1
100
AcDbVertex
100
AcDb2dVertex
 10
7575495.63492446113
 20
5707853.36128256004
  0
SEQEND
  5
412
100
AcDbEntity
  8
SUPW_L_1
  0
POLYLINE
  5
413
100
AcDbEntity
  8
SUPW_L_1
  6
CONTINUOUS
 62
5
370
18
100
AcDb2dPolyline
 66
1
 70
128
  0
VERTEX
  5
414
100
AcDbEntity
  8
SUPW_L_1
100
AcDbVertex
100
AcDb2dVertex
 10
7575495.63492446113
 20
5707853.36128256004
  0
VERTEX
  5
415
100
AcDbEntity
  8
SUPW_L_1
100
AcDbVertex
100
AcDb2dVertex
 10
7575588.55531082116
 20
5707836.39318640903
  0
SEQEND
  5
416
100
AcDbEntity
  8
SUPW_L_1
  0
POLYLINE
  5
417
100
AcDbEntity
  8
SUPW_L_1
  6
CONTINUOUS
 62
5
370
18
100
AcDb2dPolyline
 66
1
 70
128
  0
VERTEX
  5
418
100
AcDbEntity
  8
SUPW_L_1
100
AcDbVertex
100
AcDb2dVertex
 10
7575588.55531082116
 20
5707836.39318640903
  0
VERTEX
  5
419
100
AcDbEntity
  8
SUPW_L_1
100
AcDbVertex
100
AcDb2dVertex
 10
7575588.54512581974
 20
5707836.54318853002
  0
SEQEND
  5
41A
100
AcDbEntity
  8
SUPW_L_1
  0
CIRCLE
  5
41B
100
AcDbEntity
  8
SUSM_T_0
  6
CONTINUOUS
 62
7
370
18
100
AcDbCircle
 10
7575606.99000000022
 20
5707817.00999999978
 40
0.244999995455
  0
POLYLINE
  5
41C
100
AcDbEntity
  8
SUSM_T_0
  6
CONTINUOUS
 62
250
370
18
100
AcDb2dPolyline
 66
1
 70
128
  0
VERTEX
  5
41D
100
AcDbEntity
  8
SUSM_T_0
100
AcDbVertex
100
AcDb2dVertex
 10
7575606.24751001317
 20
5707817.75248998683
  0
VERTEX
  5
41E
100
AcDbEntity
  8
SUSM_T_0
100
AcDbVertex
100
AcDb2dVertex
 10
7575605.7525400212
 20
5707818.2474599788
  0
SEQEND
  5
41F
100
AcDbEntity
  8
SUSM_T_0
  0
POLYLINE
  5
420
100
AcDbEntity
  8
SUSM_T_0
  6
CONTINUOUS
 62
250
370
18
100
AcDb2dPolyline
 66
1
 70
128
  0
VERTEX
  5
421
100
AcDbEntity
  8
SUSM_T_0
100
AcDbVertex
100
AcDb2dVertex
 10
7575607.73248998728
 20
5707817.75248998683
  0
VERTEX
  5
422
100
AcDbEntity
  8
SUSM_T_0
100
AcDbVertex
100
AcDb2dVertex
 10
7575608.22745997924
 20
5707818.2474599788
  0
SEQEND
  5
423
100
AcDbEntity
  8
SUSM_T_0
  0
POLYLINE
  5
424
100
AcDbEntity
  8
SUSM_T_0
  6
CONTINUOUS
 62
250
370
18
100
AcDb2dPolyline
 66
1
 70
128
  0
VERTEX
  5
425
100
AcDbEntity
  8
SUSM_T_0
100
AcDbVertex
100
AcDb2dVertex
 10
7575607.73248998728
 20
5707816.26751001272
  0
VERTEX
  5
426
100
AcDbEntity
  8
SUSM_T_0
100
AcDbVertex
100
AcDb2dVertex
 10
7575608.22745997924
 20
5707815.77254002076
  0
SEQEND
  5
427
100
AcDbEntity
  8
SUSM_T_0
  0
POLYLINE
  5
428
100
AcDbEntity
  8
SUSM_T_0
  6
CONTINUOUS
 62
250
370
18
100
AcDb2dPolyline
 66
1
 70
128
  0
VERTEX
  5
429
100
AcDbEntity
  8
SUSM_T_0
100
AcDbVertex
100
AcDb2dVertex
 10
7575606.24751001317
 20
5707816.26751001272
  0
VERTEX
  5
42A
100
AcDbEntity
  8
SUSM_T_0
100
AcDbVertex
100
AcDb2dVertex
 10
7575605.7525400212
 20
5707815.77254002076
  0
SEQEND
  5
42B
100
AcDbEntity
  8
SUSM_T_0
  0
CIRCLE
  5
42C
100
AcDbEntity
  8
SUTE_T_0
  6
CONTINUOUS
 62
1
370
18
100
AcDbCircle
 10
7575598.90797751118
 20
5707826.93491951004
 40
0.0625
  0
CIRCLE
  5
42D
100
AcDbEntity
  8
SUTE_T_0
  6
CONTINUOUS
 62
1
370
18
100
AcDbCircle
 10
7575587.20000000019
 20
5707825.95000000019
 40
0.0625
  0
CIRCLE
  5
42E
100
AcDbEntity
  8
SUTE_T_0
  6
CONTINUOUS
 62
1
370
18
100
AcDbCircle
 10
7575609.5
 20
5707825.36000000034
 40
0.0625
  0
CIRCLE
  5
42F
100
AcDbEntity
  8
SUTG_T_0
  6
CONTINUOUS
 62
52
370
18
100
AcDbCircle
 10
7575609.54999999981
 20
5707821.33999999985
 40
0.0625
  0
CIRCLE
  5
430
100
AcDbEntity
  8
SUTG_T_0
  6
CONTINUOUS
 62
52
370
18
100
AcDbCircle
 10
7575592.08000000007
 20
5707852.61000000034
 40
0.0625
  0
CIRCLE
  5
431
100
AcDbEntity
  8
SUTK_T_0
  6
CONTINUOUS
 62
7
370
18
100
AcDbCircle
 10
7575609.35090869013
 20
5707858.04070312995
 40
0.0625
  0
CIRCLE
  5
432
100
AcDbEntity
  8
SUTK_T_0
  6
CONTINUOUS
 62
7
370
18
100
AcDbCircle
 10
7575610.66069224942
 20
5707861.95032445062
 40
0.0625
  0
CIRCLE
  5
433
100
AcDbEntity
  8
SUTK_T_0
  6
CONTINUOUS
 62
7
370
18
100
AcDbCircle
 10
7575608.09999999963
 20
5707823.25999999978
 40
0.0625
  0
POLYLINE
  5
434
100
AcDbEntity
  8
SUTK_T_0
  6
CONTINUOUS
 62
7
370
18
100
AcDb2dPolyline
 66
1
 70
128
  0
VERTEX
  5
435
100
AcDbEntity
  8
SUTK_T_0
100
AcDbVertex
100
AcDb2dVertex
 10
7575609.35090872087
 20
5707858.04070313182
  0
VERTEX
  5
436
100
AcDbEntity
  8
SUTK_T_0
100
AcDbVertex
100
AcDb2dVertex
 10
7575607.82048805896
 20
5707859.15518612973
  0
SEQEND
  5
437
100
AcDbEntity
  8
SUTK_T_0
  0
POLYLINE
  5
438
100
AcDbEntity
  8
SUTK_T_0
  6
CONTINUOUS
 62
7
370
18
100
AcDb2dPolyline
 66
1
 70
128
  0
VERTEX
  5
439
100
AcDbEntity
  8
SUTK_T_0
100
AcDbVertex
100
AcDb2dVertex
 10
7575605.24193526898
 20
5707859.15518612973
  0
VERTEX
  5
43A
100
AcDbEntity
  8
SUTK_T_0
100
AcDbVertex
100
AcDb2dVertex
 10
7575607.82048805896
 20
5707859.15518612973
  0
SEQEND
  5
43B
100
AcDbEntity
  8
SUTK_T_0
  0
POLYLINE
  5
43C
100
AcDbEntity
  8
SUTK_T_0
  6
CONTINUOUS
 62
7
370
18
100
AcDb2dPolyline
 66
1
 70
128
  0
VERTEX
  5
43D
100
AcDbEntity
  8
SUTK_T_0
100
AcDbVertex
100
AcDb2dVertex
 10
7575610.66069224197
 20
5707861.95032441989
  0
VERTEX
  5
43E
100
AcDbEntity
  8
SUTK_T_0
100
AcDbVertex
100
AcDb2dVertex
 10
7575610.1119616311
 20
5707865.80527437106
  0
SEQEND
  5
43F
100
AcDbEntity
  8
SUTK_T_0
  0
POLYLINE
  5
440
100
AcDbEntity
  8
SUTK_T_0
  6
CONTINUOUS
 62
7
370
18
100
AcDb2dPolyline
 66
1
 70
128
  0
VERTEX
  5
441
100
AcDbEntity
  8
SUTK_T_0
100
AcDbVertex
100
AcDb2dVertex
 10
7575610.1119616311
 20
5707865.80527437106
  0
VERTEX
  5
442
100
AcDbEntity
  8
SUTK_T_0
100
AcDbVertex
100
AcDb2dVertex
 10
7575612.71765708178
 20
5707865.80527437106
  0
SEQEND
  5
443
100
AcDbEntity
  8
SUTK_T_0
  0
POLYLINE
  5
444
100
AcDbEntity
  8
SUTK_T_0
  6
CONTINUOUS
 62
7
370
18
100
AcDb2dPolyline
 66
1
 70
128
  0
VERTEX
  5
445
100
AcDbEntity
  8
SUTK_T_0
100
AcDbVertex
100
AcDb2dVertex
 10
7575608.09999679867
 20
5707823.2600005623
  0
VERTEX
  5
446
100
AcDbEntity
  8
SUTK_T_0
100
AcDbVertex
100
AcDb2dVertex
 10
7575610.8776552612
 20
5707826.25346085988
  0
SEQEND
  5
447
100
AcDbEntity
  8
SUTK_T_0
  0
POLYLINE
  5
448
100
AcDbEntity
  8
SUTK_T_0
  6
CONTINUOUS
 62
7
370
18
100
AcDb2dPolyline
 66
1
 70
128
  0
VERTEX
  5
449
100
AcDbEntity
  8
SUTK_T_0
100
AcDbVertex
100
AcDb2dVertex
 10
7575610.8776552612
 20
5707826.25346085988
  0
VERTEX
  5
44A
100
AcDbEntity
  8
SUTK_T_0
100
AcDbVertex
100
AcDb2dVertex
 10
7575613.53763603326
 20
5707826.25346085988
  0
SEQEND
  5
44B
100
AcDbEntity
  8
SUTK_T_0
  0
CIRCLE
  5
44C
100
AcDbEntity
  8
SUTT_T_0
  6
CONTINUOUS
 62
30
370
18
100
AcDbCircle
 10
7575605.07100000046
 20
5707817.99399999995
 40
0.0625
  0
CIRCLE
  5
44D
100
AcDbEntity
  8
SUTW_T_0
  6
CONTINUOUS
 62
5
370
18
100
AcDbCircle
 10
7575588.54999999981
 20
5707836.54000000004
 40
0.0625
  0
POLYLINE
  5
44E
100
AcDbEntity
  8
SUTW_T_0
  6
CONTINUOUS
 62
5
370
18
100
AcDb2dPolyline
 66
1
 70
128
  0
VERTEX
  5
44F
100
AcDbEntity
  8
SUTW_T_0
100
AcDbVertex
100
AcDb2dVertex
 10
7575588.55000005197
 20
5707836.53999997675
  0
VERTEX
  5
450
100
AcDbEntity
  8
SUTW_T_0
100
AcDbVertex
100
AcDb2dVertex
 10
7575591.09770021867
 20
5707837.13476695027
  0
SEQEND
  5
451
100
AcDbEntity
  8
SUTW_T_0
  0
POLYLINE
  5
452
100
AcDbEntity
  8
SUTW_T_0
  6
CONTINUOUS
 62
5
370
18
100
AcDb2dPolyline
 66
1
 70
128
  0
VERTEX
  5
453
100
AcDbEntity
  8
SUTW_T_0
100
AcDbVertex
100
AcDb2dVertex
 10
7575591.09770021867
 20
5707837.13476695027
  0
VERTEX
  5
454
100
AcDbEntity
  8
SUTW_T_0
100
AcDbVertex
100
AcDb2dVertex
 10
7575593.70339567121
 20
5707837.13476695027
  0
SEQEND
  5
455
100
AcDbEntity
  8
SUTW_T_0
  0
POLYLINE
  5
456
100
AcDbEntity
  8
SUUE_L_3
  6
CONTINUOUS
 62
7
370
18
100
AcDb2dPolyline
 66
1
 70
128
  0
VERTEX
  5
457
100
AcDbEntity
  8
SUUE_L_3
100
AcDbVertex
100
AcDb2dVertex
 10
7575587.51999999955
 20
5707835.00999999978
  0
VERTEX
  5
458
100
AcDbEntity
  8
SUUE_L_3
100
AcDbVertex
100
AcDb2dVertex
 10
7575589.09999999963
 20
5707834.8200000003
  0
SEQEND
  5
459
100
AcDbEntity
  8
SUUE_L_3
  0
POLYLINE
  5
45A
100
AcDbEntity
  8
SUUE_L_3
  6
CONTINUOUS
 62
7
370
18
100
AcDb2dPolyline
 66
1
 70
128
  0
VERTEX
  5
45B
100
AcDbEntity
  8
SUUE_L_3
100
AcDbVertex
100
AcDb2dVertex
 10
7575589.09999999963
 20
5707834.8200000003
  0
VERTEX
  5
45C
100
AcDbEntity
  8
SUUE_L_3
100
AcDbVertex
100
AcDb2dVertex
 10
7575589.0700000003
 20
5707834.54999999981
  0
SEQEND
  5
45D
100
AcDbEntity
  8
SUUE_L_3
  0
POLYLINE
  5
45E
100
AcDbEntity
  8
SUUE_L_3
  6
CONTINUOUS
 62
7
370
18
100
AcDb2dPolyline
 66
1
 70
128
  0
VERTEX
  5
45F
100
AcDbEntity
  8
SUUE_L_3
100
AcDbVertex
100
AcDb2dVertex
 10
7575589.0700000003
 20
5707834.54999999981
  0
VERTEX
  5
460
100
AcDbEntity
  8
SUUE_L_3
100
AcDbVertex
100
AcDb2dVertex
 10
7575587.49000000022
 20
5707834.74000000022
  0
SEQEND
  5
461
100
AcDbEntity
  8
SUUE_L_3
  0
POLYLINE
  5
462
100
AcDbEntity
  8
SUUE_L_3
  6
CONTINUOUS
 62
7
370
18
100
AcDb2dPolyline
 66
1
 70
128
  0
VERTEX
  5
463
100
AcDbEntity
  8
SUUE_L_3
100
AcDbVertex
100
AcDb2dVertex
 10
7575587.49000000022
 20
5707834.74000000022
  0
VERTEX
  5
464
100
AcDbEntity
  8
SUUE_L_3
100
AcDbVertex
100
AcDb2dVertex
 10
7575587.51999999955
 20
5707835.00999999978
  0
SEQEND
  5
465
100
AcDbEntity
  8
SUUE_L_3
  0
POLYLINE
  5
466
100
AcDbEntity
  8
SUUE_T_3
  6
CONTINUOUS
 62
250
370
18
100
AcDb2dPolyline
 66
1
 70
128
  0
VERTEX
  5
467
100
AcDbEntity
  8
SUUE_T_3
100
AcDbVertex
100
AcDb2dVertex
 10
7575588.49372691289
 20
5707834.29821265023
  0
VERTEX
  5
468
100
AcDbEntity
  8
SUUE_T_3
100
AcDbVertex
100
AcDb2dVertex
 10
7575589.48041613866
 20
5707834.1355953943
  0
SEQEND
  5
469
100
AcDbEntity
  8
SUUE_T_3
  0
POLYLINE
  5
46A
100
AcDbEntity
  8
SUUE_T_3
  6
CONTINUOUS
 62
250
370
18
100
AcDb2dPolyline
 66
1
 70
128
  0
VERTEX
  5
46B
100
AcDbEntity
  8
SUUE_T_3
100
AcDbVertex
100
AcDb2dVertex
 10
7575589.48041613866
 20
5707834.1355953943
  0
VERTEX
  5
46C
100
AcDbEntity
  8
SUUE_T_3
100
AcDbVertex
100
AcDb2dVertex
 10
7575589.56172476709
 20
5707834.62894000765
  0
SEQEND
  5
46D
100
AcDbEntity
  8
SUUE_T_3
  0
POLYLINE
  5
46E
100
AcDbEntity
  8
SUUE_T_3
  6
CONTINUOUS
 62
250
370
18
100
AcDb2dPolyline
 66
1
 70
128
  0
VERTEX
  5
46F
100
AcDbEntity
  8
SUUE_T_3
100
AcDbVertex
100
AcDb2dVertex
 10
7575589.56172476709
 20
5707834.62894000765
  0
VERTEX
  5
470
100
AcDbEntity
  8
SUUE_T_3
100
AcDbVertex
100
AcDb2dVertex
 10
7575588.57503554132
 20
5707834.79155726358
  0
SEQEND
  5
471
100
AcDbEntity
  8
SUUE_T_3
  0
POLYLINE
  5
472
100
AcDbEntity
  8
SUUE_T_3
  6
CONTINUOUS
 62
250
370
18
100
AcDb2dPolyline
 66
1
 70
128
  0
VERTEX
  5
473
100
AcDbEntity
  8
SUUE_T_3
100
AcDbVertex
100
AcDb2dVertex
 10
7575588.57503554132
 20
5707834.79155726358
  0
VERTEX
  5
474
100
AcDbEntity
  8
SUUE_T_3
100
AcDbVertex
100
AcDb2dVertex
 10
7575588.49372691289
 20
5707834.29821265023
  0
SEQEND
  5
475
100
AcDbEntity
  8
SUUE_T_3
  0
POLYLINE
  5
476
100
AcDbEntity
  8
SUUG_T_1
  6
CONTINUOUS
 62
250
370
18
100
AcDb2dPolyline
 66
1
 70
128
  0
VERTEX
  5
477
100
AcDbEntity
  8
SUUG_T_1
100
AcDbVertex
100
AcDb2dVertex
 10
7575589.9878241932
 20
5707834.06402777601
  0
VERTEX
  5
478
100
AcDbEntity
  8
SUUG_T_1
100
AcDbVertex
100
AcDb2dVertex
 10
7575590.98008326441
 20
5707833.93984268885
  0
SEQEND
  5
479
100
AcDbEntity
  8
SUUG_T_1
  0
POLYLINE
  5
47A
100
AcDbEntity
  8
SUUG_T_1
  6
CONTINUOUS
 62
250
370
18
100
AcDb2dPolyline
 66
1
 70
128
  0
VERTEX
  5
47B
100
AcDbEntity
  8
SUUG_T_1
100
AcDbVertex
100
AcDb2dVertex
 10
7575590.98008326441
 20
5707833.93984268885
  0
VERTEX
  5
47C
100
AcDbEntity
  8
SUUG_T_1
100
AcDbVertex
100
AcDb2dVertex
 10
7575591.04217580799
 20
5707834.43597222399
  0
SEQEND
  5
47D
100
AcDbEntity
  8
SUUG_T_1
  0
POLYLINE
  5
47E
100
AcDbEntity
  8
SUUG_T_1
  6
CONTINUOUS
 62
250
370
18
100
AcDb2dPolyline
 66
1
 70
128
  0
VERTEX
  5
47F
100
AcDbEntity
  8
SUUG_T_1
100
AcDbVertex
100
AcDb2dVertex
 10
7575591.04217580799
 20
5707834.43597222399
  0
VERTEX
  5
480
100
AcDbEntity
  8
SUUG_T_1
100
AcDbVertex
100
AcDb2dVertex
 10
7575590.04991673678
 20
5707834.56015731115
  0
SEQEND
  5
481
100
AcDbEntity
  8
SUUG_T_1
  0
POLYLINE
  5
482
100
AcDbEntity
  8
SUUG_T_1
  6
CONTINUOUS
 62
250
370
18
100
AcDb2dPolyline
 66
1
 70
128
  0
VERTEX
  5
483
100
AcDbEntity
  8
SUUG_T_1
100
AcDbVertex
100
AcDb2dVertex
 10
7575590.04991673678
 20
5707834.56015731115
  0
VERTEX
  5
484
100
AcDbEntity
  8
SUUG_T_1
100
AcDbVertex
100
AcDb2dVertex
 10
7575589.9878241932
 20
5707834.06402777601
  0
SEQEND
  5
485
100
AcDbEntity
  8
SUUG_T_1
  0
POLYLINE
  5
486
100
AcDbEntity
  8
SUUK_L_1
  6
CONTINUOUS
 62
7
370
18
100
AcDb2dPolyline
 66
1
 70
128
  0
VERTEX
  5
487
100
AcDbEntity
  8
SUUK_L_1
100
AcDbVertex
100
AcDb2dVertex
 10
7575608.54237185977
 20
5707856.77959252987
  0
VERTEX
  5
488
100
AcDbEntity
  8
SUUK_L_1
100
AcDbVertex
100
AcDb2dVertex
 10
7575608.72926335037
 20
5707859.33006861992
  0
SEQEND
  5
489
100
AcDbEntity
  8
SUUK_L_1
  0
POLYLINE
  5
48A
100
AcDbEntity
  8
SUUK_L_1
  6
CONTINUOUS
 62
7
370
18
100
AcDb2dPolyline
 66
1
 70
128
  0
VERTEX
  5
48B
100
AcDbEntity
  8
SUUK_L_1
100
AcDbVertex
100
AcDb2dVertex
 10
7575608.72926335037
 20
5707859.33006861992
  0
VERTEX
  5
48C
100
AcDbEntity
  8
SUUK_L_1
100
AcDbVertex
100
AcDb2dVertex
 10
7575611.03997654095
 20
5707858.94285499863
  0
SEQEND
  5
48D
100
AcDbEntity
  8
SUUK_L_1
  0
POLYLINE
  5
48E
100
AcDbEntity
  8
SUUK_L_1
  6
CONTINUOUS
 62
7
370
18
100
AcDb2dPolyline
 66
1
 70
128
  0
VERTEX
  5
48F
100
AcDbEntity
  8
SUUK_L_1
100
AcDbVertex
100
AcDb2dVertex
 10
7575611.03997654095
 20
5707858.94285499863
  0
VERTEX
  5
490
100
AcDbEntity
  8
SUUK_L_1
100
AcDbVertex
100
AcDb2dVertex
 10
7575610.90296748001
 20
5707856.49244959
  0
SEQEND
  5
491
100
AcDbEntity
  8
SUUK_L_1
  0
POLYLINE
  5
492
100
AcDbEntity
  8
SUUK_L_1
  6
CONTINUOUS
 62
7
370
18
100
AcDb2dPolyline
 66
1
 70
128
  0
VERTEX
  5
493
100
AcDbEntity
  8
SUUK_L_1
100
AcDbVertex
100
AcDb2dVertex
 10
7575610.90296748001
 20
5707856.49244959
  0
VERTEX
  5
494
100
AcDbEntity
  8
SUUK_L_1
100
AcDbVertex
100
AcDb2dVertex
 10
7575608.54237185977
 20
5707856.77959252987
  0
SEQEND
  5
495
100
AcDbEntity
  8
SUUK_L_1
  0
CIRCLE
  5
496
100
AcDbEntity
  8
SUUK_T_1
  6
CONTINUOUS
 62
7
370
18
100
AcDbCircle
 10
7575610.66069224942
 20
5707861.95032445062
 40
0.5
  0
POLYLINE
  5
497
100
AcDbEntity
  8
SUUK_T_1
  6
CONTINUOUS
 62
250
370
18
100
AcDb2dPolyline
 66
1
 70
128
  0
VERTEX
  5
498
100
AcDbEntity
  8
SUUK_T_1
100
AcDbVertex
100
AcDb2dVertex
 10
7575610.16069224942
 20
5707861.95032445062
  0
VERTEX
  5
499
100
AcDbEntity
  8
SUUK_T_1
100
AcDbVertex
100
AcDb2dVertex
 10
7575611.16069224942
 20
5707861.95032445062
  0
SEQEND
  5
49A
100
AcDbEntity
  8
SUUK_T_1
  0
CIRCLE
  5
49B
100
AcDbEntity
  8
SUUK_T_4
  6
CONTINUOUS
 62
7
370
18
100
AcDbCircle
 10
7575609.35090869013
 20
5707858.04070312995
 40
0.25
  0
CIRCLE
  5
49C
100
AcDbEntity
  8
SUUK_T_4
  6
CONTINUOUS
 62
7
370
18
100
AcDbCircle
 10
7575608.09999999963
 20
5707823.25999999978
 40
0.25
  0
CIRCLE
  5
49D
100
AcDbEntity
  8
SUUW_T_7
  6
CONTINUOUS
 62
7
370
18
100
AcDbCircle
 10
7575588.54512581974
 20
5707836.54318853002
 40
0.200000000186
  0
CIRCLE
  5
49E
100
AcDbEntity
  8
SUUW_T_7
  6
CONTINUOUS
 62
7
370
18
100
AcDbCircle
 10
7575588.54512581974
 20
5707836.54318853002
 40
0.174999999814
  0
CIRCLE
  5
49F
100
AcDbEntity
  8
SUUW_T_7
  6
CONTINUOUS
 62
7
370
18
100
AcDbCircle
 10
7575588.54512581974
 20
5707836.54318853002
 40
0.150000000373
  0
CIRCLE
  5
4A0
100
AcDbEntity
  8
SUUW_T_7
  6
CONTINUOUS
 62
7
370
18
100
AcDbCircle
 10
7575588.54512581974
 20
5707836.54318853002
 40
0.125
  0
CIRCLE
  5
4A1
100
AcDbEntity
  8
SUUW_T_7
  6
CONTINUOUS
 62
7
370
18
100
AcDbCircle
 10
7575588.54512581974
 20
5707836.54318853002
 40
0.099999999627
  0
CIRCLE
  5
4A2
100
AcDbEntity
  8
SUUW_T_7
  6
CONTINUOUS
 62
7
370
18
100
AcDbCircle
 10
7575588.54512581974
 20
5707836.54318853002
 40
0.075000000186
  0
CIRCLE
  5
4A3
100
AcDbEntity
  8
SUUW_T_7
  6
CONTINUOUS
 62
7
370
18
100
AcDbCircle
 10
7575588.54512581974
 20
5707836.54318853002
 40
0.049999999814
  0
CIRCLE
  5
4A4
100
AcDbEntity
  8
SUUW_T_7
  6
CONTINUOUS
 62
7
370
18
100
AcDbCircle
 10
7575588.54512581974
 20
5707836.54318853002
 40
0.025000000373
  0
CIRCLE
  5
4A5
100
AcDbEntity
  8
SUUW_T_7
  6
CONTINUOUS
 62
7
370
18
100
AcDbCircle
 10
7575588.54512581974
 20
5707836.54318853002
 40
0.007149999961
  0
POLYLINE
  5
4A6
100
AcDbEntity
  8
Uzytki
  6
L_0_03
 62
3
370
18
100
AcDb2dPolyline
 66
1
 70
128
  0
VERTEX
  5
4A7
100
AcDbEntity
  8
Uzytki
100
AcDbVertex
100
AcDb2dVertex
 10
7575638.58000000007
 20
5707811.20999999996
  0
VERTEX
  5
4A8
100
AcDbEntity
  8
Uzytki
100
AcDbVertex
100
AcDb2dVertex
 10
7575603.9299999997
 20
5707817.25999999978
  0
SEQEND
  5
4A9
100
AcDbEntity
  8
Uzytki
  0
POLYLINE
  5
4AA
100
AcDbEntity
  8
Uzytki
  6
L_0_03
 62
3
370
18
100
AcDb2dPolyline
 66
1
 70
128
  0
VERTEX
  5
4AB
100
AcDbEntity
  8
Uzytki
100
AcDbVertex
100
AcDb2dVertex
 10
7575603.9299999997
 20
5707817.25999999978
  0
VERTEX
  5
4AC
100
AcDbEntity
  8
Uzytki
100
AcDbVertex
100
AcDb2dVertex
 10
7575588.65000000037
 20
5707819.95000000019
  0
SEQEND
  5
4AD
100
AcDbEntity
  8
Uzytki
  0
POLYLINE
  5
4AE
100
AcDbEntity
  8
Uzytki
  6
L_0_03
 62
3
370
18
100
AcDb2dPolyline
 66
1
 70
128
  0
VERTEX
  5
4AF
100
AcDbEntity
  8
Uzytki
100
AcDbVertex
100
AcDb2dVertex
 10
7575588.65000000037
 20
5707819.95000000019
  0
VERTEX
  5
4B0
100
AcDbEntity
  8
Uzytki
100
AcDbVertex
100
AcDb2dVertex
 10
7575587.34999999963
 20
5707803.78000000026
  0
SEQEND
  5
4B1
100
AcDbEntity
  8
Uzytki
  0
POLYLINE
  5
4B2
100
AcDbEntity
  8
Uzytki
  6
L_0_03
 62
3
370
18
100
AcDb2dPolyline
 66
1
 70
128
  0
VERTEX
  5
4B3
100
AcDbEntity
  8
Uzytki
100
AcDbVertex
100
AcDb2dVertex
 10
7575609.34999999963
 20
5707822.05999999959
  0
VERTEX
  5
4B4
100
AcDbEntity
  8
Uzytki
100
AcDbVertex
100
AcDb2dVertex
 10
7575614.12999999989
 20
5707877.3200000003
  0
SEQEND
  5
4B5
100
AcDbEntity
  8
Uzytki
  0
POLYLINE
  5
4B6
100
AcDbEntity
  8
Uzytki
  6
L_0_03
 62
3
370
18
100
AcDb2dPolyline
 66
1
 70
128
  0
VERTEX
  5
4B7
100
AcDbEntity
  8
Uzytki
100
AcDbVertex
100
AcDb2dVertex
 10
7575614.12999999989
 20
5707877.3200000003
  0
VERTEX
  5
4B8
100
AcDbEntity
  8
Uzytki
100
AcDbVertex
100
AcDb2dVertex
 10
7575607.24000000022
 20
5707893.71999999974
  0
SEQEND
  5
4B9
100
AcDbEntity
  8
Uzytki
  0
POLYLINE
  5
4BA
100
AcDbEntity
  8
Uzytki
  6
L_0_03
 62
3
370
18
100
AcDb2dPolyline
 66
1
 70
128
  0
VERTEX
  5
4BB
100
AcDbEntity
  8
Uzytki
100
AcDbVertex
100
AcDb2dVertex
 10
7575594.00999999978
 20
5707909.41000000015
  0
VERTEX
  5
4BC
100
AcDbEntity
  8
Uzytki
100
AcDbVertex
100
AcDb2dVertex
 10
7575590.01999999955
 20
5707863.70999999996
  0
SEQEND
  5
4BD
100
AcDbEntity
  8
Uzytki
  0
POLYLINE
  5
4BE
100
AcDbEntity
  8
Uzytki
  6
L_0_03
 62
3
370
18
100
AcDb2dPolyline
 66
1
 70
128
  0
VERTEX
  5
4BF
100
AcDbEntity
  8
Uzytki
100
AcDbVertex
100
AcDb2dVertex
 10
7575590.01999999955
 20
5707863.70999999996
  0
VERTEX
  5
4C0
100
AcDbEntity
  8
Uzytki
100
AcDbVertex
100
AcDb2dVertex
 10
7575586.76999999955
 20
5707826.41999999993
  0
SEQEND
  5
4C1
100
AcDbEntity
  8
Uzytki
  0
POLYLINE
  5
4C2
100
AcDbEntity
  8
Uzytki
  6
L_0_03
 62
3
370
18
100
AcDb2dPolyline
 66
1
 70
128
  0
VERTEX
  5
4C3
100
AcDbEntity
  8
Uzytki
100
AcDbVertex
100
AcDb2dVertex
 10
7575586.76999999955
 20
5707826.41999999993
  0
VERTEX
  5
4C4
100
AcDbEntity
  8
Uzytki
100
AcDbVertex
100
AcDb2dVertex
 10
7575598.12000000011
 20
5707824.23000000045
  0
SEQEND
  5
4C5
100
AcDbEntity
  8
Uzytki
  0
POLYLINE
  5
4C6
100
AcDbEntity
  8
Uzytki
  6
L_0_03
 62
3
370
18
100
AcDb2dPolyline
 66
1
 70
128
  0
VERTEX
  5
4C7
100
AcDbEntity
  8
Uzytki
100
AcDbVertex
100
AcDb2dVertex
 10
7575598.12000000011
 20
5707824.23000000045
  0
VERTEX
  5
4C8
100
AcDbEntity
  8
Uzytki
100
AcDbVertex
100
AcDb2dVertex
 10
7575609.34999999963
 20
5707822.05999999959
  0
SEQEND
  5
4C9
100
AcDbEntity
  8
Uzytki
  0
POLYLINE
  5
4CA
100
AcDbEntity
  8
Uzytki
  6
L_0_03
 62
3
370
18
100
AcDb2dPolyline
 66
1
 70
128
  0
VERTEX
  5
4CB
100
AcDbEntity
  8
Uzytki
100
AcDbVertex
100
AcDb2dVertex
 10
7575588.65000000037
 20
5707819.95000000019
  0
VERTEX
  5
4CC
100
AcDbEntity
  8
Uzytki
100
AcDbVertex
100
AcDb2dVertex
 10
7575582.59999999963
 20
5707821.01999999862
  0
SEQEND
  5
4CD
100
AcDbEntity
  8
Uzytki
  0
POLYLINE
  5
4CE
100
AcDbEntity
  8
Uzytki
  6
L_0_03
 62
3
370
18
100
AcDb2dPolyline
 66
1
 70
128
  0
VERTEX
  5
4CF
100
AcDbEntity
  8
Uzytki
100
AcDbVertex
100
AcDb2dVertex
 10
7575569.38999999966
 20
5707829.78000000026
  0
VERTEX
  5
4D0
100
AcDbEntity
  8
Uzytki
100
AcDbVertex
100
AcDb2dVertex
 10
7575586.76999999955
 20
5707826.41999999993
  0
SEQEND
  5
4D1
100
AcDbEntity
  8
Uzytki
  0
POLYLINE
  5
4D2
100
AcDbEntity
  8
Uzytki
  6
L_0_03
 62
3
370
18
100
AcDb2dPolyline
 66
1
 70
128
  0
VERTEX
  5
4D3
100
AcDbEntity
  8
Uzytki
100
AcDbVertex
100
AcDb2dVertex
 10
7575609.34999999963
 20
5707822.05999999959
  0
VERTEX
  5
4D4
100
AcDbEntity
  8
Uzytki
100
AcDbVertex
100
AcDb2dVertex
 10
7575626.9299999997
 20
5707818.66999999993
  0
SEQEND
  5
4D5
100
AcDbEntity
  8
Uzytki
  0
POLYLINE
  5
4D6
100
AcDbEntity
  8
ZUD_EN_L_0
  6
L_0_04
 62
1
370
18
100
AcDb2dPolyline
 66
1
 70
128
  0
VERTEX
  5
4D7
100
AcDbEntity
  8
ZUD_EN_L_0
100
AcDbVertex
100
AcDb2dVertex
 10
7575601.69120131712
 20
5707818.16416483093
  0
VERTEX
  5
4D8
100
AcDbEntity
  8
ZUD_EN_L_0
100
AcDbVertex
100
AcDb2dVertex
 10
7575587.22942459024
 20
5707820.70763865206
  0
SEQEND
  5
4D9
100
AcDbEntity
  8
ZUD_EN_L_0
  0
POLYLINE
  5
4DA
100
AcDbEntity
  8
ZUD_EN_L_0
  6
L_0_04
 62
1
370
18
100
AcDb2dPolyline
 66
1
 70
128
  0
VERTEX
  5
4DB
100
AcDbEntity
  8
ZUD_EN_L_0
100
AcDbVertex
100
AcDb2dVertex
 10
7575587.22942459024
 20
5707820.70763865206
  0
VERTEX
  5
4DC
100
AcDbEntity
  8
ZUD_EN_L_0
100
AcDbVertex
100
AcDb2dVertex
 10
7575585.8119570883
 20
5707803.33295451477
  0
SEQEND
  5
4DD
100
AcDbEntity
  8
ZUD_EN_L_0
  0
POLYLINE
  5
4DE
100
AcDbEntity
  8
ZUD_EN_L_0
  6
L_0_04
 62
1
370
18
100
AcDb2dPolyline
 66
1
 70
128
  0
VERTEX
  5
4DF
100
AcDbEntity
  8
ZUD_EN_L_0
100
AcDbVertex
100
AcDb2dVertex
 10
7575602.72476944793
 20
5707823.11168507021
  0
VERTEX
  5
4E0
100
AcDbEntity
  8
ZUD_EN_L_0
100
AcDbVertex
100
AcDb2dVertex
 10
7575601.69120131712
 20
5707818.16416482907
  0
SEQEND
  5
4E1
100
AcDbEntity
  8
ZUD_EN_L_0
  0
INSERT
  5
4E2
100
AcDbEntity
  8
Pkt_projekt_KS
  6
CONTINUOUS
100
AcDbBlockReference
 66
1
  2
pikieta
 10
7575608.38999999966
 20
5707850.76999999955
 41
0.50
 42
0.50
 43
0.50
 50
0.00
  0
ATTRIB
  5
4E3
100
AcDbEntity
  8
Pkt_projekt_KS
100
AcDbText
 10
7575608.38999999966
 20
5707850.76999999955
 40
0.2
  1
ks1
 50
0.00
 41
0.62
 51
0.00
  7
STANDARD
100
AcDbAttribute
  2
Nr
 70
0
  0
SEQEND
  5
4E4
100
AcDbEntity
  8
Pkt_projekt_KS
  0
INSERT
  5
4E5
100
AcDbEntity
  8
Pkt_projekt_KS
  6
CONTINUOUS
100
AcDbBlockReference
 66
1
  2
pikieta
 10
7575606.26999999955
 20
5707834.16000000015
 41
0.50
 42
0.50
 43
0.50
 50
0.00
  0
ATTRIB
  5
4E6
100
AcDbEntity
  8
Pkt_projekt_KS
100
AcDbText
 10
7575606.26999999955
 20
5707834.16000000015
 40
0.2
  1
S6
 50
0.00
 41
0.62
 51
0.00
  7
STANDARD
100
AcDbAttribute
  2
Nr
 70
0
  0
SEQEND
  5
4E7
100
AcDbEntity
  8
Pkt_projekt_KS
  0
INSERT
  5
4E8
100
AcDbEntity
  8
Pkt_projekt_KS
  6
CONTINUOUS
100
AcDbBlockReference
 66
1
  2
pikieta
 10
7575604.91000000015
 20
5707823.74000000022
 41
0.50
 42
0.50
 43
0.50
 50
0.00
  0
ATTRIB
  5
4E9
100
AcDbEntity
  8
Pkt_projekt_KS
100
AcDbText
 10
7575604.91000000015
 20
5707823.74000000022
 40
0.2
  1
S5
 50
0.00
 41
0.62
 51
0.00
  7
STANDARD
100
AcDbAttribute
  2
Nr
 70
0
  0
SEQEND
  5
4EA
100
AcDbEntity
  8
Pkt_projekt_KS
  0
INSERT
  5
4EB
100
AcDbEntity
  8
Pkt_projekt_KS
  6
CONTINUOUS
100
AcDbBlockReference
 66
1
  2
pikieta
 10
7575608.08999999985
 20
5707823.25999999978
 41
0.50
 42
0.50
 43
0.50
 50
0.00
  0
ATTRIB
  5
4EC
100
AcDbEntity
  8
Pkt_projekt_KS
100
AcDbText
 10
7575608.08999999985
 20
5707823.25999999978
 40
0.2
  1
S7_ist
 50
0.00
 41
0.62
 51
0.00
  7
STANDARD
100
AcDbAttribute
  2
Nr
 70
0
  0
SEQEND
  5
4ED
100
AcDbEntity
  8
Pkt_projekt_KS
  0
INSERT
  5
4EE
100
AcDbEntity
  8
Pkt_projekt_KS
  6
CONTINUOUS
100
AcDbBlockReference
 66
1
  2
pikieta
 10
7575607.80999999959
 20
5707823.21999999974
 41
0.50
 42
0.50
 43
0.50
 50
0.00
  0
ATTRIB
  5
4EF
100
AcDbEntity
  8
Pkt_projekt_KS
100
AcDbText
 10
7575607.80999999959
 20
5707823.21999999974
 40
0.2
  1
kol_en
 50
0.00
 41
0.62
 51
0.00
  7
STANDARD
100
AcDbAttribute
  2
Nr
 70
0
  0
SEQEND
  5
4F0
100
AcDbEntity
  8
Pkt_projekt_KS
  0
INSERT
  5
4F1
100
AcDbEntity
  8
0
  6
CONTINUOUS
 62
7
100
AcDbBlockReference
 66
0
  2
EGBP04_03
 10
7575599.95999999996
 20
5707769.53000000026
 41
0.50
 42
0.50
 43
0.50
 50
0.00
  0
INSERT
  5
4F2
100
AcDbEntity
  8
0
  6
CONTINUOUS
 62
7
100
AcDbBlockReference
 66
0
  2
EGBP04_03
 10
7575603.9299999997
 20
5707817.25999999978
 41
0.50
 42
0.50
 43
0.50
 50
0.00
  0
INSERT
  5
4F3
100
AcDbEntity
  8
0
  6
CONTINUOUS
 62
7
100
AcDbBlockReference
 66
0
  2
EGBP04_03
 10
7575582.59999999963
 20
5707821.01999999862
 41
0.50
 42
0.50
 43
0.50
 50
0.00
  0
INSERT
  5
4F4
100
AcDbEntity
  8
0
  6
CONTINUOUS
 62
7
100
AcDbBlockReference
 66
0
  2
EGBP04_03
 10
7575638.58000000007
 20
5707811.20999999996
 41
0.50
 42
0.50
 43
0.50
 50
0.00
  0
INSERT
  5
4F5
100
AcDbEntity
  8
0
  6
CONTINUOUS
 62
7
100
AcDbBlockReference
 66
0
  2
EGBP04_03
 10
7575586.76999999955
 20
5707826.41999999993
 41
0.50
 42
0.50
 43
0.50
 50
0.00
  0
INSERT
  5
4F6
100
AcDbEntity
  8
0
  6
CONTINUOUS
 62
7
100
AcDbBlockReference
 66
0
  2
EGBP04_03
 10
7575609.34999999963
 20
5707822.05999999959
 41
0.50
 42
0.50
 43
0.50
 50
0.00
  0
INSERT
  5
4F7
100
AcDbEntity
  8
0
  6
CONTINUOUS
 62
7
100
AcDbBlockReference
 66
0
  2
EGBP04_03
 10
7575632.46999999974
 20
5708089.16000000015
 41
0.50
 42
0.50
 43
0.50
 50
0.00
  0
INSERT
  5
4F8
100
AcDbEntity
  8
0
  6
CONTINUOUS
 62
7
100
AcDbBlockReference
 66
0
  2
EGBP04_03
 10
7575609.84999999963
 20
5708091.12999999989
 41
0.50
 42
0.50
 43
0.50
 50
0.00
  0
INSERT
  5
4F9
100
AcDbEntity
  8
0
  6
CONTINUOUS
 62
7
100
AcDbBlockReference
 66
0
  2
EGBP04_03
 10
7575626.9299999997
 20
5707818.66999999993
 41
0.50
 42
0.50
 43
0.50
 50
0.00
  0
INSERT
  5
4FA
100
AcDbEntity
  8
0
  6
CONTINUOUS
 62
7
100
AcDbBlockReference
 66
0
  2
EGBP04_03
 10
7575569.38999999966
 20
5707829.78000000026
 41
0.50
 42
0.50
 43
0.50
 50
0.00
  0
INSERT
  5
4FB
100
AcDbEntity
  8
0
  6
CONTINUOUS
 62
3
100
AcDbBlockReference
 66
0
  2
OBOP02_01
 10
7575587.00999999978
 20
5707819.78000000026
 41
0.50
 42
0.50
 43
0.50
 50
0.00
  0
INSERT
  5
4FC
100
AcDbEntity
  8
0
  6
CONTINUOUS
 62
3
100
AcDbBlockReference
 66
0
  2
OBOP02_01
 10
7575604.41000000015
 20
5707816.83000000007
 41
0.50
 42
0.50
 43
0.50
 50
0.00
  0
INSERT
  5
4FD
100
AcDbEntity
  8
0
  6
CONTINUOUS
 62
7
100
AcDbBlockReference
 66
0
  2
RTPW02
 10
7575598.13370326441
 20
5707823.60089833662
 41
0.50
 42
0.50
 43
0.50
 50
0.00
  0
INSERT
  5
4FE
100
AcDbEntity
  8
0
  6
CONTINUOUS
 62
7
100
AcDbBlockReference
 66
0
  2
RTPW02
 10
7575601.63370328862
 20
5707856.07089822274
 41
0.50
 42
0.50
 43
0.50
 50
0.00
  0
INSERT
  5
4FF
100
AcDbEntity
  8
0
  6
CONTINUOUS
 62
7
100
AcDbBlockReference
 66
0
  2
RTPW02
 10
7575607.76370329689
 20
5707855.25089821778
 41
0.50
 42
0.50
 43
0.50
 50
0.00
  0
INSERT
  5
500
100
AcDbEntity
  8
0
  6
CONTINUOUS
 62
7
100
AcDbBlockReference
 66
0
  2
RTPW02
 10
7575606.59370328393
 20
5707832.08089831006
 41
0.50
 42
0.50
 43
0.50
 50
0.00
  0
INSERT
  5
501
100
AcDbEntity
  8
0
  6
CONTINUOUS
 62
7
100
AcDbBlockReference
 66
0
  2
SUUS10
 10
7575609.49000000022
 20
5707825.03000000026
 41
0.50
 42
0.50
 43
0.50
 50
352.48
  0
TEXT
  5
502
100
AcDbEntity
  8
EADTD_T_0
 62
7
370
18
100
AcDbText
 39
0.18
 10
7575596.23062555585
 20
5707868.33994174842
 40
0.90
  1
17
 50
354.70
 41
0.66
  7
STANDARD
 72
0
 11
7575596.313759082
 21
5707869.23609395325
100
AcDbText
 73
3
  0
TEXT
  5
503
100
AcDbEntity
  8
EGBB_E_T_0
 62
7
370
25
100
AcDbText
 39
0.25
 10
7575601.08672402985
 20
5707871.06625000015
 40
1.25
  1
m2
 50
0.00
 41
0.66
  7
STANDARD
 72
0
 11
7575601.08672402985
 21
5707872.31625000015
100
AcDbText
 73
3
  0
TEXT
  5
504
100
AcDbEntity
  8
KTJZ_E_T_0
 62
7
370
15
100
AcDbText
 39
0.15
 10
7575602.58244712744
 20
5707837.46120824385
 40
0.75
  1
j.kp.
 50
0.00
 41
0.66
  7
STANDARD
 72
0
 11
7575602.58244712744
 21
5707838.21120824385
100
AcDbText
 73
3
  0
TEXT
  5
505
100
AcDbEntity
  8
Numery_dzialek
 62
7
370
35
100
AcDbText
 39
0.35
 10
7575593.2082182765
 20
5707815.62187278736
 40
1.75
  1
15-426
 50
0.00
 41
0.66
  7
STANDARD
 72
0
 11
7575593.2082182765
 21
5707817.37187278736
100
AcDbText
 73
3
  0
TEXT
  5
506
100
AcDbEntity
  8
Numery_dzialek
 62
7
370
35
100
AcDbText
 39
0.35
 10
7575608.52262117807
 20
5707814.94622900523
 40
1.75
  1
15-427
 50
0.00
 41
0.66
  7
STANDARD
 72
0
 11
7575608.52262117807
 21
5707816.69622900523
100
AcDbText
 73
3
  0
TEXT
  5
507
100
AcDbEntity
  8
Numery_dzialek
 62
7
370
35
100
AcDbText
 39
0.35
 10
7575600.47415265907
 20
5707850.28100514412
 40
1.75
  1
15-175/1
 50
0.00
 41
0.66
  7
STANDARD
 72
0
 11
7575600.47415265907
 21
5707852.03100514412
100
AcDbText
 73
3
  0
TEXT
  5
508
100
AcDbEntity
  8
Numery_dzialek
 62
7
370
35
100
AcDbText
 39
0.35
 10
7575614.10933601018
 20
5707848.34055354632
 40
1.75
  1
15-176
 50
0.00
 41
0.66
  7
STANDARD
 72
0
 11
7575614.10933601018
 21
5707850.09055354632
100
AcDbText
 73
3
  0
TEXT
  5
509
100
AcDbEntity
  8
Numery_dzialek
 62
7
370
35
100
AcDbText
 39
0.35
 10
7575587.88266886957
 20
5707856.66396317258
 40
1.75
  1
15-174
 50
0.00
 41
0.66
  7
STANDARD
 72
0
 11
7575587.88266886957
 21
5707858.41396317258
100
AcDbText
 73
3
  0
TEXT
  5
50A
100
AcDbEntity
  8
Numery_dzialek
 62
7
370
35
100
AcDbText
 39
0.35
 10
7575599.06944571435
 20
5707819.76389043499
 40
1.75
  1
15-1731
 50
0.00
 41
0.66
  7
STANDARD
 72
0
 11
7575599.06944571435
 21
5707821.51389043499
100
AcDbText
 73
3
  0
TEXT
  5
50B
100
AcDbEntity
  8
RTPW_T_1
 62
7
370
15
100
AcDbText
 39
0.15
 10
7575598.13381084707
 20
5707823.60153951775
 40
0.75
  1
159.40
 50
80.50
 41
0.66
  7
STANDARD
 72
0
 11
7575597.39409664553
 21
5707823.72532522213
100
AcDbText
 73
3
  0
TEXT
  5
50C
100
AcDbEntity
  8
RTPW_T_1
 62
7
370
15
100
AcDbText
 39
0.15
 10
7575602.16684328765
 20
5707853.41243490018
 40
0.75
  1
159.82
 50
85.30
 41
0.66
  7
STANDARD
 72
0
 11
7575601.41936524771
 21
5707853.47388878185
100
AcDbText
 73
3
  0
TEXT
  5
50D
100
AcDbEntity
  8
RTPW_T_1
 62
7
370
15
100
AcDbText
 39
0.15
 10
7575607.54370655678
 20
5707852.65494005848
 40
0.75
  1
159.79
 50
85.20
 41
0.66
  7
STANDARD
 72
0
 11
7575606.79633691255
 21
5707852.71769844089
100
AcDbText
 73
3
  0
TEXT
  5
50E
100
AcDbEntity
  8
RTPW_T_1
 62
7
370
15
100
AcDbText
 39
0.15
 10
7575606.80862225126
 20
5707829.48354049027
 40
0.75
  1
159.56
 50
94.70
 41
0.66
  7
STANDARD
 72
0
 11
7575606.06114421133
 21
5707829.4220866086
100
AcDbText
 73
3
  0
TEXT
  5
50F
100
AcDbEntity
  8
SUPE_E_T_2
 62
1
370
15
100
AcDbText
 39
0.15
 10
7575615.04842453077
 20
5707869.096043461
 40
0.75
  1
eS
 50
85.20
 41
0.66
  7
STANDARD
 72
0
 11
7575614.30105488654
 21
5707869.15880184341
100
AcDbText
 73
3
  0
TEXT
  5
510
100
AcDbEntity
  8
SUPE_E_T_2
 62
1
370
15
100
AcDbText
 39
0.15
 10
7575612.35840961616
 20
5707836.9546943251
 40
0.75
  1
eS
 50
85.20
 41
0.66
  7
STANDARD
 72
0
 11
7575611.61103997193
 21
5707837.01745270751
100
AcDbText
 73
3
  0
TEXT
  5
511
100
AcDbEntity
  8
SUPE_E_T_3
 62
1
370
15
100
AcDbText
 39
0.15
 10
7575590.87310004886
 20
5707847.4229185367
 40
0.75
  1
eN
 50
83.50
 41
0.66
  7
STANDARD
 72
0
 11
7575590.12792115752
 21
5707847.5078209471
100
AcDbText
 73
3
  0
TEXT
  5
512
100
AcDbEntity
  8
SUPE_E_T_3
 62
1
370
15
100
AcDbText
 39
0.15
 10
7575594.11745378841
 20
5707827.60320512112
 40
0.75
  1
eN
 50
347.60
 41
0.66
  7
STANDARD
 72
0
 11
7575594.27850528341
 21
5707828.33570932969
100
AcDbText
 73
3
  0
TEXT
  5
513
100
AcDbEntity
  8
SUPE_E_T_3
 62
1
370
15
100
AcDbText
 39
0.15
 10
7575601.63010628428
 20
5707822.90150664374
 40
0.75
  1
eN
 50
349.50
 41
0.66
  7
STANDARD
 72
0
 11
7575601.76678292826
 21
5707823.63894782402
100
AcDbText
 73
3
  0
TEXT
  5
514
100
AcDbEntity
  8
SUPE_E_T_3
 62
1
370
15
100
AcDbText
 39
0.15
 10
7575587.92657901812
 20
5707830.16925308295
 40
0.75
  1
eN
 50
84.10
 41
0.66
  7
STANDARD
 72
0
 11
7575587.18055190518
 21
5707830.24634748511
100
AcDbText
 73
3
  0
TEXT
  5
515
100
AcDbEntity
  8
SUPG_E_T_2
 62
7
370
15
100
AcDbText
 39
0.15
 10
7575590.17417559121
 20
5707830.82188679092
 40
0.75
  1
gs25
 50
81.30
 41
0.66
  7
STANDARD
 72
0
 11
7575589.43280517589
 21
5707830.93533240631
100
AcDbText
 73
3
  0
TEXT
  5
516
100
AcDbEntity
  8
SUPG_E_T_3
 62
7
370
15
100
AcDbText
 39
0.15
 10
7575591.52420987003
 20
5707841.19107370544
 40
0.75
  1
gn40
 50
85.00
 41
0.66
  7
STANDARD
 72
0
 11
7575590.77706384659
 21
5707841.25644051284
100
AcDbText
 73
3
  0
TEXT
  5
517
100
AcDbEntity
  8
SUPK_E_T_1
 62
34
370
15
100
AcDbText
 39
0.15
 10
7575609.08192235883
 20
5707864.2113918392
 40
0.75
  1
kl
 50
274.60
 41
0.66
  7
STANDARD
 72
0
 11
7575609.82950651739
 21
5707864.27154103201
100
AcDbText
 73
3
  0
TEXT
  5
518
100
AcDbEntity
  8
SUPP_E_T_2
 62
1
370
15
100
AcDbText
 39
0.15
 10
7575596.1752243964
 20
5707818.75353505462
 40
0.75
  1
proj.e
 50
350.00
 41
0.66
  7
STANDARD
 72
0
 11
7575596.3054605294
 21
5707819.49214086961
100
AcDbText
 73
3
  0
TEXT
  5
519
100
AcDbEntity
  8
SUPP_E_T_4
 62
34
370
15
100
AcDbText
 39
0.15
 10
7575607.82463488914
 20
5707843.38026650622
 40
0.75
  1
proj.k
 50
82.60
 41
0.66
  7
STANDARD
 72
0
 11
7575607.08088151738
 21
5707843.47686320357
100
AcDbText
 73
3
  0
TEXT
  5
51A
100
AcDbEntity
  8
SUPT_E_T_0
 62
30
370
15
100
AcDbText
 39
0.15
 10
7575596.60157567728
 20
5707822.23779989593
 40
0.75
  1
t
 50
82.30
 41
0.66
  7
STANDARD
 72
0
 11
7575595.85833827779
 21
5707822.33828953467
100
AcDbText
 73
3
  0
TEXT
  5
51B
100
AcDbEntity
  8
SUPT_E_T_0
 62
30
370
15
100
AcDbText
 39
0.15
 10
7575596.23803466
 20
5707818.83328165393
 40
0.75
  1
t
 50
89.90
 41
0.66
  7
STANDARD
 72
0
 11
7575595.48803580273
 21
5707818.83459065016
100
AcDbText
 73
3
  0
TEXT
  5
51C
100
AcDbEntity
  8
SUPT_E_T_0
 62
30
370
15
100
AcDbText
 39
0.15
 10
7575609.77630871721
 20
5707816.5889861891
 40
0.75
  1
t
 50
277.60
 41
0.66
  7
STANDARD
 72
0
 11
7575610.51972037274
 21
5707816.68817848153
100
AcDbText
 73
3
  0
TEXT
  5
51D
100
AcDbEntity
  8
SUPT_E_T_0
 62
30
370
15
100
AcDbText
 39
0.15
 10
7575599.13427910209
 20
5707818.62975137681
 40
0.75
  1
t
 50
350.30
 41
0.66
  7
STANDARD
 72
0
 11
7575599.26064613648
 21
5707819.36902897898
100
AcDbText
 73
3
  0
TEXT
  5
51E
100
AcDbEntity
  8
SUPW_E_T_0
 62
5
370
15
100
AcDbText
 39
0.15
 10
7575591.37008413207
 20
5707860.58606020641
 40
0.75
  1
wo32
 50
84.20
 41
0.66
  7
STANDARD
 72
0
 11
7575590.62392360065
 21
5707860.66185242962
100
AcDbText
 73
3
  0
TEXT
  5
51F
100
AcDbEntity
  8
SUTE_T_0
 62
1
370
15
100
AcDbText
 39
0.15
 10
7575596.84698072821
 20
5707827.40612577274
 40
0.75
  1
158.6
 50
347.10
 41
0.66
  7
STANDARD
 72
0
 11
7575597.01441831514
 21
5707828.13719666842
100
AcDbText
 73
3
  0
TEXT
  5
520
100
AcDbEntity
  8
SUTE_T_0
 62
1
370
15
100
AcDbText
 39
0.15
 10
7575587.13148079254
 20
5707825.58131289016
 40
0.75
  1
158.7
 50
349.50
 41
0.66
  7
STANDARD
 72
0
 11
7575587.26815743651
 21
5707826.31875407044
100
AcDbText
 73
3
  0
TEXT
  5
521
100
AcDbEntity
  8
SUTE_T_0
 62
1
370
15
100
AcDbText
 39
0.15
 10
7575609.87424556818
 20
5707825.33622265235
 40
0.75
  1
158.7
 50
86.40
 41
0.66
  7
STANDARD
 72
0
 11
7575609.12572552171
 21
5707825.38331554178
100
AcDbText
 73
3
  0
TEXT
  5
522
100
AcDbEntity
  8
SUTG_T_0
 62
52
370
15
100
AcDbText
 39
0.15
 10
7575609.48072985467
 20
5707820.97145309765
 40
0.75
  1
159.15
 50
349.40
 41
0.66
  7
STANDARD
 72
0
 11
7575609.61869336758
 21
5707821.70865460951
100
AcDbText
 73
3
  0
TEXT
  5
523
100
AcDbEntity
  8
SUTG_T_0
 62
52
370
15
100
AcDbText
 39
0.15
 10
7575592.45385461859
 20
5707852.58071244415
 40
0.75
  1
158.83
 50
85.50
 41
0.66
  7
STANDARD
 72
0
 11
7575591.7061666185
 21
5707852.63955676556
100
AcDbText
 73
3
  0
TEXT
  5
524
100
AcDbEntity
  8
SUTK_T_0
 62
7
370
15
100
AcDbText
 39
0.15
 10
7575605.21464868728
 20
5707859.40518612973
 40
0.75
  1
159.76
 50
0.00
 41
0.66
  7
STANDARD
 72
0
 11
7575605.21464868728
 21
5707860.15518612973
100
AcDbText
 73
3
  0
TEXT
  5
525
100
AcDbEntity
  8
SUTK_T_0
 62
7
370
15
100
AcDbText
 39
0.15
 10
7575610.1119616311
 20
5707866.05527437106
 40
0.75
  1
159.77
 50
0.00
 41
0.66
  7
STANDARD
 72
0
 11
7575610.1119616311
 21
5707866.80527437106
100
AcDbText
 73
3
  0
TEXT
  5
526
100
AcDbEntity
  8
SUTK_T_0
 62
7
370
15
100
AcDbText
 39
0.15
 10
7575610.1119616311
 20
5707864.80527437106
 40
0.75
  1
145.61
 50
0.00
 41
0.66
  7
STANDARD
 72
0
 11
7575610.1119616311
 21
5707865.55527437106
100
AcDbText
 73
3
  0
TEXT
  5
527
100
AcDbEntity
  8
SUTK_T_0
 62
7
370
15
100
AcDbText
 39
0.15
 10
7575610.8776552612
 20
5707826.50346085988
 40
0.75
  1
159.44
 50
0.00
 41
0.66
  7
STANDARD
 72
0
 11
7575610.8776552612
 21
5707827.25346085988
100
AcDbText
 73
3
  0
TEXT
  5
528
100
AcDbEntity
  8
SUTK_T_0
 62
7
370
15
100
AcDbText
 39
0.15
 10
7575610.8776552612
 20
5707825.25346085988
 40
0.75
  1
157.79
 50
0.00
 41
0.66
  7
STANDARD
 72
0
 11
7575610.8776552612
 21
5707826.00346085988
100
AcDbText
 73
3
  0
TEXT
  5
529
100
AcDbEntity
  8
SUTT_T_0
 62
30
370
15
100
AcDbText
 39
0.15
 10
7575603.01026024111
 20
5707817.96629111096
 40
0.75
  1
158.6
 50
350.30
 41
0.66
  7
STANDARD
 72
0
 11
7575603.1366272755
 21
5707818.70556871314
100
AcDbText
 73
3
  0
TEXT
  5
52A
100
AcDbEntity
  8
SUTW_T_0
 62
5
370
15
100
AcDbText
 39
0.15
 10
7575591.09770021867
 20
5707837.38476695027
 40
0.75
  1
159.33
 50
0.00
 41
0.66
  7
STANDARD
 72
0
 11
7575591.09770021867
 21
5707838.13476695027
100
AcDbText
 73
3
  0
TEXT
  5
52B
100
AcDbEntity
  8
SUUE_E_T_2
 62
7
370
15
100
AcDbText
 39
0.15
 10
7575589.14584951103
 20
5707833.24687254894
 40
0.75
  1
e
 50
0.00
 41
0.66
  7
STANDARD
 72
0
 11
7575589.14584951103
 21
5707833.99687254895
100
AcDbText
 73
3
  0
TEXT
  5
52C
100
AcDbEntity
  8
SUUE_E_T_2
 62
7
370
15
100
AcDbText
 39
0.15
 10
7575586.90840271115
 20
5707834.85459944978
 40
0.75
  1
e
 50
0.00
 41
0.66
  7
STANDARD
 72
0
 11
7575586.90840271115
 21
5707835.60459944978
100
AcDbText
 73
3
  0
TEXT
  5
52D
100
AcDbEntity
  8
SUUG_E_T_1
 62
7
370
15
100
AcDbText
 39
0.15
 10
7575591.19440772012
 20
5707833.50142611004
 40
0.75
  1
g
 50
0.00
 41
0.66
  7
STANDARD
 72
0
 11
7575591.19440772012
 21
5707834.25142611004
100
AcDbText
 73
3
  0
TEXT
  5
52E
100
AcDbEntity
  8
SUUK_E_T_1
 62
7
370
15
100
AcDbText
 39
0.15
 10
7575610.08938300051
 20
5707857.58542583976
 40
0.75
  1
kl
 50
0.00
 41
0.66
  7
STANDARD
 72
0
 11
7575610.08938300051
 21
5707858.33542583976
100
AcDbText
 73
3
  0
TEXT
  5
52F
100
AcDbEntity
  8
SUUK_E_T_1
 62
7
370
15
100
AcDbText
 39
0.15
 10
7575611.22345537972
 20
5707862.53641778976
 40
0.75
  1
kl
 50
0.00
 41
0.66
  7
STANDARD
 72
0
 11
7575611.22345537972
 21
5707863.28641778976
100
AcDbText
 73
3
  0
TEXT
  5
530
100
AcDbEntity
  8
SUUK_E_T_3
 62
7
370
15
100
AcDbText
 39
0.15
 10
7575607.43466351088
 20
5707823.65309805982
 40
0.75
  1
k
 50
0.00
 41
0.66
  7
STANDARD
 72
0
 11
7575607.43466351088
 21
5707824.40309805982
100
AcDbText
 73
3
  0
TEXT
  5
531
100
AcDbEntity
  8
SUUW_E_T_5
 62
7
370
15
100
AcDbText
 39
0.15
 10
7575588.06729578972
 20
5707836.91564241983
 40
0.75
  1
w
 50
0.00
 41
0.66
  7
STANDARD
 72
0
 11
7575588.06729578972
 21
5707837.66564241983
100
AcDbText
 73
3
  0
ENDSEC
  0
SECTION
  2
OBJECTS
  0
DICTIONARY
  5
532
330
0
100
AcDbDictionary
280
0
281
1
  3
ACAD_GROUP
350
533
  3
ACAD_LAYOUT
350
534
  3
ACAD_MLINESTYLE
350
535
  3
ACAD_PLOTSETTINGS
350
536
  3
ACAD_PLOTSTYLENAME
350
537
  3
ACAD_WIPEOUT_VARS
350
538
  0
DICTIONARY
  5
533
102
{ACAD_REACTORS
330
532
102
}
330
532
100
AcDbDictionary
280
0
281
1
  0
DICTIONARY
  5
534
102
{ACAD_REACTORS
330
532
102
}
330
532
100
AcDbDictionary
280
0
281
1
  3
Layout
350
50
  3
Model
350
4E
  0
DICTIONARY
  5
535
102
{ACAD_REACTORS
330
532
102
}
330
532
100
AcDbDictionary
280
0
281
1
  3
Standard
350
539
  3
L_0_02
350
7
  0
DICTIONARY
  5
536
102
{ACAD_REACTORS
330
532
102
}
330
532
100
AcDbDictionary
280
0
281
1
  0
ACDBDICTIONARYWDFLT
  5
537
102
{ACAD_REACTORS
330
532
102
}
330
532
100
AcDbDictionary
281
1
  3
Normal
350
E
100
AcDbDictionaryWithDefault
340
E
  0
WIPEOUTVARIABLES
  5
538
102
{ACAD_REACTORS
330
532
102
}
330
532
100
AcDbWipeoutVariables
 70
0
  0
LAYOUT
  5
50
100
AcDbPlotSettings
  1

  2

  4

  6

 40
0.0
 41
0.0
 42
0.0
 43
0.0
 44
0.0
 45
0.0
 46
0.0
 47
0.0
 48
0.0
 49
0.0
140
0.0
141
0.0
142
1.0
143
1.0
 70
688
 72
1
 73
0
 74
5
  7

 75
0
147
1.0
148
0.0
149
0.0
100
AcDbLayout
  1
Layout
 70
1
 71
1
 10
0.0
 20
0.0
 11
420.0
 21
297.0
 12
0.0
 22
0.0
 32
0.0
 14
100000000000000000000.0
 24
100000000000000000000.0
 34
100000000000000000000.0
 15
-100000000000000000000.0
 25
-100000000000000000000.0
 35
-100000000000000000000.0
146
0.0
 13
0.0
 23
0.0
 33
0.0
 16
1.0
 26
0.0
 36
0.0
 17
0.0
 27
1.0
 37
0.0
 76
0
330
4F
  0
LAYOUT
  5
4E
100
AcDbPlotSettings
  1

  2

  4

  6

 40
0.0
 41
0.0
 42
0.0
 43
0.0
 44
0.0
 45
0.0
 46
0.0
 47
0.0
 48
0.0
 49
0.0
140
0.0
141
0.0
142
1.0
143
1.0
 70
1712
 72
1
 73
0
 74
0
  7

 75
0
147
1.0
148
0.0
149
0.0
100
AcDbLayout
  1
Model
 70
1
 71
0
 10
0.0
 20
0.0
 11
12.0
 21
9.0
 12
0.0
 22
0.0
 32
0.0
 14
0.0
 24
0.0
 34
0.0
 15
0.0
 25
0.0
 35
0.0
146
0.0
 13
0.0
 23
0.0
 33
0.0
 16
1.0
 26
0.0
 36
0.0
 17
0.0
 27
1.0
 37
0.0
 76
0
330
4D
  0
MLINESTYLE
  5
539
102
{ACAD_REACTORS
330
535
102
}
330
535
100
AcDbMlineStyle
  2
Standard
 70
0
  3

 62
256
 51
90.0
 52
90.0
  2
Standard
 71
2
 49
0.5
 62
256
  6
ByLayer
 49
-0.5
 62
256
  6
ByLayer
  0
MLINESTYLE
  5
7
100
AcDbMlineStyle
  2
L_0_02
 70
0
  3

 51
90.0
 52
90.0
 71
1
 49
0.0
 62
256
  6
CONTINUOUS
  0
ACDBPLACEHOLDER
  5
E
  0
ENDSEC
  0
EOF
